ISO-10303-21;
HEADER;
FILE_DESCRIPTION (( 'STEP AP214' ),
    '1' );
FILE_NAME ('INGUN_22661.STEP',
    '2024-07-22T12:25:43',
    ( '' ),
    ( '' ),
    'SwSTEP 2.0',
    'SolidWorks 2021',
    '' );
FILE_SCHEMA (( 'AUTOMOTIVE_DESIGN' ));
ENDSEC;

DATA;
#1 = EDGE_CURVE ( 'NONE', #176, #250, #53, .T. ) ;
#2 = CARTESIAN_POINT ( 'NONE',  ( 7.081923622059961207E-16, 20.00000000000003908, -1.249999999999997558 ) ) ;
#3 = ORIENTED_EDGE ( 'NONE', *, *, #133, .F. ) ;
#4 = DIRECTION ( 'NONE',  ( -4.440892098500626162E-16, 0.000000000000000000, 1.000000000000000000 ) ) ;
#5 = SURFACE_SIDE_STYLE ('',( #91 ) ) ;
#6 = LINE ( 'NONE', #35, #69 ) ;
#7 = PRODUCT_RELATED_PRODUCT_CATEGORY ( 'part', '', ( #30 ) ) ;
#8 = CIRCLE ( 'NONE', #220, 1.250000000000000222 ) ;
#9 = SURFACE_STYLE_FILL_AREA ( #271 ) ;
#10 = MECHANICAL_DESIGN_GEOMETRIC_PRESENTATION_REPRESENTATION (  '', ( #200 ), #254 ) ;
#11 = DIRECTION ( 'NONE',  ( -4.100874096515485978E-16, -1.000000000000000000, 1.851831363748751143E-16 ) ) ;
#12 = PRODUCT_DEFINITION_FORMATION_WITH_SPECIFIED_SOURCE ( 'ANY', '', #30, .NOT_KNOWN. ) ;
#13 = FILL_AREA_STYLE ('',( #160 ) ) ;
#14 = DIRECTION ( 'NONE',  ( 4.100874096515484006E-16, 1.000000000000000000, 1.851831363748752623E-16 ) ) ;
#15 = ORIENTED_EDGE ( 'NONE', *, *, #278, .F. ) ;
#16 = DIRECTION ( 'NONE',  ( 4.100874096515485978E-16, 1.000000000000000000, -1.851831363748751143E-16 ) ) ;
#17 = DIRECTION ( 'NONE',  ( 4.100874096515485978E-16, 1.000000000000000000, -1.851831363748751143E-16 ) ) ;
#18 = UNCERTAINTY_MEASURE_WITH_UNIT (LENGTH_MEASURE( 1.000000000000000082E-05 ), #247, 'distance_accuracy_value', 'NONE');
#19 = CYLINDRICAL_SURFACE ( 'NONE', #328, 1.250000000000000222 ) ;
#20 =( NAMED_UNIT ( * ) SI_UNIT ( $, .STERADIAN. ) SOLID_ANGLE_UNIT ( ) );
#21 = CARTESIAN_POINT ( 'NONE',  ( 0.000000000000000000, 0.000000000000000000, 0.000000000000000000 ) ) ;
#22 = DIRECTION ( 'NONE',  ( 4.100874096515485978E-16, 1.000000000000000000, -1.851831363748751143E-16 ) ) ;
#23 = CARTESIAN_POINT ( 'NONE',  ( 0.000000000000000000, 20.00000000000003908, 0.000000000000000000 ) ) ;
#24 = VECTOR ( 'NONE', #259, 1000.000000000000000 ) ;
#25 = AXIS2_PLACEMENT_3D ( 'NONE', #326, #210, #213 ) ;
#26 = EDGE_CURVE ( 'NONE', #351, #260, #187, .T. ) ;
#27 = DIRECTION ( 'NONE',  ( -4.440892098500626162E-16, 0.000000000000000000, 1.000000000000000000 ) ) ;
#28 = DIRECTION ( 'NONE',  ( -4.440892098500626162E-16, 0.000000000000000000, 1.000000000000000000 ) ) ;
#29 = ORIENTED_EDGE ( 'NONE', *, *, #227, .F. ) ;
#30 = PRODUCT ( 'INGUN_22661', 'INGUN_22661', '', ( #64 ) ) ;
#31 = EDGE_LOOP ( 'NONE', ( #290, #185, #59, #358 ) ) ;
#32 = ORIENTED_EDGE ( 'NONE', *, *, #139, .F. ) ;
#33 = ADVANCED_FACE ( 'NONE', ( #270 ), #282, .T. ) ;
#34 = EDGE_CURVE ( 'NONE', #316, #71, #87, .T. ) ;
#35 = CARTESIAN_POINT ( 'NONE',  ( -5.551115123125771855E-16, 20.00000000000003908, 1.249999999999997558 ) ) ;
#36 = ORIENTED_EDGE ( 'NONE', *, *, #174, .T. ) ;
#37 = ORIENTED_EDGE ( 'NONE', *, *, #1, .F. ) ;
#38 = AXIS2_PLACEMENT_3D ( 'NONE', #287, #148, #231 ) ;
#39 = AXIS2_PLACEMENT_3D ( 'NONE', #146, #283, #350 ) ;
#40 = MANIFOLD_SOLID_BREP ( 'M3 Gewindebohrung1', #309 ) ;
#41 =( NAMED_UNIT ( * ) PLANE_ANGLE_UNIT ( ) SI_UNIT ( $, .RADIAN. ) );
#42 = VECTOR ( 'NONE', #11, 1000.000000000000000 ) ;
#43 = DIRECTION ( 'NONE',  ( 4.100874096515485978E-16, 1.000000000000000000, -1.851831363748751143E-16 ) ) ;
#44 = AXIS2_PLACEMENT_3D ( 'NONE', #299, #14, #246 ) ;
#45 = CARTESIAN_POINT ( 'NONE',  ( 0.000000000000000000, 20.00000000000003908, 0.000000000000000000 ) ) ;
#46 = FACE_OUTER_BOUND ( 'NONE', #320, .T. ) ;
#47 = CARTESIAN_POINT ( 'NONE',  ( 0.000000000000000000, 0.000000000000000000, 0.000000000000000000 ) ) ;
#48 = ORIENTED_EDGE ( 'NONE', *, *, #371, .T. ) ;
#49 =( GEOMETRIC_REPRESENTATION_CONTEXT ( 3 ) GLOBAL_UNCERTAINTY_ASSIGNED_CONTEXT ( ( #264 ) ) GLOBAL_UNIT_ASSIGNED_CONTEXT ( ( #70, #41, #158 ) ) REPRESENTATION_CONTEXT ( 'NONE', 'WORKASPACE' ) );
#50 = FACE_OUTER_BOUND ( 'NONE', #354, .T. ) ;
#51 = EDGE_CURVE ( 'NONE', #71, #351, #134, .T. ) ;
#52 = CARTESIAN_POINT ( 'NONE',  ( 0.000000000000000000, 20.00000000000003908, 0.000000000000000000 ) ) ;
#53 = CIRCLE ( 'NONE', #293, 1.250000000000000222 ) ;
#54 = DIRECTION ( 'NONE',  ( -4.100874096515485978E-16, -1.000000000000000000, 1.851831363748751143E-16 ) ) ;
#55 = AXIS2_PLACEMENT_3D ( 'NONE', #285, #145, #28 ) ;
#56 =( NAMED_UNIT ( * ) SI_UNIT ( $, .STERADIAN. ) SOLID_ANGLE_UNIT ( ) );
#57 = ORIENTED_EDGE ( 'NONE', *, *, #371, .F. ) ;
#58 = DIRECTION ( 'NONE',  ( 4.100874096515485978E-16, 1.000000000000000000, -1.851831363748751143E-16 ) ) ;
#59 = ORIENTED_EDGE ( 'NONE', *, *, #294, .T. ) ;
#60 = VERTEX_POINT ( 'NONE', #129 ) ;
#61 = ADVANCED_FACE ( 'NONE', ( #159 ), #103, .T. ) ;
#62 = DIRECTION ( 'NONE',  ( -4.440892098500626162E-16, 0.000000000000000000, 1.000000000000000000 ) ) ;
#63 = VERTEX_POINT ( 'NONE', #99 ) ;
#64 = PRODUCT_CONTEXT ( 'NONE', #348, 'mechanical' ) ;
#65 = ORIENTED_EDGE ( 'NONE', *, *, #194, .T. ) ;
#66 = ADVANCED_FACE ( 'NONE', ( #334 ), #240, .F. ) ;
#67 = CARTESIAN_POINT ( 'NONE',  ( 1.332267629550188046E-15, 20.00000000000003908, -3.000000000000000444 ) ) ;
#68 = ORIENTED_EDGE ( 'NONE', *, *, #234, .T. ) ;
#69 = VECTOR ( 'NONE', #374, 1000.000000000000000 ) ;
#70 =( LENGTH_UNIT ( ) NAMED_UNIT ( * ) SI_UNIT ( .MILLI., .METRE. ) );
#71 = VERTEX_POINT ( 'NONE', #77 ) ;
#72 = PRESENTATION_STYLE_ASSIGNMENT (( #130 ) ) ;
#73 = APPLICATION_PROTOCOL_DEFINITION ( 'draft international standard', 'automotive_design', 1998, #348 ) ;
#74 = ORIENTED_EDGE ( 'NONE', *, *, #34, .T. ) ;
#75 = STYLED_ITEM ( 'NONE', ( #317 ), #223 ) ;
#76 = CARTESIAN_POINT ( 'NONE',  ( 0.000000000000000000, 8.000000000000007105, 0.000000000000000000 ) ) ;
#77 = CARTESIAN_POINT ( 'NONE',  ( -2.092613966347741615E-15, 20.00000000000003908, 3.000000000000000444 ) ) ;
#78 = ADVANCED_FACE ( 'NONE', ( #192 ), #19, .T. ) ;
#79 = LINE ( 'NONE', #170, #122 ) ;
#80 = FILL_AREA_STYLE ('',( #142 ) ) ;
#81 =( LENGTH_UNIT ( ) NAMED_UNIT ( * ) SI_UNIT ( .MILLI., .METRE. ) );
#82 = DIRECTION ( 'NONE',  ( 4.100874096515485978E-16, 1.000000000000000000, -1.851831363748751143E-16 ) ) ;
#83 = STYLED_ITEM ( 'NONE', ( #193 ), #110 ) ;
#84 = DIRECTION ( 'NONE',  ( 4.100874096515485978E-16, 1.000000000000000000, -1.851831363748751143E-16 ) ) ;
#85 = CIRCLE ( 'NONE', #143, 1.249999999999997558 ) ;
#86 = ORIENTED_EDGE ( 'NONE', *, *, #90, .F. ) ;
#87 = CIRCLE ( 'NONE', #183, 3.000000000000000444 ) ;
#88 = FACE_OUTER_BOUND ( 'NONE', #31, .T. ) ;
#89 = ORIENTED_EDGE ( 'NONE', *, *, #288, .F. ) ;
#90 = EDGE_CURVE ( 'NONE', #63, #260, #79, .T. ) ;
#91 = SURFACE_STYLE_FILL_AREA ( #314 ) ;
#92 = ORIENTED_EDGE ( 'NONE', *, *, #166, .T. ) ;
#93 = CARTESIAN_POINT ( 'NONE',  ( 0.000000000000000000, 12.00000000000003197, 0.000000000000000000 ) ) ;
#94 = EDGE_LOOP ( 'NONE', ( #86, #181, #262, #343 ) ) ;
#95 = CARTESIAN_POINT ( 'NONE',  ( 0.000000000000000000, 20.00000000000003908, 0.000000000000000000 ) ) ;
#96 = ORIENTED_EDGE ( 'NONE', *, *, #278, .T. ) ;
#97 = ADVANCED_FACE ( 'NONE', ( #50 ), #281, .T. ) ;
#98 = FACE_OUTER_BOUND ( 'NONE', #268, .T. ) ;
#99 = CARTESIAN_POINT ( 'NONE',  ( -1.085238126293618290E-15, 8.000000000000007105, -1.250000000000000222 ) ) ;
#100 =( LENGTH_UNIT ( ) NAMED_UNIT ( * ) SI_UNIT ( .MILLI., .METRE. ) );
#101 = PRESENTATION_STYLE_ASSIGNMENT (( #322 ) ) ;
#102 = DIRECTION ( 'NONE',  ( -4.100874096515485978E-16, -1.000000000000000000, 1.851831363748751143E-16 ) ) ;
#103 = CYLINDRICAL_SURFACE ( 'NONE', #107, 1.250000000000000222 ) ;
#104 = ORIENTED_EDGE ( 'NONE', *, *, #211, .F. ) ;
#105 = CIRCLE ( 'NONE', #230, 3.000000000000000444 ) ;
#106 = APPLICATION_CONTEXT ( 'automotive_design' ) ;
#107 = AXIS2_PLACEMENT_3D ( 'NONE', #137, #102, #243 ) ;
#108 = SURFACE_SIDE_STYLE ('',( #338 ) ) ;
#109 = CONICAL_SURFACE ( 'NONE', #25, 1.249999999999997780, 1.029744258676653201 ) ;
#110 = ADVANCED_FACE ( 'NONE', ( #195 ), #310, .F. ) ;
#111 = CARTESIAN_POINT ( 'NONE',  ( 0.000000000000000000, 8.000000000000007105, 0.000000000000000000 ) ) ;
#112 = FACE_OUTER_BOUND ( 'NONE', #179, .T. ) ;
#113 = DIRECTION ( 'NONE',  ( -4.440892098500626162E-16, 0.000000000000000000, 1.000000000000000000 ) ) ;
#114 = CARTESIAN_POINT ( 'NONE',  ( -1.085238126293618290E-15, -2.314789204685934985E-16, -1.250000000000000222 ) ) ;
#115 = ORIENTED_EDGE ( 'NONE', *, *, #234, .F. ) ;
#116 = COLOUR_RGB ( '',1.000000000000000000, 1.000000000000000000, 1.000000000000000000 ) ;
#117 = PLANE ( 'NONE',  #39 ) ;
#118 = VERTEX_POINT ( 'NONE', #308 ) ;
#119 = CARTESIAN_POINT ( 'NONE',  ( -5.551115123125771855E-16, 20.00000000000003908, 1.249999999999997558 ) ) ;
#120 = SURFACE_STYLE_USAGE ( .BOTH. , #5 ) ;
#121 = ORIENTED_EDGE ( 'NONE', *, *, #166, .F. ) ;
#122 = VECTOR ( 'NONE', #168, 1000.000000000000227 ) ;
#123 = DIRECTION ( 'NONE',  ( 4.100874096515485978E-16, 1.000000000000000000, -1.851831363748751143E-16 ) ) ;
#124 = VECTOR ( 'NONE', #222, 1000.000000000000114 ) ;
#125 = AXIS2_PLACEMENT_3D ( 'NONE', #95, #84, #315 ) ;
#126 = VERTEX_POINT ( 'NONE', #372 ) ;
#127 = AXIS2_PLACEMENT_3D ( 'NONE', #76, #43, #357 ) ;
#128 = AXIS2_PLACEMENT_3D ( 'NONE', #47, #164, #217 ) ;
#129 = CARTESIAN_POINT ( 'NONE',  ( -9.321572764002007357E-16, 12.00000000000003197, -1.249999999999997780 ) ) ;
#130 = SURFACE_STYLE_USAGE ( .BOTH. , #132 ) ;
#131 =( NAMED_UNIT ( * ) SI_UNIT ( $, .STERADIAN. ) SOLID_ANGLE_UNIT ( ) );
#132 = SURFACE_SIDE_STYLE ('',( #212 ) ) ;
#133 = EDGE_CURVE ( 'NONE', #305, #351, #255, .T. ) ;
#134 = LINE ( 'NONE', #214, #42 ) ;
#135 = UNCERTAINTY_MEASURE_WITH_UNIT (LENGTH_MEASURE( 1.000000000000000082E-05 ), #81, 'distance_accuracy_value', 'NONE');
#136 =( NAMED_UNIT ( * ) PLANE_ANGLE_UNIT ( ) SI_UNIT ( $, .RADIAN. ) );
#137 = CARTESIAN_POINT ( 'NONE',  ( 0.000000000000000000, 8.000000000000007105, 0.000000000000000000 ) ) ;
#138 = DIRECTION ( 'NONE',  ( 4.100874096515485978E-16, 1.000000000000000000, -1.851831363748751143E-16 ) ) ;
#139 = EDGE_CURVE ( 'NONE', #71, #316, #105, .T. ) ;
#140 = DIRECTION ( 'NONE',  ( -4.440892098500626162E-16, 0.000000000000000000, 1.000000000000000000 ) ) ;
#141 = DIRECTION ( 'NONE',  ( -4.440892098500626162E-16, -1.851831363748750897E-16, 1.000000000000000000 ) ) ;
#142 = FILL_AREA_STYLE_COLOUR ( '', #116 ) ;
#143 = AXIS2_PLACEMENT_3D ( 'NONE', #180, #291, #27 ) ;
#144 = SURFACE_STYLE_USAGE ( .BOTH. , #108 ) ;
#145 = DIRECTION ( 'NONE',  ( 4.100874096515485978E-16, 1.000000000000000000, -1.851831363748751143E-16 ) ) ;
#146 = CARTESIAN_POINT ( 'NONE',  ( 0.000000000000000000, 0.000000000000000000, 0.000000000000000000 ) ) ;
#147 = VERTEX_POINT ( 'NONE', #279 ) ;
#148 = DIRECTION ( 'NONE',  ( 4.100874096515485978E-16, 1.000000000000000000, -1.851831363748751143E-16 ) ) ;
#149 = EDGE_LOOP ( 'NONE', ( #121, #349, #65 ) ) ;
#150 = FACE_OUTER_BOUND ( 'NONE', #189, .T. ) ;
#151 = ORIENTED_EDGE ( 'NONE', *, *, #333, .F. ) ;
#152 = CARTESIAN_POINT ( 'NONE',  ( -2.042380301025354910E-15, 8.000000000000007105, 1.250000000000000222 ) ) ;
#153 = SHAPE_DEFINITION_REPRESENTATION ( #347, #336 ) ;
#154 = AXIS2_PLACEMENT_3D ( 'NONE', #311, #54, #340 ) ;
#155 =( GEOMETRIC_REPRESENTATION_CONTEXT ( 3 ) GLOBAL_UNCERTAINTY_ASSIGNED_CONTEXT ( ( #209 ) ) GLOBAL_UNIT_ASSIGNED_CONTEXT ( ( #341, #238, #56 ) ) REPRESENTATION_CONTEXT ( 'NONE', 'WORKASPACE' ) );
#156 = ORIENTED_EDGE ( 'NONE', *, *, #294, .F. ) ;
#157 = VECTOR ( 'NONE', #319, 1000.000000000000114 ) ;
#158 =( NAMED_UNIT ( * ) SI_UNIT ( $, .STERADIAN. ) SOLID_ANGLE_UNIT ( ) );
#159 = FACE_OUTER_BOUND ( 'NONE', #331, .T. ) ;
#160 = FILL_AREA_STYLE_COLOUR ( '', #173 ) ;
#161 = EDGE_CURVE ( 'NONE', #250, #176, #297, .T. ) ;
#162 = DIRECTION ( 'NONE',  ( -4.100874096515485978E-16, -1.000000000000000000, 1.851831363748751143E-16 ) ) ;
#163 = ORIENTED_EDGE ( 'NONE', *, *, #139, .T. ) ;
#164 = DIRECTION ( 'NONE',  ( 0.000000000000000000, 0.000000000000000000, 1.000000000000000000 ) ) ;
#165 = ORIENTED_EDGE ( 'NONE', *, *, #26, .T. ) ;
#166 = EDGE_CURVE ( 'NONE', #126, #147, #370, .T. ) ;
#167 = DIRECTION ( 'NONE',  ( 4.100874096515485978E-16, 1.000000000000000000, -1.851831363748751143E-16 ) ) ;
#168 = DIRECTION ( 'NONE',  ( 5.432758477480143017E-16, 0.9656157585206696092, -0.2599734734478726939 ) ) ;
#169 = ADVANCED_FACE ( 'NONE', ( #112 ), #225, .T. ) ;
#170 = CARTESIAN_POINT ( 'NONE',  ( 7.081923622059975998E-16, 8.000000000000007105, -1.250000000000000222 ) ) ;
#171 =( GEOMETRIC_REPRESENTATION_CONTEXT ( 3 ) GLOBAL_UNCERTAINTY_ASSIGNED_CONTEXT ( ( #135 ) ) GLOBAL_UNIT_ASSIGNED_CONTEXT ( ( #81, #257, #20 ) ) REPRESENTATION_CONTEXT ( 'NONE', 'WORKASPACE' ) );
#172 = CARTESIAN_POINT ( 'NONE',  ( 4.365229832029475005E-15, 14.50000000000003375, -3.000000000000008882 ) ) ;
#173 = COLOUR_RGB ( '',1.000000000000000000, 1.000000000000000000, 1.000000000000000000 ) ;
#174 = EDGE_CURVE ( 'NONE', #260, #351, #312, .T. ) ;
#175 = FACE_OUTER_BOUND ( 'NONE', #296, .T. ) ;
#176 = VERTEX_POINT ( 'NONE', #114 ) ;
#177 = DIRECTION ( 'NONE',  ( 4.100874096515485978E-16, 1.000000000000000000, -1.851831363748751143E-16 ) ) ;
#178 = CARTESIAN_POINT ( 'NONE',  ( -2.042380301025354910E-15, 2.314789204685947311E-16, 1.250000000000000222 ) ) ;
#179 = EDGE_LOOP ( 'NONE', ( #32, #215, #165, #205 ) ) ;
#180 = CARTESIAN_POINT ( 'NONE',  ( 0.000000000000000000, 20.00000000000003908, 0.000000000000000000 ) ) ;
#181 = ORIENTED_EDGE ( 'NONE', *, *, #288, .T. ) ;
#182 = ORIENTED_EDGE ( 'NONE', *, *, #359, .T. ) ;
#183 = AXIS2_PLACEMENT_3D ( 'NONE', #45, #16, #363 ) ;
#184 = LINE ( 'NONE', #242, #157 ) ;
#185 = ORIENTED_EDGE ( 'NONE', *, *, #211, .T. ) ;
#187 = CIRCLE ( 'NONE', #339, 3.000000000000000444 ) ;
#186 = FILL_AREA_STYLE_COLOUR ( '', #241 ) ;
#188 = UNCERTAINTY_MEASURE_WITH_UNIT (LENGTH_MEASURE( 1.000000000000000082E-05 ), #100, 'distance_accuracy_value', 'NONE');
#189 = EDGE_LOOP ( 'NONE', ( #68, #236, #324, #3 ) ) ;
#190 = CONICAL_SURFACE ( 'NONE', #298, 1.250000000000000222, 0.2629947316809194691 ) ;
#191 =( NAMED_UNIT ( * ) PLANE_ANGLE_UNIT ( ) SI_UNIT ( $, .RADIAN. ) );
#192 = FACE_OUTER_BOUND ( 'NONE', #362, .T. ) ;
#193 = PRESENTATION_STYLE_ASSIGNMENT (( #144 ) ) ;
#194 = EDGE_CURVE ( 'NONE', #60, #147, #196, .T. ) ;
#195 = FACE_OUTER_BOUND ( 'NONE', #203, .T. ) ;
#196 = CIRCLE ( 'NONE', #38, 1.249999999999997780 ) ;
#197 = ADVANCED_FACE ( 'NONE', ( #150 ), #190, .T. ) ;
#198 = CIRCLE ( 'NONE', #55, 1.249999999999997558 ) ;
#199 = DIRECTION ( 'NONE',  ( -4.440892098500626162E-16, 0.000000000000000000, 1.000000000000000000 ) ) ;
#200 = STYLED_ITEM ( 'NONE', ( #72 ), #40 ) ;
#201 = VECTOR ( 'NONE', #162, 1000.000000000000000 ) ;
#202 = CARTESIAN_POINT ( 'NONE',  ( 0.000000000000000000, 8.000000000000007105, 0.000000000000000000 ) ) ;
#203 = EDGE_LOOP ( 'NONE', ( #104, #15, #292, #233 ) ) ;
#204 = CYLINDRICAL_SURFACE ( 'NONE', #125, 1.249999999999997558 ) ;
#205 = ORIENTED_EDGE ( 'NONE', *, *, #359, .F. ) ;
#206 = DIRECTION ( 'NONE',  ( -4.440892098500626162E-16, 0.000000000000000000, 1.000000000000000000 ) ) ;
#207 = ORIENTED_EDGE ( 'NONE', *, *, #274, .F. ) ;
#208 = PRODUCT_DEFINITION ( 'UNKNOWN', '', #12, #332 ) ;
#209 = UNCERTAINTY_MEASURE_WITH_UNIT (LENGTH_MEASURE( 1.000000000000000082E-05 ), #341, 'distance_accuracy_value', 'NONE');
#210 = DIRECTION ( 'NONE',  ( 4.100874096515485978E-16, 1.000000000000000000, -1.851831363748751143E-16 ) ) ;
#211 = EDGE_CURVE ( 'NONE', #60, #118, #346, .T. ) ;
#212 = SURFACE_STYLE_FILL_AREA ( #13 ) ;
#213 = DIRECTION ( 'NONE',  ( -4.440892098500626162E-16, 0.000000000000000000, 1.000000000000000000 ) ) ;
#214 = CARTESIAN_POINT ( 'NONE',  ( -9.648735898059820096E-16, 20.00000000000003908, 3.000000000000000444 ) ) ;
#215 = ORIENTED_EDGE ( 'NONE', *, *, #51, .T. ) ;
#216 = AXIS2_PLACEMENT_3D ( 'NONE', #369, #22, #221 ) ;
#217 = DIRECTION ( 'NONE',  ( 1.000000000000000000, 0.000000000000000000, 0.000000000000000000 ) ) ;
#218 = MECHANICAL_DESIGN_GEOMETRIC_PRESENTATION_REPRESENTATION (  '', ( #83 ), #171 ) ;
#219 = DIRECTION ( 'NONE',  ( 4.100874096515485978E-16, 1.000000000000000000, -1.851831363748751143E-16 ) ) ;
#220 = AXIS2_PLACEMENT_3D ( 'NONE', #202, #58, #199 ) ;
#221 = DIRECTION ( 'NONE',  ( -4.440892098500626162E-16, 0.000000000000000000, 1.000000000000000000 ) ) ;
#222 = DIRECTION ( 'NONE',  ( 2.805354507250147434E-16, 0.9656157585206697203, 0.2599734734478724718 ) ) ;
#223 = ADVANCED_FACE ( 'NONE', ( #88 ), #204, .F. ) ;
#224 = CARTESIAN_POINT ( 'NONE',  ( 0.000000000000000000, 20.00000000000003908, 0.000000000000000000 ) ) ;
#225 = CYLINDRICAL_SURFACE ( 'NONE', #154, 3.000000000000000444 ) ;
#226 = CARTESIAN_POINT ( 'NONE',  ( 0.000000000000000000, 14.50000000000003375, 0.000000000000000000 ) ) ;
#227 = EDGE_CURVE ( 'NONE', #63, #176, #228, .T. ) ;
#228 = LINE ( 'NONE', #235, #237 ) ;
#229 = EDGE_LOOP ( 'NONE', ( #207, #156 ) ) ;
#230 = AXIS2_PLACEMENT_3D ( 'NONE', #52, #167, #113 ) ;
#231 = DIRECTION ( 'NONE',  ( -4.440892098500626162E-16, 0.000000000000000000, 1.000000000000000000 ) ) ;
#232 = ORIENTED_EDGE ( 'NONE', *, *, #161, .F. ) ;
#233 = ORIENTED_EDGE ( 'NONE', *, *, #274, .T. ) ;
#234 = EDGE_CURVE ( 'NONE', #305, #63, #8, .T. ) ;
#235 = CARTESIAN_POINT ( 'NONE',  ( 5.551115123125783688E-16, 8.000000000000007105, -1.250000000000000222 ) ) ;
#236 = ORIENTED_EDGE ( 'NONE', *, *, #90, .T. ) ;
#237 = VECTOR ( 'NONE', #318, 1000.000000000000000 ) ;
#238 =( NAMED_UNIT ( * ) PLANE_ANGLE_UNIT ( ) SI_UNIT ( $, .RADIAN. ) );
#239 = ORIENTED_EDGE ( 'NONE', *, *, #1, .T. ) ;
#240 = CONICAL_SURFACE ( 'NONE', #216, 1.249999999999997780, 1.029744258676653201 ) ;
#241 = COLOUR_RGB ( '',1.000000000000000000, 1.000000000000000000, 1.000000000000000000 ) ;
#242 = CARTESIAN_POINT ( 'NONE',  ( 7.081923622059962193E-16, 12.00000000000003197, -1.249999999999997780 ) ) ;
#243 = DIRECTION ( 'NONE',  ( 4.440892098500626162E-16, 0.000000000000000000, -1.000000000000000000 ) ) ;
#244 = CARTESIAN_POINT ( 'NONE',  ( 1.333300533184885581E-15, 14.50000000000003375, 3.000000000000006217 ) ) ;
#245 = DIRECTION ( 'NONE',  ( -4.440892098500626162E-16, 0.000000000000000000, 1.000000000000000000 ) ) ;
#246 = DIRECTION ( 'NONE',  ( -4.440892098500626162E-16, -1.851831363748750897E-16, 1.000000000000000000 ) ) ;
#247 =( LENGTH_UNIT ( ) NAMED_UNIT ( * ) SI_UNIT ( .MILLI., .METRE. ) );
#248 = ORIENTED_EDGE ( 'NONE', *, *, #51, .F. ) ;
#249 = SURFACE_SIDE_STYLE ('',( #9 ) ) ;
#250 = VERTEX_POINT ( 'NONE', #178 ) ;
#251 = ADVANCED_FACE ( 'NONE', ( #175 ), #117, .F. ) ;
#252 = DIRECTION ( 'NONE',  ( -1.694481192663270056E-16, 0.5150380749100551547, 0.8571673007021116675 ) ) ;
#253 = AXIS2_PLACEMENT_3D ( 'NONE', #263, #123, #62 ) ;
#254 =( GEOMETRIC_REPRESENTATION_CONTEXT ( 3 ) GLOBAL_UNCERTAINTY_ASSIGNED_CONTEXT ( ( #188 ) ) GLOBAL_UNIT_ASSIGNED_CONTEXT ( ( #100, #191, #306 ) ) REPRESENTATION_CONTEXT ( 'NONE', 'WORKASPACE' ) );
#255 = LINE ( 'NONE', #276, #124 ) ;
#256 = CARTESIAN_POINT ( 'NONE',  ( -5.551115123125772841E-16, 12.00000000000003197, 1.249999999999997780 ) ) ;
#257 =( NAMED_UNIT ( * ) PLANE_ANGLE_UNIT ( ) SI_UNIT ( $, .RADIAN. ) );
#258 = PRESENTATION_LAYER_ASSIGNMENT (  '', '', ( #269 ) ) ;
#259 = DIRECTION ( 'NONE',  ( 4.100874096515485978E-16, 1.000000000000000000, -1.851831363748751143E-16 ) ) ;
#260 = VERTEX_POINT ( 'NONE', #172 ) ;
#261 = CARTESIAN_POINT ( 'NONE',  ( 0.000000000000000000, 8.000000000000007105, 0.000000000000000000 ) ) ;
#262 = ORIENTED_EDGE ( 'NONE', *, *, #133, .T. ) ;
#263 = CARTESIAN_POINT ( 'NONE',  ( 0.000000000000000000, 8.000000000000007105, 0.000000000000000000 ) ) ;
#264 = UNCERTAINTY_MEASURE_WITH_UNIT (LENGTH_MEASURE( 1.000000000000000082E-05 ), #70, 'distance_accuracy_value', 'NONE');
#265 = AXIS2_PLACEMENT_3D ( 'NONE', #23, #337, #280 ) ;
#266 = CIRCLE ( 'NONE', #365, 1.249999999999997780 ) ;
#267 = PLANE ( 'NONE',  #44 ) ;
#268 = EDGE_LOOP ( 'NONE', ( #151, #92, #96 ) ) ;
#269 = STYLED_ITEM ( 'NONE', ( #101 ), #336 ) ;
#270 = FACE_OUTER_BOUND ( 'NONE', #94, .T. ) ;
#271 = FILL_AREA_STYLE ('',( #186 ) ) ;
#272 = VERTEX_POINT ( 'NONE', #119 ) ;
#273 = CARTESIAN_POINT ( 'NONE',  ( 2.045272530084280213E-16, 20.00000000000003908, -3.000000000000000888 ) ) ;
#274 = EDGE_CURVE ( 'NONE', #272, #118, #198, .T. ) ;
#275 = DIRECTION ( 'NONE',  ( -4.440892098500626162E-16, -1.851831363748750897E-16, 1.000000000000000000 ) ) ;
#276 = CARTESIAN_POINT ( 'NONE',  ( -5.551115123125783688E-16, 8.000000000000007105, 1.250000000000000222 ) ) ;
#277 = PRESENTATION_LAYER_ASSIGNMENT (  '', '', ( #83 ) ) ;
#278 = EDGE_CURVE ( 'NONE', #147, #60, #266, .T. ) ;
#279 = CARTESIAN_POINT ( 'NONE',  ( -5.551115123125772841E-16, 12.00000000000003197, 1.249999999999997780 ) ) ;
#280 = DIRECTION ( 'NONE',  ( 4.440892098500626162E-16, 0.000000000000000000, -1.000000000000000000 ) ) ;
#281 = CYLINDRICAL_SURFACE ( 'NONE', #265, 3.000000000000000444 ) ;
#282 = CONICAL_SURFACE ( 'NONE', #127, 1.250000000000000222, 0.2629947316809194691 ) ;
#283 = DIRECTION ( 'NONE',  ( 4.100874096515484006E-16, 1.000000000000000000, 1.851831363748752623E-16 ) ) ;
#284 = MECHANICAL_DESIGN_GEOMETRIC_PRESENTATION_REPRESENTATION (  '', ( #269 ), #355 ) ;
#285 = CARTESIAN_POINT ( 'NONE',  ( 0.000000000000000000, 20.00000000000003908, 0.000000000000000000 ) ) ;
#286 = ORIENTED_EDGE ( 'NONE', *, *, #227, .T. ) ;
#287 = CARTESIAN_POINT ( 'NONE',  ( 0.000000000000000000, 12.00000000000003197, 0.000000000000000000 ) ) ;
#288 = EDGE_CURVE ( 'NONE', #63, #305, #344, .T. ) ;
#289 = DIRECTION ( 'NONE',  ( 4.100874096515485978E-16, 1.000000000000000000, -1.851831363748751143E-16 ) ) ;
#290 = ORIENTED_EDGE ( 'NONE', *, *, #194, .F. ) ;
#291 = DIRECTION ( 'NONE',  ( 4.100874096515485978E-16, 1.000000000000000000, -1.851831363748751143E-16 ) ) ;
#292 = ORIENTED_EDGE ( 'NONE', *, *, #304, .T. ) ;
#293 = AXIS2_PLACEMENT_3D ( 'NONE', #302, #219, #275 ) ;
#294 = EDGE_CURVE ( 'NONE', #118, #272, #85, .T. ) ;
#295 = APPLICATION_PROTOCOL_DEFINITION ( 'draft international standard', 'automotive_design', 1998, #106 ) ;
#296 = EDGE_LOOP ( 'NONE', ( #37, #232 ) ) ;
#297 = CIRCLE ( 'NONE', #329, 1.250000000000000222 ) ;
#298 = AXIS2_PLACEMENT_3D ( 'NONE', #261, #177, #4 ) ;
#299 = CARTESIAN_POINT ( 'NONE',  ( 0.000000000000000000, 20.00000000000003908, 0.000000000000000000 ) ) ;
#300 = CARTESIAN_POINT ( 'NONE',  ( 0.000000000000000000, 14.50000000000003375, 0.000000000000000000 ) ) ;
#301 = LINE ( 'NONE', #67, #368 ) ;
#302 = CARTESIAN_POINT ( 'NONE',  ( 0.000000000000000000, 0.000000000000000000, 0.000000000000000000 ) ) ;
#303 = DIRECTION ( 'NONE',  ( -4.100874096515485978E-16, -1.000000000000000000, 1.851831363748751143E-16 ) ) ;
#304 = EDGE_CURVE ( 'NONE', #147, #272, #6, .T. ) ;
#305 = VERTEX_POINT ( 'NONE', #152 ) ;
#306 =( NAMED_UNIT ( * ) SI_UNIT ( $, .STERADIAN. ) SOLID_ANGLE_UNIT ( ) );
#307 = DIRECTION ( 'NONE',  ( -4.100874096515485978E-16, -1.000000000000000000, 1.851831363748751143E-16 ) ) ;
#308 = CARTESIAN_POINT ( 'NONE',  ( -9.321572764002005385E-16, 20.00000000000003908, -1.249999999999997558 ) ) ;
#309 = CLOSED_SHELL ( 'NONE', ( #66, #223, #169, #197, #61, #78, #251, #33, #97, #345, #110, #325 ) ) ;
#310 = CYLINDRICAL_SURFACE ( 'NONE', #321, 1.249999999999997558 ) ;
#311 = CARTESIAN_POINT ( 'NONE',  ( 0.000000000000000000, 20.00000000000003908, 0.000000000000000000 ) ) ;
#312 = CIRCLE ( 'NONE', #364, 3.000000000000000444 ) ;
#313 = COLOUR_RGB ( '',1.000000000000000000, 1.000000000000000000, 1.000000000000000000 ) ;
#314 = FILL_AREA_STYLE ('',( #353 ) ) ;
#315 = DIRECTION ( 'NONE',  ( -4.440892098500626162E-16, 0.000000000000000000, 1.000000000000000000 ) ) ;
#316 = VERTEX_POINT ( 'NONE', #273 ) ;
#317 = PRESENTATION_STYLE_ASSIGNMENT (( #120 ) ) ;
#318 = DIRECTION ( 'NONE',  ( -4.100874096515485978E-16, -1.000000000000000000, 1.851831363748751143E-16 ) ) ;
#319 = DIRECTION ( 'NONE',  ( 6.968420984037583147E-16, 0.5150380749100552658, -0.8571673007021116675 ) ) ;
#320 = EDGE_LOOP ( 'NONE', ( #74, #163 ) ) ;
#321 = AXIS2_PLACEMENT_3D ( 'NONE', #224, #373, #140 ) ;
#322 = SURFACE_STYLE_USAGE ( .BOTH. , #249 ) ;
#323 = FACE_BOUND ( 'NONE', #229, .T. ) ;
#324 = ORIENTED_EDGE ( 'NONE', *, *, #26, .F. ) ;
#325 = ADVANCED_FACE ( 'NONE', ( #98 ), #109, .F. ) ;
#326 = CARTESIAN_POINT ( 'NONE',  ( 0.000000000000000000, 12.00000000000003197, 0.000000000000000000 ) ) ;
#327 = ORIENTED_EDGE ( 'NONE', *, *, #34, .F. ) ;
#328 = AXIS2_PLACEMENT_3D ( 'NONE', #111, #307, #335 ) ;
#329 = AXIS2_PLACEMENT_3D ( 'NONE', #21, #138, #141 ) ;
#330 = PRESENTATION_LAYER_ASSIGNMENT (  '', '', ( #75 ) ) ;
#331 = EDGE_LOOP ( 'NONE', ( #115, #48, #361, #29 ) ) ;
#332 = PRODUCT_DEFINITION_CONTEXT ( 'detailed design', #106, 'design' ) ;
#333 = EDGE_CURVE ( 'NONE', #126, #60, #184, .T. ) ;
#334 = FACE_OUTER_BOUND ( 'NONE', #149, .T. ) ;
#335 = DIRECTION ( 'NONE',  ( 4.440892098500626162E-16, 0.000000000000000000, -1.000000000000000000 ) ) ;
#336 = ADVANCED_BREP_SHAPE_REPRESENTATION ( 'INGUN_22661', ( #40, #128 ), #49 ) ;
#337 = DIRECTION ( 'NONE',  ( -4.100874096515485978E-16, -1.000000000000000000, 1.851831363748751143E-16 ) ) ;
#338 = SURFACE_STYLE_FILL_AREA ( #80 ) ;
#339 = AXIS2_PLACEMENT_3D ( 'NONE', #300, #17, #245 ) ;
#340 = DIRECTION ( 'NONE',  ( 4.440892098500626162E-16, 0.000000000000000000, -1.000000000000000000 ) ) ;
#341 =( LENGTH_UNIT ( ) NAMED_UNIT ( * ) SI_UNIT ( .MILLI., .METRE. ) );
#342 = VECTOR ( 'NONE', #252, 1000.000000000000114 ) ;
#343 = ORIENTED_EDGE ( 'NONE', *, *, #174, .F. ) ;
#344 = CIRCLE ( 'NONE', #253, 1.250000000000000222 ) ;
#345 = ADVANCED_FACE ( 'NONE', ( #323, #46 ), #267, .T. ) ;
#346 = LINE ( 'NONE', #2, #24 ) ;
#347 = PRODUCT_DEFINITION_SHAPE ( 'NONE', 'NONE',  #208 ) ;
#348 = APPLICATION_CONTEXT ( 'automotive_design' ) ;
#349 = ORIENTED_EDGE ( 'NONE', *, *, #333, .T. ) ;
#350 = DIRECTION ( 'NONE',  ( -4.440892098500626162E-16, -1.851831363748750897E-16, 1.000000000000000000 ) ) ;
#351 = VERTEX_POINT ( 'NONE', #244 ) ;
#352 = MECHANICAL_DESIGN_GEOMETRIC_PRESENTATION_REPRESENTATION (  '', ( #75 ), #155 ) ;
#353 = FILL_AREA_STYLE_COLOUR ( '', #313 ) ;
#354 = EDGE_LOOP ( 'NONE', ( #248, #327, #182, #36 ) ) ;
#355 =( GEOMETRIC_REPRESENTATION_CONTEXT ( 3 ) GLOBAL_UNCERTAINTY_ASSIGNED_CONTEXT ( ( #18 ) ) GLOBAL_UNIT_ASSIGNED_CONTEXT ( ( #247, #136, #131 ) ) REPRESENTATION_CONTEXT ( 'NONE', 'WORKASPACE' ) );
#356 = LINE ( 'NONE', #360, #201 ) ;
#357 = DIRECTION ( 'NONE',  ( -4.440892098500626162E-16, 0.000000000000000000, 1.000000000000000000 ) ) ;
#358 = ORIENTED_EDGE ( 'NONE', *, *, #304, .F. ) ;
#359 = EDGE_CURVE ( 'NONE', #316, #260, #301, .T. ) ;
#360 = CARTESIAN_POINT ( 'NONE',  ( -4.020306624191591871E-16, 8.000000000000007105, 1.250000000000000222 ) ) ;
#361 = ORIENTED_EDGE ( 'NONE', *, *, #161, .T. ) ;
#362 = EDGE_LOOP ( 'NONE', ( #57, #89, #286, #239 ) ) ;
#363 = DIRECTION ( 'NONE',  ( -4.440892098500626162E-16, 0.000000000000000000, 1.000000000000000000 ) ) ;
#364 = AXIS2_PLACEMENT_3D ( 'NONE', #226, #82, #366 ) ;
#365 = AXIS2_PLACEMENT_3D ( 'NONE', #93, #289, #206 ) ;
#366 = DIRECTION ( 'NONE',  ( -4.440892098500626162E-16, 0.000000000000000000, 1.000000000000000000 ) ) ;
#367 = PRESENTATION_LAYER_ASSIGNMENT (  '', '', ( #200 ) ) ;
#368 = VECTOR ( 'NONE', #303, 1000.000000000000000 ) ;
#369 = CARTESIAN_POINT ( 'NONE',  ( 0.000000000000000000, 12.00000000000003197, 0.000000000000000000 ) ) ;
#370 = LINE ( 'NONE', #256, #342 ) ;
#371 = EDGE_CURVE ( 'NONE', #305, #250, #356, .T. ) ;
#372 = CARTESIAN_POINT ( 'NONE',  ( 0.000000000000000000, 11.24892422621553933, 0.000000000000000000 ) ) ;
#373 = DIRECTION ( 'NONE',  ( 4.100874096515485978E-16, 1.000000000000000000, -1.851831363748751143E-16 ) ) ;
#374 = DIRECTION ( 'NONE',  ( 4.100874096515485978E-16, 1.000000000000000000, -1.851831363748751143E-16 ) ) ;
ENDSEC;
END-ISO-10303-21;
