ISO-10303-21;
HEADER;
FILE_DESCRIPTION (( 'STEP AP214' ),
    '1' );
FILE_NAME ('INGUN_38885.STEP',
    '2024-07-22T12:22:37',
    ( '' ),
    ( '' ),
    'SwSTEP 2.0',
    'SolidWorks 2021',
    '' );
FILE_SCHEMA (( 'AUTOMOTIVE_DESIGN' ));
ENDSEC;

DATA;
#1 = EDGE_LOOP ( 'NONE', ( #343, #56, #333, #226 ) ) ;
#2 = EDGE_CURVE ( 'NONE', #229, #334, #142, .T. ) ;
#3 = MECHANICAL_DESIGN_GEOMETRIC_PRESENTATION_REPRESENTATION (  '', ( #99 ), #342 ) ;
#4 = DIRECTION ( 'NONE',  ( 0.000000000000000000, 0.000000000000000000, -1.000000000000000000 ) ) ;
#5 = DIRECTION ( 'NONE',  ( 0.000000000000000000, 0.000000000000000000, 1.000000000000000000 ) ) ;
#6 = DIRECTION ( 'NONE',  ( -0.000000000000000000, -1.000000000000000000, -0.000000000000000000 ) ) ;
#7 = VECTOR ( 'NONE', #6, 1000.000000000000000 ) ;
#8 = CARTESIAN_POINT ( 'NONE',  ( 0.000000000000000000, 13.99999999999999822, 0.000000000000000000 ) ) ;
#9 = FILL_AREA_STYLE_COLOUR ( '', #356 ) ;
#10 =( LENGTH_UNIT ( ) NAMED_UNIT ( * ) SI_UNIT ( .MILLI., .METRE. ) );
#11 = PRODUCT_DEFINITION_FORMATION_WITH_SPECIFIED_SOURCE ( 'ANY', '', #86, .NOT_KNOWN. ) ;
#12 = DIRECTION ( 'NONE',  ( 0.000000000000000000, 1.000000000000000000, 0.000000000000000000 ) ) ;
#13 = CARTESIAN_POINT ( 'NONE',  ( 6.123233995736750012E-17, 0.000000000000000000, -0.4999999999999987232 ) ) ;
#14 = EDGE_CURVE ( 'NONE', #357, #330, #46, .T. ) ;
#15 = EDGE_CURVE ( 'NONE', #357, #308, #199, .T. ) ;
#16 = CIRCLE ( 'NONE', #350, 1.000000000000000000 ) ;
#17 = EDGE_CURVE ( 'NONE', #247, #334, #358, .T. ) ;
#18 = ORIENTED_EDGE ( 'NONE', *, *, #271, .F. ) ;
#19 = LINE ( 'NONE', #131, #81 ) ;
#20 = AXIS2_PLACEMENT_3D ( 'NONE', #100, #72, #332 ) ;
#21 = ORIENTED_EDGE ( 'NONE', *, *, #268, .F. ) ;
#22 = AXIS2_PLACEMENT_3D ( 'NONE', #44, #238, #4 ) ;
#23 = CARTESIAN_POINT ( 'NONE',  ( 0.000000000000000000, 0.000000000000000000, -1.000000000000000000 ) ) ;
#24 = DIRECTION ( 'NONE',  ( 0.000000000000000000, 0.000000000000000000, -1.000000000000000000 ) ) ;
#25 = AXIS2_PLACEMENT_3D ( 'NONE', #372, #5, #88 ) ;
#26 = ADVANCED_FACE ( 'NONE', ( #112 ), #110, .T. ) ;
#27 = ORIENTED_EDGE ( 'NONE', *, *, #331, .F. ) ;
#28 = ORIENTED_EDGE ( 'NONE', *, *, #204, .T. ) ;
#29 = CARTESIAN_POINT ( 'NONE',  ( 1.224646799147353207E-16, 0.000000000000000000, 1.000000000000000000 ) ) ;
#30 = PRODUCT_RELATED_PRODUCT_CATEGORY ( 'part', '', ( #86 ) ) ;
#31 = EDGE_LOOP ( 'NONE', ( #135, #276, #341, #221 ) ) ;
#32 = APPLICATION_PROTOCOL_DEFINITION ( 'draft international standard', 'automotive_design', 1998, #278 ) ;
#33 =( GEOMETRIC_REPRESENTATION_CONTEXT ( 3 ) GLOBAL_UNCERTAINTY_ASSIGNED_CONTEXT ( ( #116 ) ) GLOBAL_UNIT_ASSIGNED_CONTEXT ( ( #66, #144, #185 ) ) REPRESENTATION_CONTEXT ( 'NONE', 'WORKASPACE' ) );
#34 = DIRECTION ( 'NONE',  ( -0.000000000000000000, -1.000000000000000000, -0.000000000000000000 ) ) ;
#35 = DIRECTION ( 'NONE',  ( 0.000000000000000000, 0.7071067811865487940, 0.7071067811865463515 ) ) ;
#36 = CIRCLE ( 'NONE', #169, 1.000000000000000000 ) ;
#37 = CARTESIAN_POINT ( 'NONE',  ( 0.000000000000000000, 0.000000000000000000, 0.000000000000000000 ) ) ;
#38 = AXIS2_PLACEMENT_3D ( 'NONE', #137, #145, #310 ) ;
#39 = DIRECTION ( 'NONE',  ( -0.000000000000000000, -1.000000000000000000, -0.000000000000000000 ) ) ;
#40 = FILL_AREA_STYLE ('',( #347 ) ) ;
#41 = CARTESIAN_POINT ( 'NONE',  ( 0.000000000000000000, 13.69999999999999929, 0.000000000000000000 ) ) ;
#42 = CIRCLE ( 'NONE', #236, 0.5762395692965994742 ) ;
#43 = DIRECTION ( 'NONE',  ( -0.000000000000000000, -1.000000000000000000, -0.000000000000000000 ) ) ;
#44 = CARTESIAN_POINT ( 'NONE',  ( 0.000000000000000000, 7.000000000000000000, 0.000000000000000000 ) ) ;
#45 = VERTEX_POINT ( 'NONE', #338 ) ;
#46 = CIRCLE ( 'NONE', #164, 1.000000000000000000 ) ;
#47 = CARTESIAN_POINT ( 'NONE',  ( 1.836970198721029934E-16, 7.000000000000000000, 1.500000000000000000 ) ) ;
#48 = DIRECTION ( 'NONE',  ( 0.000000000000000000, 0.000000000000000000, -1.000000000000000000 ) ) ;
#49 = EDGE_LOOP ( 'NONE', ( #18, #111, #58, #205 ) ) ;
#50 = ORIENTED_EDGE ( 'NONE', *, *, #14, .F. ) ;
#51 = DIRECTION ( 'NONE',  ( 1.000000000000000000, -0.000000000000000000, 1.224646799147353207E-16 ) ) ;
#52 = CONICAL_SURFACE ( 'NONE', #160, 1.500000000000000000, 0.5235987755983002589 ) ;
#53 = EDGE_LOOP ( 'NONE', ( #28, #197, #275, #339 ) ) ;
#54 = EDGE_CURVE ( 'NONE', #172, #73, #201, .T. ) ;
#55 = VECTOR ( 'NONE', #349, 999.9999999999998863 ) ;
#56 = ORIENTED_EDGE ( 'NONE', *, *, #118, .F. ) ;
#57 = ORIENTED_EDGE ( 'NONE', *, *, #331, .T. ) ;
#58 = ORIENTED_EDGE ( 'NONE', *, *, #284, .F. ) ;
#59 = APPLICATION_PROTOCOL_DEFINITION ( 'draft international standard', 'automotive_design', 1998, #166 ) ;
#60 = CYLINDRICAL_SURFACE ( 'NONE', #286, 1.000000000000000000 ) ;
#61 = UNCERTAINTY_MEASURE_WITH_UNIT (LENGTH_MEASURE( 1.000000000000000082E-05 ), #320, 'distance_accuracy_value', 'NONE');
#62 = CIRCLE ( 'NONE', #194, 0.5999999999999999778 ) ;
#63 = DIRECTION ( 'NONE',  ( 0.000000000000000000, 0.000000000000000000, 1.000000000000000000 ) ) ;
#64 = DIRECTION ( 'NONE',  ( 0.000000000000000000, 0.000000000000000000, -1.000000000000000000 ) ) ;
#65 = AXIS2_PLACEMENT_3D ( 'NONE', #179, #177, #288 ) ;
#66 =( LENGTH_UNIT ( ) NAMED_UNIT ( * ) SI_UNIT ( .MILLI., .METRE. ) );
#67 =( NAMED_UNIT ( * ) SI_UNIT ( $, .STERADIAN. ) SOLID_ANGLE_UNIT ( ) );
#68 = EDGE_CURVE ( 'NONE', #45, #229, #295, .T. ) ;
#69 = DIRECTION ( 'NONE',  ( 0.000000000000000000, 1.000000000000000000, 0.000000000000000000 ) ) ;
#70 = LINE ( 'NONE', #13, #223 ) ;
#71 = CARTESIAN_POINT ( 'NONE',  ( 9.184850993605141042E-17, 0.000000000000000000, -0.4999999999999987232 ) ) ;
#72 = DIRECTION ( 'NONE',  ( -0.000000000000000000, -1.000000000000000000, -0.000000000000000000 ) ) ;
#73 = VERTEX_POINT ( 'NONE', #206 ) ;
#74 = ORIENTED_EDGE ( 'NONE', *, *, #193, .F. ) ;
#75 = ORIENTED_EDGE ( 'NONE', *, *, #284, .T. ) ;
#76 = ORIENTED_EDGE ( 'NONE', *, *, #54, .T. ) ;
#77 = AXIS2_PLACEMENT_3D ( 'NONE', #115, #148, #214 ) ;
#78 = DIRECTION ( 'NONE',  ( 0.000000000000000000, 1.000000000000000000, 0.000000000000000000 ) ) ;
#79 = DIRECTION ( 'NONE',  ( 0.000000000000000000, 0.000000000000000000, -1.000000000000000000 ) ) ;
#80 = ADVANCED_FACE ( 'NONE', ( #140 ), #304, .T. ) ;
#81 = VECTOR ( 'NONE', #298, 1000.000000000000000 ) ;
#82 = CARTESIAN_POINT ( 'NONE',  ( 0.000000000000000000, 13.00000000000000178, 0.000000000000000000 ) ) ;
#83 = CARTESIAN_POINT ( 'NONE',  ( 0.000000000000000000, 0.5000000000000029976, -1.000000000000000000 ) ) ;
#84 = DIRECTION ( 'NONE',  ( 0.000000000000000000, 1.000000000000000000, 0.000000000000000000 ) ) ;
#85 = LINE ( 'NONE', #29, #212 ) ;
#86 = PRODUCT ( 'INGUN_38885', 'INGUN_38885', '', ( #290 ) ) ;
#87 = DIRECTION ( 'NONE',  ( -0.000000000000000000, -1.000000000000000000, -0.000000000000000000 ) ) ;
#88 = DIRECTION ( 'NONE',  ( 1.000000000000000000, 0.000000000000000000, 0.000000000000000000 ) ) ;
#89 = AXIS2_PLACEMENT_3D ( 'NONE', #187, #120, #301 ) ;
#90 = EDGE_LOOP ( 'NONE', ( #222, #274, #246, #371 ) ) ;
#91 = DIRECTION ( 'NONE',  ( 0.000000000000000000, 0.000000000000000000, -1.000000000000000000 ) ) ;
#92 = STYLED_ITEM ( 'NONE', ( #208 ), #211 ) ;
#93 = CARTESIAN_POINT ( 'NONE',  ( 0.000000000000000000, 7.000000000000000000, -1.500000000000000000 ) ) ;
#94 = ADVANCED_FACE ( 'NONE', ( #147 ), #60, .T. ) ;
#95 = FACE_BOUND ( 'NONE', #285, .T. ) ;
#96 = CARTESIAN_POINT ( 'NONE',  ( 1.000000000000000000, 6.999999999999999112, 0.000000000000000000 ) ) ;
#97 = EDGE_CURVE ( 'NONE', #330, #357, #192, .T. ) ;
#98 = FACE_OUTER_BOUND ( 'NONE', #328, .T. ) ;
#99 = STYLED_ITEM ( 'NONE', ( #154 ), #279 ) ;
#100 = CARTESIAN_POINT ( 'NONE',  ( 0.000000000000000000, 13.00000000000000178, 0.000000000000000000 ) ) ;
#101 = CIRCLE ( 'NONE', #327, 1.500000000000000000 ) ;
#102 = ORIENTED_EDGE ( 'NONE', *, *, #118, .T. ) ;
#103 = ORIENTED_EDGE ( 'NONE', *, *, #322, .T. ) ;
#104 = EDGE_CURVE ( 'NONE', #229, #45, #361, .T. ) ;
#105 = EDGE_LOOP ( 'NONE', ( #232, #114, #75, #314 ) ) ;
#106 = DIRECTION ( 'NONE',  ( -0.000000000000000000, -1.000000000000000000, -0.000000000000000000 ) ) ;
#107 = FACE_OUTER_BOUND ( 'NONE', #370, .T. ) ;
#108 = AXIS2_PLACEMENT_3D ( 'NONE', #227, #168, #176 ) ;
#109 = PRODUCT_DEFINITION_CONTEXT ( 'detailed design', #278, 'design' ) ;
#110 = CYLINDRICAL_SURFACE ( 'NONE', #38, 1.000000000000000000 ) ;
#111 = ORIENTED_EDGE ( 'NONE', *, *, #190, .T. ) ;
#112 = FACE_OUTER_BOUND ( 'NONE', #105, .T. ) ;
#113 = CARTESIAN_POINT ( 'NONE',  ( 0.000000000000000000, 0.000000000000000000, 0.4999999999999987232 ) ) ;
#114 = ORIENTED_EDGE ( 'NONE', *, *, #345, .T. ) ;
#115 = CARTESIAN_POINT ( 'NONE',  ( 0.000000000000000000, 0.000000000000000000, 0.000000000000000000 ) ) ;
#116 = UNCERTAINTY_MEASURE_WITH_UNIT (LENGTH_MEASURE( 1.000000000000000082E-05 ), #66, 'distance_accuracy_value', 'NONE');
#117 = FACE_OUTER_BOUND ( 'NONE', #53, .T. ) ;
#118 = EDGE_CURVE ( 'NONE', #165, #251, #348, .T. ) ;
#119 = DIRECTION ( 'NONE',  ( 0.000000000000000000, 1.000000000000000000, 0.000000000000000000 ) ) ;
#120 = DIRECTION ( 'NONE',  ( -0.000000000000000000, -1.000000000000000000, -0.000000000000000000 ) ) ;
#121 = TOROIDAL_SURFACE ( 'NONE', #155, 0.5762395692965994742, 0.5999999999999999778 ) ;
#122 = DIRECTION ( 'NONE',  ( -0.000000000000000000, -1.000000000000000000, -0.000000000000000000 ) ) ;
#123 = CARTESIAN_POINT ( 'NONE',  ( 0.000000000000000000, 0.5000000000000029976, 0.000000000000000000 ) ) ;
#124 = DIRECTION ( 'NONE',  ( -0.000000000000000000, -1.000000000000000000, -0.000000000000000000 ) ) ;
#125 = FACE_OUTER_BOUND ( 'NONE', #196, .T. ) ;
#126 = DIRECTION ( 'NONE',  ( 0.000000000000000000, 0.000000000000000000, 1.000000000000000000 ) ) ;
#127 = PRESENTATION_LAYER_ASSIGNMENT (  '', '', ( #92 ) ) ;
#128 = ORIENTED_EDGE ( 'NONE', *, *, #54, .F. ) ;
#129 = EDGE_CURVE ( 'NONE', #255, #195, #313, .T. ) ;
#130 = AXIS2_PLACEMENT_3D ( 'NONE', #156, #69, #235 ) ;
#131 = CARTESIAN_POINT ( 'NONE',  ( 1.836970198721029934E-16, 0.000000000000000000, 1.500000000000000000 ) ) ;
#132 = CIRCLE ( 'NONE', #234, 1.500000000000000000 ) ;
#133 = ADVANCED_FACE ( 'NONE', ( #117 ), #325, .T. ) ;
#134 = CARTESIAN_POINT ( 'NONE',  ( 7.056899440811298083E-17, 13.39999999999999858, -0.5762395692965994742 ) ) ;
#135 = ORIENTED_EDGE ( 'NONE', *, *, #322, .F. ) ;
#136 = AXIS2_PLACEMENT_3D ( 'NONE', #158, #153, #270 ) ;
#137 = CARTESIAN_POINT ( 'NONE',  ( 0.000000000000000000, 0.000000000000000000, 0.000000000000000000 ) ) ;
#138 = CARTESIAN_POINT ( 'NONE',  ( 0.000000000000000000, 13.00000000000000178, -1.500000000000000000 ) ) ;
#139 = AXIS2_PLACEMENT_3D ( 'NONE', #173, #337, #79 ) ;
#140 = FACE_OUTER_BOUND ( 'NONE', #1, .T. ) ;
#141 = CARTESIAN_POINT ( 'NONE',  ( 1.224646799147353207E-16, 0.5000000000000029976, 1.000000000000000000 ) ) ;
#142 = CIRCLE ( 'NONE', #65, 0.5999999999999999778 ) ;
#143 = DIRECTION ( 'NONE',  ( -0.000000000000000000, -1.000000000000000000, -0.000000000000000000 ) ) ;
#144 =( NAMED_UNIT ( * ) PLANE_ANGLE_UNIT ( ) SI_UNIT ( $, .RADIAN. ) );
#145 = DIRECTION ( 'NONE',  ( -0.000000000000000000, -1.000000000000000000, -0.000000000000000000 ) ) ;
#146 =( NAMED_UNIT ( * ) SI_UNIT ( $, .STERADIAN. ) SOLID_ANGLE_UNIT ( ) );
#147 = FACE_OUTER_BOUND ( 'NONE', #90, .T. ) ;
#148 = DIRECTION ( 'NONE',  ( 0.000000000000000000, 1.000000000000000000, 0.000000000000000000 ) ) ;
#149 = ADVANCED_FACE ( 'NONE', ( #216 ), #326, .T. ) ;
#150 = EDGE_CURVE ( 'NONE', #73, #195, #297, .T. ) ;
#151 = CARTESIAN_POINT ( 'NONE',  ( 0.000000000000000000, 13.39999999999999858, 0.000000000000000000 ) ) ;
#152 = DIRECTION ( 'NONE',  ( -0.000000000000000000, -1.000000000000000000, -0.000000000000000000 ) ) ;
#153 = DIRECTION ( 'NONE',  ( -0.000000000000000000, -1.000000000000000000, -0.000000000000000000 ) ) ;
#154 = PRESENTATION_STYLE_ASSIGNMENT (( #215 ) ) ;
#155 = AXIS2_PLACEMENT_3D ( 'NONE', #151, #119, #63 ) ;
#156 = CARTESIAN_POINT ( 'NONE',  ( 0.9226497308103729367, 13.99999999999999822, 0.000000000000000000 ) ) ;
#157 = SURFACE_SIDE_STYLE ('',( #354 ) ) ;
#158 = CARTESIAN_POINT ( 'NONE',  ( 0.000000000000000000, 0.000000000000000000, 0.000000000000000000 ) ) ;
#159 = DIRECTION ( 'NONE',  ( 0.000000000000000000, 1.000000000000000000, 0.000000000000000000 ) ) ;
#160 = AXIS2_PLACEMENT_3D ( 'NONE', #240, #152, #210 ) ;
#161 = ORIENTED_EDGE ( 'NONE', *, *, #162, .F. ) ;
#162 = EDGE_CURVE ( 'NONE', #334, #247, #42, .T. ) ;
#163 = FACE_OUTER_BOUND ( 'NONE', #243, .T. ) ;
#164 = AXIS2_PLACEMENT_3D ( 'NONE', #365, #143, #317 ) ;
#165 = VERTEX_POINT ( 'NONE', #186 ) ;
#166 = APPLICATION_CONTEXT ( 'automotive_design' ) ;
#167 = CARTESIAN_POINT ( 'NONE',  ( 1.023862515698601907E-16, 13.99999999999999822, -0.5762395692965994742 ) ) ;
#168 = DIRECTION ( 'NONE',  ( 0.000000000000000000, 1.000000000000000000, 0.000000000000000000 ) ) ;
#169 = AXIS2_PLACEMENT_3D ( 'NONE', #306, #159, #305 ) ;
#170 = EDGE_LOOP ( 'NONE', ( #272, #260 ) ) ;
#171 = DIRECTION ( 'NONE',  ( 0.000000000000000000, -0.8660254037844380415, -0.5000000000000012212 ) ) ;
#172 = VERTEX_POINT ( 'NONE', #209 ) ;
#173 = CARTESIAN_POINT ( 'NONE',  ( 0.000000000000000000, 0.000000000000000000, 0.000000000000000000 ) ) ;
#174 = AXIS2_PLACEMENT_3D ( 'NONE', #41, #34, #126 ) ;
#175 = DIRECTION ( 'NONE',  ( 0.000000000000000000, 0.000000000000000000, -1.000000000000000000 ) ) ;
#176 = DIRECTION ( 'NONE',  ( 0.000000000000000000, 0.000000000000000000, 1.000000000000000000 ) ) ;
#177 = DIRECTION ( 'NONE',  ( -1.000000000000000000, 0.000000000000000000, 0.000000000000000000 ) ) ;
#178 = ADVANCED_FACE ( 'NONE', ( #183 ), #121, .T. ) ;
#179 = CARTESIAN_POINT ( 'NONE',  ( 0.000000000000000000, 13.39999999999999858, 0.5762395692965994742 ) ) ;
#180 = DIRECTION ( 'NONE',  ( 0.000000000000000000, 0.000000000000000000, -1.000000000000000000 ) ) ;
#181 = FILL_AREA_STYLE ('',( #9 ) ) ;
#182 = MECHANICAL_DESIGN_GEOMETRIC_PRESENTATION_REPRESENTATION (  '', ( #92 ), #366 ) ;
#183 = FACE_OUTER_BOUND ( 'NONE', #31, .T. ) ;
#184 = CARTESIAN_POINT ( 'NONE',  ( 0.000000000000000000, 0.000000000000000000, -1.500000000000000000 ) ) ;
#185 =( NAMED_UNIT ( * ) SI_UNIT ( $, .STERADIAN. ) SOLID_ANGLE_UNIT ( ) );
#186 = CARTESIAN_POINT ( 'NONE',  ( 0.000000000000000000, 0.000000000000000000, 0.4999999999999987232 ) ) ;
#187 = CARTESIAN_POINT ( 'NONE',  ( 0.000000000000000000, 0.000000000000000000, 0.000000000000000000 ) ) ;
#188 = FACE_OUTER_BOUND ( 'NONE', #170, .T. ) ;
#189 = CONICAL_SURFACE ( 'NONE', #20, 1.500000000000000000, 0.5235987755983002589 ) ;
#190 = EDGE_CURVE ( 'NONE', #251, #308, #70, .T. ) ;
#191 = EDGE_LOOP ( 'NONE', ( #102, #362 ) ) ;
#192 = CIRCLE ( 'NONE', #329, 1.000000000000000000 ) ;
#193 = EDGE_CURVE ( 'NONE', #229, #172, #293, .T. ) ;
#194 = AXIS2_PLACEMENT_3D ( 'NONE', #134, #51, #250 ) ;
#195 = VERTEX_POINT ( 'NONE', #93 ) ;
#196 = EDGE_LOOP ( 'NONE', ( #74, #335, #57, #128 ) ) ;
#197 = ORIENTED_EDGE ( 'NONE', *, *, #268, .T. ) ;
#198 = CIRCLE ( 'NONE', #89, 0.4999999999999987232 ) ;
#199 = LINE ( 'NONE', #23, #309 ) ;
#200 = CARTESIAN_POINT ( 'NONE',  ( 0.000000000000000000, 13.99999999999999822, 0.5762395692965994742 ) ) ;
#201 = CIRCLE ( 'NONE', #245, 1.500000000000000000 ) ;
#202 = DIRECTION ( 'NONE',  ( -0.000000000000000000, -1.000000000000000000, -0.000000000000000000 ) ) ;
#203 = LINE ( 'NONE', #138, #367 ) ;
#204 = EDGE_CURVE ( 'NONE', #73, #172, #101, .T. ) ;
#205 = ORIENTED_EDGE ( 'NONE', *, *, #344, .F. ) ;
#206 = CARTESIAN_POINT ( 'NONE',  ( 0.000000000000000000, 13.00000000000000178, -1.500000000000000000 ) ) ;
#207 = ORIENTED_EDGE ( 'NONE', *, *, #193, .T. ) ;
#208 = PRESENTATION_STYLE_ASSIGNMENT (( #294 ) ) ;
#209 = CARTESIAN_POINT ( 'NONE',  ( 1.836970198721029934E-16, 13.00000000000000178, 1.500000000000000000 ) ) ;
#210 = DIRECTION ( 'NONE',  ( 0.000000000000000000, 0.000000000000000000, -1.000000000000000000 ) ) ;
#211 = ADVANCED_BREP_SHAPE_REPRESENTATION ( 'INGUN_38885', ( #279, #25 ), #33 ) ;
#212 = VECTOR ( 'NONE', #39, 1000.000000000000000 ) ;
#213 = CARTESIAN_POINT ( 'NONE',  ( 0.000000000000000000, 13.00000000000000178, 0.000000000000000000 ) ) ;
#214 = DIRECTION ( 'NONE',  ( 0.000000000000000000, 0.000000000000000000, 1.000000000000000000 ) ) ;
#215 = SURFACE_STYLE_USAGE ( .BOTH. , #157 ) ;
#216 = FACE_OUTER_BOUND ( 'NONE', #233, .T. ) ;
#217 = DIRECTION ( 'NONE',  ( 0.000000000000000000, -1.000000000000000000, -0.000000000000000000 ) ) ;
#218 = CARTESIAN_POINT ( 'NONE',  ( 0.000000000000000000, 0.000000000000000000, 0.000000000000000000 ) ) ;
#219 = PRODUCT_DEFINITION ( 'UNKNOWN', '', #11, #109 ) ;
#220 = ADVANCED_FACE ( 'NONE', ( #98 ), #300, .T. ) ;
#221 = ORIENTED_EDGE ( 'NONE', *, *, #17, .F. ) ;
#222 = ORIENTED_EDGE ( 'NONE', *, *, #345, .F. ) ;
#223 = VECTOR ( 'NONE', #241, 1000.000000000000000 ) ;
#224 = ORIENTED_EDGE ( 'NONE', *, *, #97, .F. ) ;
#225 = ORIENTED_EDGE ( 'NONE', *, *, #129, .F. ) ;
#226 = ORIENTED_EDGE ( 'NONE', *, *, #252, .F. ) ;
#227 = CARTESIAN_POINT ( 'NONE',  ( 0.000000000000000000, 13.39999999999999858, 0.000000000000000000 ) ) ;
#228 = CONICAL_SURFACE ( 'NONE', #77, 0.4999999999999987232, 0.7853981633974466137 ) ;
#229 = VERTEX_POINT ( 'NONE', #269 ) ;
#230 = EDGE_CURVE ( 'NONE', #195, #255, #132, .T. ) ;
#231 = CARTESIAN_POINT ( 'NONE',  ( 0.000000000000000000, 0.000000000000000000, 0.000000000000000000 ) ) ;
#232 = ORIENTED_EDGE ( 'NONE', *, *, #14, .T. ) ;
#233 = EDGE_LOOP ( 'NONE', ( #311, #368 ) ) ;
#234 = AXIS2_PLACEMENT_3D ( 'NONE', #239, #122, #351 ) ;
#235 = DIRECTION ( 'NONE',  ( 0.000000000000000000, -0.000000000000000000, 1.000000000000000000 ) ) ;
#236 = AXIS2_PLACEMENT_3D ( 'NONE', #8, #12, #346 ) ;
#237 = CARTESIAN_POINT ( 'NONE',  ( 1.836970198721029934E-16, 13.00000000000000178, 1.500000000000000000 ) ) ;
#238 = DIRECTION ( 'NONE',  ( -0.000000000000000000, -1.000000000000000000, -0.000000000000000000 ) ) ;
#239 = CARTESIAN_POINT ( 'NONE',  ( 0.000000000000000000, 7.000000000000000000, 0.000000000000000000 ) ) ;
#240 = CARTESIAN_POINT ( 'NONE',  ( 0.000000000000000000, 13.00000000000000178, 0.000000000000000000 ) ) ;
#241 = DIRECTION ( 'NONE',  ( 8.659560562354918067E-17, 0.7071067811865487940, -0.7071067811865463515 ) ) ;
#242 = ADVANCED_FACE ( 'NONE', ( #188, #95 ), #353, .T. ) ;
#243 = EDGE_LOOP ( 'NONE', ( #254, #207, #283, #27 ) ) ;
#244 = COLOUR_RGB ( '',0.7529411764705882248, 0.7529411764705882248, 0.7529411764705882248 ) ;
#245 = AXIS2_PLACEMENT_3D ( 'NONE', #82, #202, #175 ) ;
#246 = ORIENTED_EDGE ( 'NONE', *, *, #15, .T. ) ;
#247 = VERTEX_POINT ( 'NONE', #167 ) ;
#248 = AXIS2_PLACEMENT_3D ( 'NONE', #262, #43, #302 ) ;
#249 = AXIS2_PLACEMENT_3D ( 'NONE', #96, #217, #48 ) ;
#250 = DIRECTION ( 'NONE',  ( 1.224646799147352961E-16, 0.000000000000000000, -1.000000000000000000 ) ) ;
#251 = VERTEX_POINT ( 'NONE', #71 ) ;
#252 = EDGE_CURVE ( 'NONE', #308, #307, #36, .T. ) ;
#253 = ADVANCED_FACE ( 'NONE', ( #163 ), #189, .T. ) ;
#254 = ORIENTED_EDGE ( 'NONE', *, *, #68, .T. ) ;
#255 = VERTEX_POINT ( 'NONE', #47 ) ;
#256 = FACE_OUTER_BOUND ( 'NONE', #191, .T. ) ;
#257 = UNCERTAINTY_MEASURE_WITH_UNIT (LENGTH_MEASURE( 1.000000000000000082E-05 ), #10, 'distance_accuracy_value', 'NONE');
#258 = DIRECTION ( 'NONE',  ( 0.000000000000000000, 0.000000000000000000, 1.000000000000000000 ) ) ;
#259 = SURFACE_SIDE_STYLE ('',( #292 ) ) ;
#260 = ORIENTED_EDGE ( 'NONE', *, *, #129, .T. ) ;
#261 = CARTESIAN_POINT ( 'NONE',  ( 0.000000000000000000, 6.999999999999999112, -1.000000000000000000 ) ) ;
#262 = CARTESIAN_POINT ( 'NONE',  ( 0.000000000000000000, 0.000000000000000000, 0.000000000000000000 ) ) ;
#263 = SHAPE_DEFINITION_REPRESENTATION ( #340, #211 ) ;
#264 = AXIS2_PLACEMENT_3D ( 'NONE', #218, #124, #64 ) ;
#265 = DIRECTION ( 'NONE',  ( -0.000000000000000000, -1.000000000000000000, -0.000000000000000000 ) ) ;
#266 = FACE_OUTER_BOUND ( 'NONE', #49, .T. ) ;
#267 = AXIS2_PLACEMENT_3D ( 'NONE', #231, #84, #316 ) ;
#268 = EDGE_CURVE ( 'NONE', #172, #255, #19, .T. ) ;
#269 = CARTESIAN_POINT ( 'NONE',  ( 1.589502643018551416E-16, 13.69999999999999929, 1.095854811567261944 ) ) ;
#270 = DIRECTION ( 'NONE',  ( 0.000000000000000000, 0.000000000000000000, -1.000000000000000000 ) ) ;
#271 = EDGE_CURVE ( 'NONE', #251, #165, #198, .T. ) ;
#272 = ORIENTED_EDGE ( 'NONE', *, *, #230, .T. ) ;
#273 = VECTOR ( 'NONE', #35, 1000.000000000000000 ) ;
#274 = ORIENTED_EDGE ( 'NONE', *, *, #97, .T. ) ;
#275 = ORIENTED_EDGE ( 'NONE', *, *, #230, .F. ) ;
#276 = ORIENTED_EDGE ( 'NONE', *, *, #104, .F. ) ;
#277 = CLOSED_SHELL ( 'NONE', ( #296, #359, #26, #133, #253, #149, #282, #220, #242, #94, #318, #80, #178 ) ) ;
#278 = APPLICATION_CONTEXT ( 'automotive_design' ) ;
#279 = MANIFOLD_SOLID_BREP ( 'Verrundung1', #277 ) ;
#280 = ORIENTED_EDGE ( 'NONE', *, *, #150, .T. ) ;
#281 = PLANE ( 'NONE',  #139 ) ;
#282 = ADVANCED_FACE ( 'NONE', ( #125 ), #52, .T. ) ;
#283 = ORIENTED_EDGE ( 'NONE', *, *, #204, .F. ) ;
#284 = EDGE_CURVE ( 'NONE', #307, #308, #16, .T. ) ;
#285 = EDGE_LOOP ( 'NONE', ( #50, #224 ) ) ;
#286 = AXIS2_PLACEMENT_3D ( 'NONE', #37, #265, #91 ) ;
#287 = CARTESIAN_POINT ( 'NONE',  ( 0.000000000000000000, 13.69999999999999929, 0.000000000000000000 ) ) ;
#288 = DIRECTION ( 'NONE',  ( 0.000000000000000000, 0.000000000000000000, 1.000000000000000000 ) ) ;
#289 = DIRECTION ( 'NONE',  ( 0.000000000000000000, 0.000000000000000000, 1.000000000000000000 ) ) ;
#290 = PRODUCT_CONTEXT ( 'NONE', #166, 'mechanical' ) ;
#291 = DIRECTION ( 'NONE',  ( -0.000000000000000000, -1.000000000000000000, -0.000000000000000000 ) ) ;
#292 = SURFACE_STYLE_FILL_AREA ( #181 ) ;
#293 = LINE ( 'NONE', #237, #55 ) ;
#294 = SURFACE_STYLE_USAGE ( .BOTH. , #259 ) ;
#295 = CIRCLE ( 'NONE', #299, 1.095854811567261944 ) ;
#296 = ADVANCED_FACE ( 'NONE', ( #107 ), #323, .T. ) ;
#297 = LINE ( 'NONE', #184, #7 ) ;
#298 = DIRECTION ( 'NONE',  ( -0.000000000000000000, -1.000000000000000000, -0.000000000000000000 ) ) ;
#299 = AXIS2_PLACEMENT_3D ( 'NONE', #287, #87, #289 ) ;
#300 = CYLINDRICAL_SURFACE ( 'NONE', #264, 1.500000000000000000 ) ;
#301 = DIRECTION ( 'NONE',  ( 0.000000000000000000, 0.000000000000000000, -1.000000000000000000 ) ) ;
#302 = DIRECTION ( 'NONE',  ( 0.000000000000000000, 0.000000000000000000, -1.000000000000000000 ) ) ;
#303 = PRESENTATION_LAYER_ASSIGNMENT (  '', '', ( #99 ) ) ;
#304 = CONICAL_SURFACE ( 'NONE', #267, 0.4999999999999987232, 0.7853981633974466137 ) ;
#305 = DIRECTION ( 'NONE',  ( 0.000000000000000000, 0.000000000000000000, -1.000000000000000000 ) ) ;
#306 = CARTESIAN_POINT ( 'NONE',  ( 0.000000000000000000, 0.5000000000000029976, 0.000000000000000000 ) ) ;
#307 = VERTEX_POINT ( 'NONE', #141 ) ;
#308 = VERTEX_POINT ( 'NONE', #83 ) ;
#309 = VECTOR ( 'NONE', #106, 1000.000000000000000 ) ;
#310 = DIRECTION ( 'NONE',  ( 0.000000000000000000, 0.000000000000000000, -1.000000000000000000 ) ) ;
#311 = ORIENTED_EDGE ( 'NONE', *, *, #162, .T. ) ;
#312 = LINE ( 'NONE', #113, #273 ) ;
#313 = CIRCLE ( 'NONE', #22, 1.500000000000000000 ) ;
#314 = ORIENTED_EDGE ( 'NONE', *, *, #15, .F. ) ;
#315 =( NAMED_UNIT ( * ) PLANE_ANGLE_UNIT ( ) SI_UNIT ( $, .RADIAN. ) );
#316 = DIRECTION ( 'NONE',  ( 0.000000000000000000, 0.000000000000000000, 1.000000000000000000 ) ) ;
#317 = DIRECTION ( 'NONE',  ( 0.000000000000000000, 0.000000000000000000, -1.000000000000000000 ) ) ;
#318 = ADVANCED_FACE ( 'NONE', ( #256 ), #281, .T. ) ;
#319 = CARTESIAN_POINT ( 'NONE',  ( 0.000000000000000000, 6.999999999999999112, 0.000000000000000000 ) ) ;
#320 =( LENGTH_UNIT ( ) NAMED_UNIT ( * ) SI_UNIT ( .MILLI., .METRE. ) );
#321 = DIRECTION ( 'NONE',  ( 0.000000000000000000, 1.000000000000000000, 0.000000000000000000 ) ) ;
#322 = EDGE_CURVE ( 'NONE', #45, #247, #62, .T. ) ;
#323 = TOROIDAL_SURFACE ( 'NONE', #108, 0.5762395692965994742, 0.5999999999999999778 ) ;
#324 = DIRECTION ( 'NONE',  ( 0.000000000000000000, 0.000000000000000000, -1.000000000000000000 ) ) ;
#325 = CYLINDRICAL_SURFACE ( 'NONE', #136, 1.500000000000000000 ) ;
#326 = PLANE ( 'NONE',  #130 ) ;
#327 = AXIS2_PLACEMENT_3D ( 'NONE', #213, #355, #324 ) ;
#328 = EDGE_LOOP ( 'NONE', ( #21, #76, #280, #225 ) ) ;
#329 = AXIS2_PLACEMENT_3D ( 'NONE', #319, #291, #180 ) ;
#330 = VERTEX_POINT ( 'NONE', #364 ) ;
#331 = EDGE_CURVE ( 'NONE', #45, #73, #203, .T. ) ;
#332 = DIRECTION ( 'NONE',  ( 0.000000000000000000, 0.000000000000000000, -1.000000000000000000 ) ) ;
#333 = ORIENTED_EDGE ( 'NONE', *, *, #344, .T. ) ;
#334 = VERTEX_POINT ( 'NONE', #200 ) ;
#335 = ORIENTED_EDGE ( 'NONE', *, *, #104, .T. ) ;
#336 = CARTESIAN_POINT ( 'NONE',  ( 0.000000000000000000, 13.99999999999999822, 0.000000000000000000 ) ) ;
#337 = DIRECTION ( 'NONE',  ( 0.000000000000000000, -1.000000000000000000, -0.000000000000000000 ) ) ;
#338 = CARTESIAN_POINT ( 'NONE',  ( 0.000000000000000000, 13.69999999999999929, -1.095854811567261944 ) ) ;
#339 = ORIENTED_EDGE ( 'NONE', *, *, #150, .F. ) ;
#340 = PRODUCT_DEFINITION_SHAPE ( 'NONE', 'NONE',  #219 ) ;
#341 = ORIENTED_EDGE ( 'NONE', *, *, #2, .T. ) ;
#342 =( GEOMETRIC_REPRESENTATION_CONTEXT ( 3 ) GLOBAL_UNCERTAINTY_ASSIGNED_CONTEXT ( ( #257 ) ) GLOBAL_UNIT_ASSIGNED_CONTEXT ( ( #10, #352, #67 ) ) REPRESENTATION_CONTEXT ( 'NONE', 'WORKASPACE' ) );
#343 = ORIENTED_EDGE ( 'NONE', *, *, #190, .F. ) ;
#344 = EDGE_CURVE ( 'NONE', #165, #307, #312, .T. ) ;
#345 = EDGE_CURVE ( 'NONE', #330, #307, #85, .T. ) ;
#346 = DIRECTION ( 'NONE',  ( 0.000000000000000000, 0.000000000000000000, 1.000000000000000000 ) ) ;
#347 = FILL_AREA_STYLE_COLOUR ( '', #244 ) ;
#348 = CIRCLE ( 'NONE', #248, 0.4999999999999987232 ) ;
#349 = DIRECTION ( 'NONE',  ( 6.123233995736782060E-17, -0.8660254037844380415, 0.5000000000000012212 ) ) ;
#350 = AXIS2_PLACEMENT_3D ( 'NONE', #123, #321, #24 ) ;
#351 = DIRECTION ( 'NONE',  ( 0.000000000000000000, 0.000000000000000000, -1.000000000000000000 ) ) ;
#352 =( NAMED_UNIT ( * ) PLANE_ANGLE_UNIT ( ) SI_UNIT ( $, .RADIAN. ) );
#353 = PLANE ( 'NONE',  #249 ) ;
#354 = SURFACE_STYLE_FILL_AREA ( #40 ) ;
#355 = DIRECTION ( 'NONE',  ( -0.000000000000000000, -1.000000000000000000, -0.000000000000000000 ) ) ;
#356 = COLOUR_RGB ( '',0.7529411764705882248, 0.7529411764705882248, 0.7529411764705882248 ) ;
#357 = VERTEX_POINT ( 'NONE', #261 ) ;
#358 = CIRCLE ( 'NONE', #369, 0.5762395692965994742 ) ;
#359 = ADVANCED_FACE ( 'NONE', ( #266 ), #228, .T. ) ;
#360 = ORIENTED_EDGE ( 'NONE', *, *, #68, .F. ) ;
#361 = CIRCLE ( 'NONE', #174, 1.095854811567261944 ) ;
#362 = ORIENTED_EDGE ( 'NONE', *, *, #271, .T. ) ;
#363 = ORIENTED_EDGE ( 'NONE', *, *, #2, .F. ) ;
#364 = CARTESIAN_POINT ( 'NONE',  ( 1.224646799147353207E-16, 6.999999999999999112, 1.000000000000000000 ) ) ;
#365 = CARTESIAN_POINT ( 'NONE',  ( 0.000000000000000000, 6.999999999999999112, 0.000000000000000000 ) ) ;
#366 =( GEOMETRIC_REPRESENTATION_CONTEXT ( 3 ) GLOBAL_UNCERTAINTY_ASSIGNED_CONTEXT ( ( #61 ) ) GLOBAL_UNIT_ASSIGNED_CONTEXT ( ( #320, #315, #146 ) ) REPRESENTATION_CONTEXT ( 'NONE', 'WORKASPACE' ) );
#367 = VECTOR ( 'NONE', #171, 999.9999999999998863 ) ;
#368 = ORIENTED_EDGE ( 'NONE', *, *, #17, .T. ) ;
#369 = AXIS2_PLACEMENT_3D ( 'NONE', #336, #78, #258 ) ;
#370 = EDGE_LOOP ( 'NONE', ( #360, #103, #161, #363 ) ) ;
#371 = ORIENTED_EDGE ( 'NONE', *, *, #252, .T. ) ;
#372 = CARTESIAN_POINT ( 'NONE',  ( 0.000000000000000000, 0.000000000000000000, 0.000000000000000000 ) ) ;
ENDSEC;
END-ISO-10303-21;
