ISO-10303-21;
HEADER;
FILE_DESCRIPTION (( 'STEP AP214' ),
    '1' );
FILE_NAME ('38886~0.STEP',
    '2017-07-04T09:01:02',
    ( '' ),
    ( '' ),
    'SwSTEP 2.0',
    'SolidWorks 2016',
    '' );
FILE_SCHEMA (( 'AUTOMOTIVE_DESIGN' ));
ENDSEC;

DATA;
#1 = DIRECTION ( 'NONE',  ( 0.0000000000000000000, 0.0000000000000000000, -1.000000000000000000 ) ) ;
#2 = AXIS2_PLACEMENT_3D ( 'NONE', #241, #294, #121 ) ;
#3 = DIRECTION ( 'NONE',  ( 0.0000000000000000000, 1.000000000000000000, 0.0000000000000000000 ) ) ;
#4 = VECTOR ( 'NONE', #82, 1000.000000000000000 ) ;
#5 = ORIENTED_EDGE ( 'NONE', *, *, #333, .T. ) ;
#6 = CARTESIAN_POINT ( 'NONE',  ( 0.0000000000000000000, 13.99999999999999800, 0.6262395692965993000 ) ) ;
#7 = ORIENTED_EDGE ( 'NONE', *, *, #262, .T. ) ;
#8 = CARTESIAN_POINT ( 'NONE',  ( 0.0000000000000000000, 13.39999999999999900, 0.0000000000000000000 ) ) ;
#9 = DIRECTION ( 'NONE',  ( 0.0000000000000000000, 0.0000000000000000000, -1.000000000000000000 ) ) ;
#10 = EDGE_CURVE ( 'NONE', #154, #319, #215, .T. ) ;
#11 = DIRECTION ( 'NONE',  ( 0.0000000000000000000, 1.000000000000000000, 0.0000000000000000000 ) ) ;
#12 = DIRECTION ( 'NONE',  ( -0.0000000000000000000, -1.000000000000000000, -0.0000000000000000000 ) ) ;
#13 = FACE_OUTER_BOUND ( 'NONE', #275, .T. ) ;
#14 = VERTEX_POINT ( 'NONE', #231 ) ;
#15 = EDGE_CURVE ( 'NONE', #319, #154, #189, .T. ) ;
#16 = PRODUCT_DEFINITION_SHAPE ( 'NONE', 'NONE',  #192 ) ;
#17 = DIRECTION ( 'NONE',  ( 1.000000000000000000, 0.0000000000000000000, 0.0000000000000000000 ) ) ;
#18 = PRODUCT_DEFINITION_FORMATION_WITH_SPECIFIED_SOURCE ( 'ANY', '', #26, .NOT_KNOWN. ) ;
#19 = ORIENTED_EDGE ( 'NONE', *, *, #249, .F. ) ;
#20 = COLOUR_RGB ( '',0.7529411764705882200, 0.7529411764705882200, 0.7529411764705882200 ) ;
#21 = ORIENTED_EDGE ( 'NONE', *, *, #46, .T. ) ;
#22 = AXIS2_PLACEMENT_3D ( 'NONE', #206, #208, #38 ) ;
#23 = TOROIDAL_SURFACE ( 'NONE', #22, 0.6262395692965993000, 0.5999999999999999800 ) ;
#24 = ORIENTED_EDGE ( 'NONE', *, *, #67, .F. ) ;
#25 = AXIS2_PLACEMENT_3D ( 'NONE', #298, #271, #17 ) ;
#26 = PRODUCT ( '38886~0', '38886~0', '', ( #39 ) ) ;
#27 = EDGE_CURVE ( 'NONE', #319, #314, #52, .T. ) ;
#28 = CIRCLE ( 'NONE', #105, 1.000000000000000000 ) ;
#29 = ADVANCED_FACE ( 'NONE', ( #326 ), #193, .T. ) ;
#30 = EDGE_CURVE ( 'NONE', #194, #340, #32, .T. ) ;
#31 = UNCERTAINTY_MEASURE_WITH_UNIT (LENGTH_MEASURE( 1.000000000000000100E-005 ), #277, 'distance_accuracy_value', 'NONE');
#32 = CIRCLE ( 'NONE', #322, 0.4999999999999987200 ) ;
#33 = ORIENTED_EDGE ( 'NONE', *, *, #270, .F. ) ;
#34 = ORIENTED_EDGE ( 'NONE', *, *, #286, .F. ) ;
#35 = CARTESIAN_POINT ( 'NONE',  ( 0.0000000000000000000, 0.0000000000000000000, 0.0000000000000000000 ) ) ;
#36 = DIRECTION ( 'NONE',  ( 0.0000000000000000000, 0.0000000000000000000, -1.000000000000000000 ) ) ;
#37 = CONICAL_SURFACE ( 'NONE', #44, 0.4999999999999987200, 0.7853981633974482800 ) ;
#38 = DIRECTION ( 'NONE',  ( 0.0000000000000000000, 0.0000000000000000000, 1.000000000000000000 ) ) ;
#39 = PRODUCT_CONTEXT ( 'NONE', #160, 'mechanical' ) ;
#40 = ORIENTED_EDGE ( 'NONE', *, *, #286, .T. ) ;
#41 = ORIENTED_EDGE ( 'NONE', *, *, #226, .T. ) ;
#42 = DIRECTION ( 'NONE',  ( -0.0000000000000000000, -1.000000000000000000, -0.0000000000000000000 ) ) ;
#43 =( NAMED_UNIT ( * ) PLANE_ANGLE_UNIT ( ) SI_UNIT ( $, .RADIAN. ) );
#44 = AXIS2_PLACEMENT_3D ( 'NONE', #35, #120, #122 ) ;
#45 = CIRCLE ( 'NONE', #274, 1.000000000000000000 ) ;
#46 = EDGE_CURVE ( 'NONE', #66, #289, #363, .T. ) ;
#47 = FACE_OUTER_BOUND ( 'NONE', #265, .T. ) ;
#48 = VERTEX_POINT ( 'NONE', #172 ) ;
#49 = LINE ( 'NONE', #268, #197 ) ;
#50 = CARTESIAN_POINT ( 'NONE',  ( 0.0000000000000000000, 7.000000000000000000, 0.0000000000000000000 ) ) ;
#51 =( NAMED_UNIT ( * ) PLANE_ANGLE_UNIT ( ) SI_UNIT ( $, .RADIAN. ) );
#52 = LINE ( 'NONE', #196, #102 ) ;
#53 = VERTEX_POINT ( 'NONE', #6 ) ;
#54 = ADVANCED_FACE ( 'NONE', ( #109 ), #37, .T. ) ;
#55 = SURFACE_SIDE_STYLE ('',( #334 ) ) ;
#56 = ADVANCED_FACE ( 'NONE', ( #169 ), #118, .T. ) ;
#57 = CARTESIAN_POINT ( 'NONE',  ( 0.0000000000000000000, 13.70000000000000100, -1.145854811567262200 ) ) ;
#58 = AXIS2_PLACEMENT_3D ( 'NONE', #50, #140, #170 ) ;
#59 = ORIENTED_EDGE ( 'NONE', *, *, #46, .F. ) ;
#60 = CARTESIAN_POINT ( 'NONE',  ( 1.898202538678397500E-016, 0.0000000000000000000, 1.550000000000000000 ) ) ;
#61 = VECTOR ( 'NONE', #266, 999.9999999999998900 ) ;
#62 = ORIENTED_EDGE ( 'NONE', *, *, #107, .T. ) ;
#63 = CARTESIAN_POINT ( 'NONE',  ( 0.0000000000000000000, 13.00000000000000200, 0.0000000000000000000 ) ) ;
#64 = AXIS2_PLACEMENT_3D ( 'NONE', #230, #255, #235 ) ;
#65 = DIRECTION ( 'NONE',  ( 0.0000000000000000000, 1.000000000000000000, 0.0000000000000000000 ) ) ;
#66 = VERTEX_POINT ( 'NONE', #342 ) ;
#67 = EDGE_CURVE ( 'NONE', #340, #194, #90, .T. ) ;
#68 = DIRECTION ( 'NONE',  ( -0.0000000000000000000, -1.000000000000000000, -0.0000000000000000000 ) ) ;
#69 = PRESENTATION_STYLE_ASSIGNMENT (( #186 ) ) ;
#70 = ORIENTED_EDGE ( 'NONE', *, *, #127, .T. ) ;
#71 = VERTEX_POINT ( 'NONE', #97 ) ;
#72 = DIRECTION ( 'NONE',  ( 0.0000000000000000000, 1.000000000000000000, 0.0000000000000000000 ) ) ;
#73 = AXIS2_PLACEMENT_3D ( 'NONE', #368, #94, #129 ) ;
#74 = CARTESIAN_POINT ( 'NONE',  ( 0.0000000000000000000, 0.5000000000000013300, 0.0000000000000000000 ) ) ;
#75 = DIRECTION ( 'NONE',  ( 0.0000000000000000000, 0.0000000000000000000, -1.000000000000000000 ) ) ;
#76 = ORIENTED_EDGE ( 'NONE', *, *, #146, .F. ) ;
#77 = DIRECTION ( 'NONE',  ( -0.0000000000000000000, -1.000000000000000000, -0.0000000000000000000 ) ) ;
#78 = FILL_AREA_STYLE_COLOUR ( '', #20 ) ;
#79 = DIRECTION ( 'NONE',  ( 0.0000000000000000000, 0.0000000000000000000, 1.000000000000000000 ) ) ;
#80 = CIRCLE ( 'NONE', #58, 1.550000000000000000 ) ;
#81 = ORIENTED_EDGE ( 'NONE', *, *, #156, .T. ) ;
#82 = DIRECTION ( 'NONE',  ( -0.0000000000000000000, -1.000000000000000000, -0.0000000000000000000 ) ) ;
#83 = ADVANCED_FACE ( 'NONE', ( #188 ), #115, .T. ) ;
#84 = AXIS2_PLACEMENT_3D ( 'NONE', #227, #254, #106 ) ;
#85 = VERTEX_POINT ( 'NONE', #191 ) ;
#86 = DIRECTION ( 'NONE',  ( -0.0000000000000000000, -1.000000000000000000, -0.0000000000000000000 ) ) ;
#87 = EDGE_CURVE ( 'NONE', #85, #283, #45, .T. ) ;
#88 = DIRECTION ( 'NONE',  ( -0.0000000000000000000, -1.000000000000000000, -0.0000000000000000000 ) ) ;
#89 = CARTESIAN_POINT ( 'NONE',  ( 1.224646799147353200E-016, 0.5000000000000013300, 1.000000000000000000 ) ) ;
#90 = CIRCLE ( 'NONE', #182, 0.4999999999999987200 ) ;
#91 = ORIENTED_EDGE ( 'NONE', *, *, #262, .F. ) ;
#92 = AXIS2_PLACEMENT_3D ( 'NONE', #358, #88, #36 ) ;
#93 = APPLICATION_PROTOCOL_DEFINITION ( 'draft international standard', 'automotive_design', 1998, #126 ) ;
#94 = DIRECTION ( 'NONE',  ( 0.0000000000000000000, 1.000000000000000000, 0.0000000000000000000 ) ) ;
#95 = ORIENTED_EDGE ( 'NONE', *, *, #15, .T. ) ;
#96 = FILL_AREA_STYLE_COLOUR ( '', #187 ) ;
#97 = CARTESIAN_POINT ( 'NONE',  ( 1.085094855655968900E-016, 13.99999999999999800, -0.6262395692965993000 ) ) ;
#98 =( NAMED_UNIT ( * ) SI_UNIT ( $, .STERADIAN. ) SOLID_ANGLE_UNIT ( ) );
#99 = PRODUCT_RELATED_PRODUCT_CATEGORY ( 'part', '', ( #26 ) ) ;
#100 = PRESENTATION_LAYER_ASSIGNMENT (  '', '', ( #155 ) ) ;
#101 = DIRECTION ( 'NONE',  ( -0.0000000000000000000, -1.000000000000000000, -0.0000000000000000000 ) ) ;
#102 = VECTOR ( 'NONE', #346, 999.9999999999998900 ) ;
#103 = ORIENTED_EDGE ( 'NONE', *, *, #131, .T. ) ;
#104 = ORIENTED_EDGE ( 'NONE', *, *, #87, .T. ) ;
#105 = AXIS2_PLACEMENT_3D ( 'NONE', #327, #332, #9 ) ;
#106 = DIRECTION ( 'NONE',  ( 0.0000000000000000000, 0.0000000000000000000, 1.000000000000000000 ) ) ;
#107 = EDGE_CURVE ( 'NONE', #283, #85, #123, .T. ) ;
#108 = CARTESIAN_POINT ( 'NONE',  ( 0.0000000000000000000, 13.00000000000000200, 0.0000000000000000000 ) ) ;
#109 = FACE_OUTER_BOUND ( 'NONE', #138, .T. ) ;
#110 = SURFACE_STYLE_USAGE ( .BOTH. , #55 ) ;
#111 = CARTESIAN_POINT ( 'NONE',  ( 0.0000000000000000000, 13.70000000000000100, 0.0000000000000000000 ) ) ;
#112 = CARTESIAN_POINT ( 'NONE',  ( 0.0000000000000000000, 13.00000000000000200, 0.0000000000000000000 ) ) ;
#113 = DIRECTION ( 'NONE',  ( 0.0000000000000000000, 0.0000000000000000000, -1.000000000000000000 ) ) ;
#114 = AXIS2_PLACEMENT_3D ( 'NONE', #232, #116, #324 ) ;
#115 = CYLINDRICAL_SURFACE ( 'NONE', #164, 1.000000000000000000 ) ;
#116 = DIRECTION ( 'NONE',  ( -0.0000000000000000000, -1.000000000000000000, -0.0000000000000000000 ) ) ;
#117 = EDGE_LOOP ( 'NONE', ( #372, #253, #185, #345 ) ) ;
#118 = PLANE ( 'NONE',  #125 ) ;
#119 = ORIENTED_EDGE ( 'NONE', *, *, #202, .T. ) ;
#120 = DIRECTION ( 'NONE',  ( 0.0000000000000000000, 1.000000000000000000, 0.0000000000000000000 ) ) ;
#121 = DIRECTION ( 'NONE',  ( 0.0000000000000000000, 0.0000000000000000000, 1.000000000000000000 ) ) ;
#122 = DIRECTION ( 'NONE',  ( 0.0000000000000000000, 0.0000000000000000000, 1.000000000000000000 ) ) ;
#123 = CIRCLE ( 'NONE', #174, 1.000000000000000000 ) ;
#124 = DIRECTION ( 'NONE',  ( -0.0000000000000000000, -1.000000000000000000, -0.0000000000000000000 ) ) ;
#125 = AXIS2_PLACEMENT_3D ( 'NONE', #357, #179, #267 ) ;
#126 = APPLICATION_CONTEXT ( 'automotive_design' ) ;
#127 = EDGE_CURVE ( 'NONE', #154, #53, #153, .T. ) ;
#128 = EDGE_LOOP ( 'NONE', ( #364, #33 ) ) ;
#129 = DIRECTION ( 'NONE',  ( 0.0000000000000000000, -0.0000000000000000000, 1.000000000000000000 ) ) ;
#130 = CARTESIAN_POINT ( 'NONE',  ( 1.000000000000000000, 6.999999999999999100, 0.0000000000000000000 ) ) ;
#131 = EDGE_CURVE ( 'NONE', #314, #66, #181, .T. ) ;
#132 = PRESENTATION_STYLE_ASSIGNMENT (( #110 ) ) ;
#133 = CARTESIAN_POINT ( 'NONE',  ( 0.0000000000000000000, 0.0000000000000000000, 0.0000000000000000000 ) ) ;
#134 = CONICAL_SURFACE ( 'NONE', #2, 0.4999999999999987200, 0.7853981633974482800 ) ;
#135 = LINE ( 'NONE', #259, #4 ) ;
#136 = AXIS2_PLACEMENT_3D ( 'NONE', #112, #173, #113 ) ;
#137 = ORIENTED_EDGE ( 'NONE', *, *, #30, .T. ) ;
#138 = EDGE_LOOP ( 'NONE', ( #24, #328, #159, #282 ) ) ;
#139 = ORIENTED_EDGE ( 'NONE', *, *, #183, .T. ) ;
#140 = DIRECTION ( 'NONE',  ( -0.0000000000000000000, -1.000000000000000000, -0.0000000000000000000 ) ) ;
#141 = PRESENTATION_LAYER_ASSIGNMENT (  '', '', ( #330 ) ) ;
#142 = CIRCLE ( 'NONE', #209, 1.550000000000000000 ) ;
#143 = DIRECTION ( 'NONE',  ( -0.0000000000000000000, -1.000000000000000000, -0.0000000000000000000 ) ) ;
#144 = LINE ( 'NONE', #180, #61 ) ;
#145 = ORIENTED_EDGE ( 'NONE', *, *, #10, .T. ) ;
#146 = EDGE_CURVE ( 'NONE', #319, #71, #184, .T. ) ;
#147 = CARTESIAN_POINT ( 'NONE',  ( 0.0000000000000000000, 0.0000000000000000000, 0.4999999999999987200 ) ) ;
#148 = CARTESIAN_POINT ( 'NONE',  ( 0.0000000000000000000, 13.00000000000000200, -1.550000000000000000 ) ) ;
#149 = SHAPE_DEFINITION_REPRESENTATION ( #16, #301 ) ;
#150 = ORIENTED_EDGE ( 'NONE', *, *, #10, .F. ) ;
#151 = DIRECTION ( 'NONE',  ( 0.0000000000000000000, 0.0000000000000000000, 1.000000000000000000 ) ) ;
#152 = DIRECTION ( 'NONE',  ( 8.659560562354932900E-017, 0.7071067811865474600, -0.7071067811865474600 ) ) ;
#153 = CIRCLE ( 'NONE', #84, 0.5999999999999999800 ) ;
#154 = VERTEX_POINT ( 'NONE', #195 ) ;
#155 = STYLED_ITEM ( 'NONE', ( #69 ), #301 ) ;
#156 = EDGE_CURVE ( 'NONE', #264, #283, #135, .T. ) ;
#157 = DIRECTION ( 'NONE',  ( 0.0000000000000000000, 0.0000000000000000000, -1.000000000000000000 ) ) ;
#158 = CYLINDRICAL_SURFACE ( 'NONE', #92, 1.000000000000000000 ) ;
#159 = ORIENTED_EDGE ( 'NONE', *, *, #107, .F. ) ;
#160 = APPLICATION_CONTEXT ( 'automotive_design' ) ;
#161 = ORIENTED_EDGE ( 'NONE', *, *, #309, .T. ) ;
#162 = MANIFOLD_SOLID_BREP ( 'Verrundung1', #349 ) ;
#163 = CIRCLE ( 'NONE', #312, 1.550000000000000000 ) ;
#164 = AXIS2_PLACEMENT_3D ( 'NONE', #295, #190, #308 ) ;
#165 = ORIENTED_EDGE ( 'NONE', *, *, #183, .F. ) ;
#166 = CARTESIAN_POINT ( 'NONE',  ( 0.0000000000000000000, 0.0000000000000000000, -1.550000000000000000 ) ) ;
#167 = DIRECTION ( 'NONE',  ( -0.0000000000000000000, -1.000000000000000000, -0.0000000000000000000 ) ) ;
#168 = CIRCLE ( 'NONE', #236, 0.6262395692965993000 ) ;
#169 = FACE_OUTER_BOUND ( 'NONE', #216, .T. ) ;
#170 = DIRECTION ( 'NONE',  ( 0.0000000000000000000, 0.0000000000000000000, -1.000000000000000000 ) ) ;
#171 = ORIENTED_EDGE ( 'NONE', *, *, #249, .T. ) ;
#172 = CARTESIAN_POINT ( 'NONE',  ( 0.0000000000000000000, 6.999999999999999100, -1.000000000000000000 ) ) ;
#173 = DIRECTION ( 'NONE',  ( -0.0000000000000000000, -1.000000000000000000, -0.0000000000000000000 ) ) ;
#174 = AXIS2_PLACEMENT_3D ( 'NONE', #251, #3, #281 ) ;
#175 = ADVANCED_FACE ( 'NONE', ( #288 ), #278, .T. ) ;
#176 =( LENGTH_UNIT ( ) NAMED_UNIT ( * ) SI_UNIT ( .MILLI., .METRE. ) );
#177 = LINE ( 'NONE', #60, #233 ) ;
#178 = ORIENTED_EDGE ( 'NONE', *, *, #303, .F. ) ;
#179 = DIRECTION ( 'NONE',  ( 0.0000000000000000000, -1.000000000000000000, -0.0000000000000000000 ) ) ;
#180 = CARTESIAN_POINT ( 'NONE',  ( 1.898202538678397500E-016, 13.00000000000000200, 1.550000000000000000 ) ) ;
#181 = LINE ( 'NONE', #166, #359 ) ;
#182 = AXIS2_PLACEMENT_3D ( 'NONE', #133, #68, #279 ) ;
#183 = EDGE_CURVE ( 'NONE', #289, #66, #80, .T. ) ;
#184 = CIRCLE ( 'NONE', #64, 0.5999999999999999800 ) ;
#185 = ORIENTED_EDGE ( 'NONE', *, *, #220, .F. ) ;
#186 = SURFACE_STYLE_USAGE ( .BOTH. , #305 ) ;
#187 = COLOUR_RGB ( '',0.7529411764705882200, 0.7529411764705882200, 0.7529411764705882200 ) ;
#188 = FACE_OUTER_BOUND ( 'NONE', #247, .T. ) ;
#189 = CIRCLE ( 'NONE', #365, 1.145854811567262200 ) ;
#190 = DIRECTION ( 'NONE',  ( -0.0000000000000000000, -1.000000000000000000, -0.0000000000000000000 ) ) ;
#191 = CARTESIAN_POINT ( 'NONE',  ( 0.0000000000000000000, 0.5000000000000013300, -1.000000000000000000 ) ) ;
#192 = PRODUCT_DEFINITION ( 'UNKNOWN', '', #18, #250 ) ;
#193 = CONICAL_SURFACE ( 'NONE', #199, 1.550000000000000000, 0.5235987755983002600 ) ;
#194 = VERTEX_POINT ( 'NONE', #318 ) ;
#195 = CARTESIAN_POINT ( 'NONE',  ( 1.650734982975919400E-016, 13.70000000000000100, 1.145854811567262200 ) ) ;
#196 = CARTESIAN_POINT ( 'NONE',  ( 0.0000000000000000000, 13.00000000000000200, -1.550000000000000000 ) ) ;
#197 = VECTOR ( 'NONE', #152, 1000.000000000000100 ) ;
#198 = DIRECTION ( 'NONE',  ( 0.0000000000000000000, 1.000000000000000000, 0.0000000000000000000 ) ) ;
#199 = AXIS2_PLACEMENT_3D ( 'NONE', #108, #167, #317 ) ;
#200 = ADVANCED_FACE ( 'NONE', ( #13 ), #263, .T. ) ;
#201 = DIRECTION ( 'NONE',  ( -0.0000000000000000000, -1.000000000000000000, -0.0000000000000000000 ) ) ;
#202 = EDGE_CURVE ( 'NONE', #194, #283, #299, .T. ) ;
#203 = ORIENTED_EDGE ( 'NONE', *, *, #87, .F. ) ;
#204 = UNCERTAINTY_MEASURE_WITH_UNIT (LENGTH_MEASURE( 1.000000000000000100E-005 ), #176, 'distance_accuracy_value', 'NONE');
#205 = DIRECTION ( 'NONE',  ( -0.0000000000000000000, -1.000000000000000000, -0.0000000000000000000 ) ) ;
#206 = CARTESIAN_POINT ( 'NONE',  ( 0.0000000000000000000, 13.39999999999999900, 0.0000000000000000000 ) ) ;
#207 = ADVANCED_FACE ( 'NONE', ( #310 ), #273, .T. ) ;
#208 = DIRECTION ( 'NONE',  ( 0.0000000000000000000, 1.000000000000000000, 0.0000000000000000000 ) ) ;
#209 = AXIS2_PLACEMENT_3D ( 'NONE', #63, #42, #304 ) ;
#210 = FACE_OUTER_BOUND ( 'NONE', #356, .T. ) ;
#211 = EDGE_LOOP ( 'NONE', ( #91, #40, #103, #165 ) ) ;
#212 = DIRECTION ( 'NONE',  ( 0.0000000000000000000, 0.0000000000000000000, -1.000000000000000000 ) ) ;
#213 = CARTESIAN_POINT ( 'NONE',  ( 1.224646799147353200E-016, 6.999999999999999100, 1.000000000000000000 ) ) ;
#214 = VECTOR ( 'NONE', #124, 1000.000000000000000 ) ;
#215 = CIRCLE ( 'NONE', #351, 1.145854811567262200 ) ;
#216 = EDGE_LOOP ( 'NONE', ( #137, #354 ) ) ;
#217 = ORIENTED_EDGE ( 'NONE', *, *, #323, .T. ) ;
#218 = AXIS2_PLACEMENT_3D ( 'NONE', #130, #338, #157 ) ;
#219 = PLANE ( 'NONE',  #218 ) ;
#220 = EDGE_CURVE ( 'NONE', #53, #71, #339, .T. ) ;
#221 = EDGE_LOOP ( 'NONE', ( #95, #171, #311, #370 ) ) ;
#222 =( GEOMETRIC_REPRESENTATION_CONTEXT ( 3 ) GLOBAL_UNCERTAINTY_ASSIGNED_CONTEXT ( ( #204 ) ) GLOBAL_UNIT_ASSIGNED_CONTEXT ( ( #176, #51, #353 ) ) REPRESENTATION_CONTEXT ( 'NONE', 'WORKASPACE' ) );
#223 = SURFACE_STYLE_FILL_AREA ( #244 ) ;
#224 = VECTOR ( 'NONE', #348, 1000.000000000000100 ) ;
#225 = ORIENTED_EDGE ( 'NONE', *, *, #270, .T. ) ;
#226 = EDGE_CURVE ( 'NONE', #48, #264, #252, .T. ) ;
#227 = CARTESIAN_POINT ( 'NONE',  ( 0.0000000000000000000, 13.39999999999999900, 0.6262395692965993000 ) ) ;
#228 = MECHANICAL_DESIGN_GEOMETRIC_PRESENTATION_REPRESENTATION (  '', ( #155 ), #367 ) ;
#229 = EDGE_LOOP ( 'NONE', ( #300, #225, #161, #104 ) ) ;
#230 = CARTESIAN_POINT ( 'NONE',  ( 7.669222840384974600E-017, 13.39999999999999900, -0.6262395692965993000 ) ) ;
#231 = CARTESIAN_POINT ( 'NONE',  ( 1.898202538678397500E-016, 13.00000000000000200, 1.550000000000000000 ) ) ;
#232 = CARTESIAN_POINT ( 'NONE',  ( 0.0000000000000000000, 0.0000000000000000000, 0.0000000000000000000 ) ) ;
#233 = VECTOR ( 'NONE', #12, 1000.000000000000000 ) ;
#234 = ORIENTED_EDGE ( 'NONE', *, *, #131, .F. ) ;
#235 = DIRECTION ( 'NONE',  ( 1.224646799147353000E-016, 0.0000000000000000000, -1.000000000000000000 ) ) ;
#236 = AXIS2_PLACEMENT_3D ( 'NONE', #248, #65, #276 ) ;
#237 = CARTESIAN_POINT ( 'NONE',  ( 1.898202538678397500E-016, 7.000000000000000000, 1.550000000000000000 ) ) ;
#238 = CARTESIAN_POINT ( 'NONE',  ( 0.0000000000000000000, 7.000000000000000000, 0.0000000000000000000 ) ) ;
#239 = EDGE_LOOP ( 'NONE', ( #217, #7, #59, #234 ) ) ;
#240 = ADVANCED_FACE ( 'NONE', ( #347 ), #23, .T. ) ;
#241 = CARTESIAN_POINT ( 'NONE',  ( 0.0000000000000000000, 0.0000000000000000000, 0.0000000000000000000 ) ) ;
#242 = CARTESIAN_POINT ( 'NONE',  ( 0.0000000000000000000, 13.00000000000000200, 0.0000000000000000000 ) ) ;
#243 = EDGE_LOOP ( 'NONE', ( #21, #139 ) ) ;
#244 = FILL_AREA_STYLE ('',( #96 ) ) ;
#245 = APPLICATION_PROTOCOL_DEFINITION ( 'draft international standard', 'automotive_design', 1998, #160 ) ;
#246 = LINE ( 'NONE', #329, #214 ) ;
#247 = EDGE_LOOP ( 'NONE', ( #41, #81, #62, #285 ) ) ;
#248 = CARTESIAN_POINT ( 'NONE',  ( 0.0000000000000000000, 13.99999999999999800, 0.0000000000000000000 ) ) ;
#249 = EDGE_CURVE ( 'NONE', #154, #14, #144, .T. ) ;
#250 = PRODUCT_DEFINITION_CONTEXT ( 'detailed design', #126, 'design' ) ;
#251 = CARTESIAN_POINT ( 'NONE',  ( 0.0000000000000000000, 0.5000000000000013300, 0.0000000000000000000 ) ) ;
#252 = CIRCLE ( 'NONE', #297, 1.000000000000000000 ) ;
#253 = ORIENTED_EDGE ( 'NONE', *, *, #146, .T. ) ;
#254 = DIRECTION ( 'NONE',  ( -1.000000000000000000, 0.0000000000000000000, 0.0000000000000000000 ) ) ;
#255 = DIRECTION ( 'NONE',  ( 1.000000000000000000, -0.0000000000000000000, 1.224646799147353200E-016 ) ) ;
#256 = ORIENTED_EDGE ( 'NONE', *, *, #220, .T. ) ;
#257 = ADVANCED_FACE ( 'NONE', ( #344 ), #371, .T. ) ;
#258 = CARTESIAN_POINT ( 'NONE',  ( 0.0000000000000000000, 13.70000000000000100, 0.0000000000000000000 ) ) ;
#259 = CARTESIAN_POINT ( 'NONE',  ( 1.224646799147353200E-016, 0.0000000000000000000, 1.000000000000000000 ) ) ;
#260 = AXIS2_PLACEMENT_3D ( 'NONE', #313, #315, #290 ) ;
#261 = CARTESIAN_POINT ( 'NONE',  ( 0.0000000000000000000, 13.99999999999999800, 0.0000000000000000000 ) ) ;
#262 = EDGE_CURVE ( 'NONE', #14, #289, #177, .T. ) ;
#263 = CONICAL_SURFACE ( 'NONE', #136, 1.550000000000000000, 0.5235987755983002600 ) ;
#264 = VERTEX_POINT ( 'NONE', #213 ) ;
#265 = EDGE_LOOP ( 'NONE', ( #256, #5 ) ) ;
#266 = DIRECTION ( 'NONE',  ( 6.123233995736782100E-017, -0.8660254037844380400, 0.5000000000000012200 ) ) ;
#267 = DIRECTION ( 'NONE',  ( 0.0000000000000000000, 0.0000000000000000000, -1.000000000000000000 ) ) ;
#268 = CARTESIAN_POINT ( 'NONE',  ( 6.123233995736750000E-017, 0.0000000000000000000, -0.4999999999999987200 ) ) ;
#269 = UNCERTAINTY_MEASURE_WITH_UNIT (LENGTH_MEASURE( 1.000000000000000100E-005 ), #341, 'distance_accuracy_value', 'NONE');
#270 = EDGE_CURVE ( 'NONE', #264, #48, #28, .T. ) ;
#271 = DIRECTION ( 'NONE',  ( 0.0000000000000000000, 0.0000000000000000000, 1.000000000000000000 ) ) ;
#272 = CARTESIAN_POINT ( 'NONE',  ( 9.184850993605141000E-017, 0.0000000000000000000, -0.4999999999999987200 ) ) ;
#273 = CYLINDRICAL_SURFACE ( 'NONE', #114, 1.550000000000000000 ) ;
#274 = AXIS2_PLACEMENT_3D ( 'NONE', #74, #72, #1 ) ;
#275 = EDGE_LOOP ( 'NONE', ( #19, #145, #335, #34 ) ) ;
#276 = DIRECTION ( 'NONE',  ( 0.0000000000000000000, 0.0000000000000000000, 1.000000000000000000 ) ) ;
#277 =( LENGTH_UNIT ( ) NAMED_UNIT ( * ) SI_UNIT ( .MILLI., .METRE. ) );
#278 = CYLINDRICAL_SURFACE ( 'NONE', #260, 1.550000000000000000 ) ;
#279 = DIRECTION ( 'NONE',  ( 0.0000000000000000000, 0.0000000000000000000, -1.000000000000000000 ) ) ;
#280 = AXIS2_PLACEMENT_3D ( 'NONE', #261, #198, #321 ) ;
#281 = DIRECTION ( 'NONE',  ( 0.0000000000000000000, 0.0000000000000000000, -1.000000000000000000 ) ) ;
#282 = ORIENTED_EDGE ( 'NONE', *, *, #202, .F. ) ;
#283 = VERTEX_POINT ( 'NONE', #89 ) ;
#284 = AXIS2_PLACEMENT_3D ( 'NONE', #238, #205, #292 ) ;
#285 = ORIENTED_EDGE ( 'NONE', *, *, #309, .F. ) ;
#286 = EDGE_CURVE ( 'NONE', #14, #314, #163, .T. ) ;
#287 = DIRECTION ( 'NONE',  ( 0.0000000000000000000, 0.0000000000000000000, 1.000000000000000000 ) ) ;
#288 = FACE_OUTER_BOUND ( 'NONE', #211, .T. ) ;
#289 = VERTEX_POINT ( 'NONE', #237 ) ;
#290 = DIRECTION ( 'NONE',  ( 0.0000000000000000000, 0.0000000000000000000, -1.000000000000000000 ) ) ;
#291 = MECHANICAL_DESIGN_GEOMETRIC_PRESENTATION_REPRESENTATION (  '', ( #330 ), #222 ) ;
#292 = DIRECTION ( 'NONE',  ( 0.0000000000000000000, 0.0000000000000000000, -1.000000000000000000 ) ) ;
#293 = ORIENTED_EDGE ( 'NONE', *, *, #30, .F. ) ;
#294 = DIRECTION ( 'NONE',  ( 0.0000000000000000000, 1.000000000000000000, 0.0000000000000000000 ) ) ;
#295 = CARTESIAN_POINT ( 'NONE',  ( 0.0000000000000000000, 0.0000000000000000000, 0.0000000000000000000 ) ) ;
#296 = PLANE ( 'NONE',  #73 ) ;
#297 = AXIS2_PLACEMENT_3D ( 'NONE', #361, #336, #360 ) ;
#298 = CARTESIAN_POINT ( 'NONE',  ( 0.0000000000000000000, 0.0000000000000000000, 0.0000000000000000000 ) ) ;
#299 = LINE ( 'NONE', #147, #224 ) ;
#300 = ORIENTED_EDGE ( 'NONE', *, *, #156, .F. ) ;
#301 = ADVANCED_BREP_SHAPE_REPRESENTATION ( '38886~0', ( #162, #25 ), #337 ) ;
#302 =( NAMED_UNIT ( * ) SI_UNIT ( $, .STERADIAN. ) SOLID_ANGLE_UNIT ( ) );
#303 = EDGE_CURVE ( 'NONE', #340, #85, #49, .T. ) ;
#304 = DIRECTION ( 'NONE',  ( 0.0000000000000000000, 0.0000000000000000000, -1.000000000000000000 ) ) ;
#305 = SURFACE_SIDE_STYLE ('',( #223 ) ) ;
#306 = FACE_OUTER_BOUND ( 'NONE', #229, .T. ) ;
#307 = ORIENTED_EDGE ( 'NONE', *, *, #333, .F. ) ;
#308 = DIRECTION ( 'NONE',  ( 0.0000000000000000000, 0.0000000000000000000, -1.000000000000000000 ) ) ;
#309 = EDGE_CURVE ( 'NONE', #48, #85, #246, .T. ) ;
#310 = FACE_OUTER_BOUND ( 'NONE', #239, .T. ) ;
#311 = ORIENTED_EDGE ( 'NONE', *, *, #323, .F. ) ;
#312 = AXIS2_PLACEMENT_3D ( 'NONE', #242, #86, #212 ) ;
#313 = CARTESIAN_POINT ( 'NONE',  ( 0.0000000000000000000, 0.0000000000000000000, 0.0000000000000000000 ) ) ;
#314 = VERTEX_POINT ( 'NONE', #148 ) ;
#315 = DIRECTION ( 'NONE',  ( -0.0000000000000000000, -1.000000000000000000, -0.0000000000000000000 ) ) ;
#316 = ADVANCED_FACE ( 'NONE', ( #306 ), #158, .T. ) ;
#317 = DIRECTION ( 'NONE',  ( 0.0000000000000000000, 0.0000000000000000000, -1.000000000000000000 ) ) ;
#318 = CARTESIAN_POINT ( 'NONE',  ( 0.0000000000000000000, 0.0000000000000000000, 0.4999999999999987200 ) ) ;
#319 = VERTEX_POINT ( 'NONE', #57 ) ;
#320 = ADVANCED_FACE ( 'NONE', ( #210 ), #134, .T. ) ;
#321 = DIRECTION ( 'NONE',  ( 0.0000000000000000000, 0.0000000000000000000, 1.000000000000000000 ) ) ;
#322 = AXIS2_PLACEMENT_3D ( 'NONE', #350, #201, #75 ) ;
#323 = EDGE_CURVE ( 'NONE', #314, #14, #142, .T. ) ;
#324 = DIRECTION ( 'NONE',  ( 0.0000000000000000000, 0.0000000000000000000, -1.000000000000000000 ) ) ;
#325 = ADVANCED_FACE ( 'NONE', ( #47 ), #296, .T. ) ;
#326 = FACE_OUTER_BOUND ( 'NONE', #221, .T. ) ;
#327 = CARTESIAN_POINT ( 'NONE',  ( 0.0000000000000000000, 6.999999999999999100, 0.0000000000000000000 ) ) ;
#328 = ORIENTED_EDGE ( 'NONE', *, *, #303, .T. ) ;
#329 = CARTESIAN_POINT ( 'NONE',  ( 0.0000000000000000000, 0.0000000000000000000, -1.000000000000000000 ) ) ;
#330 = STYLED_ITEM ( 'NONE', ( #132 ), #162 ) ;
#331 = ADVANCED_FACE ( 'NONE', ( #369, #362 ), #219, .T. ) ;
#332 = DIRECTION ( 'NONE',  ( -0.0000000000000000000, -1.000000000000000000, -0.0000000000000000000 ) ) ;
#333 = EDGE_CURVE ( 'NONE', #71, #53, #168, .T. ) ;
#334 = SURFACE_STYLE_FILL_AREA ( #352 ) ;
#335 = ORIENTED_EDGE ( 'NONE', *, *, #27, .T. ) ;
#336 = DIRECTION ( 'NONE',  ( -0.0000000000000000000, -1.000000000000000000, -0.0000000000000000000 ) ) ;
#337 =( GEOMETRIC_REPRESENTATION_CONTEXT ( 3 ) GLOBAL_UNCERTAINTY_ASSIGNED_CONTEXT ( ( #31 ) ) GLOBAL_UNIT_ASSIGNED_CONTEXT ( ( #277, #366, #98 ) ) REPRESENTATION_CONTEXT ( 'NONE', 'WORKASPACE' ) );
#338 = DIRECTION ( 'NONE',  ( 0.0000000000000000000, -1.000000000000000000, -0.0000000000000000000 ) ) ;
#339 = CIRCLE ( 'NONE', #280, 0.6262395692965993000 ) ;
#340 = VERTEX_POINT ( 'NONE', #272 ) ;
#341 =( LENGTH_UNIT ( ) NAMED_UNIT ( * ) SI_UNIT ( .MILLI., .METRE. ) );
#342 = CARTESIAN_POINT ( 'NONE',  ( 0.0000000000000000000, 7.000000000000000000, -1.550000000000000000 ) ) ;
#343 = AXIS2_PLACEMENT_3D ( 'NONE', #8, #11, #151 ) ;
#344 = FACE_OUTER_BOUND ( 'NONE', #355, .T. ) ;
#345 = ORIENTED_EDGE ( 'NONE', *, *, #127, .F. ) ;
#346 = DIRECTION ( 'NONE',  ( 0.0000000000000000000, -0.8660254037844380400, -0.5000000000000012200 ) ) ;
#347 = FACE_OUTER_BOUND ( 'NONE', #117, .T. ) ;
#348 = DIRECTION ( 'NONE',  ( 0.0000000000000000000, 0.7071067811865474600, 0.7071067811865474600 ) ) ;
#349 = CLOSED_SHELL ( 'NONE', ( #240, #54, #83, #207, #29, #325, #200, #175, #331, #316, #56, #320, #257 ) ) ;
#350 = CARTESIAN_POINT ( 'NONE',  ( 0.0000000000000000000, 0.0000000000000000000, 0.0000000000000000000 ) ) ;
#351 = AXIS2_PLACEMENT_3D ( 'NONE', #111, #77, #287 ) ;
#352 = FILL_AREA_STYLE ('',( #78 ) ) ;
#353 =( NAMED_UNIT ( * ) SI_UNIT ( $, .STERADIAN. ) SOLID_ANGLE_UNIT ( ) );
#354 = ORIENTED_EDGE ( 'NONE', *, *, #67, .T. ) ;
#355 = EDGE_LOOP ( 'NONE', ( #76, #150, #70, #307 ) ) ;
#356 = EDGE_LOOP ( 'NONE', ( #178, #293, #119, #203 ) ) ;
#357 = CARTESIAN_POINT ( 'NONE',  ( 0.0000000000000000000, 0.0000000000000000000, 0.0000000000000000000 ) ) ;
#358 = CARTESIAN_POINT ( 'NONE',  ( 0.0000000000000000000, 0.0000000000000000000, 0.0000000000000000000 ) ) ;
#359 = VECTOR ( 'NONE', #101, 1000.000000000000000 ) ;
#360 = DIRECTION ( 'NONE',  ( 0.0000000000000000000, 0.0000000000000000000, -1.000000000000000000 ) ) ;
#361 = CARTESIAN_POINT ( 'NONE',  ( 0.0000000000000000000, 6.999999999999999100, 0.0000000000000000000 ) ) ;
#362 = FACE_BOUND ( 'NONE', #128, .T. ) ;
#363 = CIRCLE ( 'NONE', #284, 1.550000000000000000 ) ;
#364 = ORIENTED_EDGE ( 'NONE', *, *, #226, .F. ) ;
#365 = AXIS2_PLACEMENT_3D ( 'NONE', #258, #143, #79 ) ;
#366 =( NAMED_UNIT ( * ) PLANE_ANGLE_UNIT ( ) SI_UNIT ( $, .RADIAN. ) );
#367 =( GEOMETRIC_REPRESENTATION_CONTEXT ( 3 ) GLOBAL_UNCERTAINTY_ASSIGNED_CONTEXT ( ( #269 ) ) GLOBAL_UNIT_ASSIGNED_CONTEXT ( ( #341, #43, #302 ) ) REPRESENTATION_CONTEXT ( 'NONE', 'WORKASPACE' ) );
#368 = CARTESIAN_POINT ( 'NONE',  ( 0.9726497308103728700, 13.99999999999999800, 0.0000000000000000000 ) ) ;
#369 = FACE_OUTER_BOUND ( 'NONE', #243, .T. ) ;
#370 = ORIENTED_EDGE ( 'NONE', *, *, #27, .F. ) ;
#371 = TOROIDAL_SURFACE ( 'NONE', #343, 0.6262395692965993000, 0.5999999999999999800 ) ;
#372 = ORIENTED_EDGE ( 'NONE', *, *, #15, .F. ) ;
ENDSEC;
END-ISO-10303-21;
