ISO-10303-21;
HEADER;
FILE_DESCRIPTION (( 'STEP AP214' ),
    '1' );
FILE_NAME ('38881~0.STEP',
    '2017-07-04T08:57:39',
    ( '' ),
    ( '' ),
    'SwSTEP 2.0',
    'SolidWorks 2016',
    '' );
FILE_SCHEMA (( 'AUTOMOTIVE_DESIGN' ));
ENDSEC;

DATA;
#1 = FILL_AREA_STYLE_COLOUR ( '', #105 ) ;
#2 = EDGE_LOOP ( 'NONE', ( #266, #336, #96, #111 ) ) ;
#3 = DIRECTION ( 'NONE',  ( 0.0000000000000000000, 0.0000000000000000000, 1.000000000000000000 ) ) ;
#4 = EDGE_CURVE ( 'NONE', #323, #50, #16, .T. ) ;
#5 = EDGE_LOOP ( 'NONE', ( #138, #165 ) ) ;
#6 = COLOUR_RGB ( '',0.7529411764705882200, 0.7529411764705882200, 0.7529411764705882200 ) ;
#7 = DIRECTION ( 'NONE',  ( 0.0000000000000000000, 0.0000000000000000000, -1.000000000000000000 ) ) ;
#8 = LINE ( 'NONE', #85, #305 ) ;
#9 = ORIENTED_EDGE ( 'NONE', *, *, #179, .F. ) ;
#10 = CARTESIAN_POINT ( 'NONE',  ( 1.592040838891559100E-016, 13.00000000000000200, 1.300000000000000000 ) ) ;
#11 = DIRECTION ( 'NONE',  ( 0.0000000000000000000, 0.0000000000000000000, -1.000000000000000000 ) ) ;
#12 = AXIS2_PLACEMENT_3D ( 'NONE', #91, #3, #347 ) ;
#13 = CARTESIAN_POINT ( 'NONE',  ( 0.0000000000000000000, 13.99999999999999800, 0.3762395692965993500 ) ) ;
#14 = ORIENTED_EDGE ( 'NONE', *, *, #234, .T. ) ;
#15 = FACE_OUTER_BOUND ( 'NONE', #21, .T. ) ;
#16 = CIRCLE ( 'NONE', #18, 1.000000000000000000 ) ;
#17 =( NAMED_UNIT ( * ) PLANE_ANGLE_UNIT ( ) SI_UNIT ( $, .RADIAN. ) );
#18 = AXIS2_PLACEMENT_3D ( 'NONE', #340, #257, #103 ) ;
#19 = DIRECTION ( 'NONE',  ( 0.0000000000000000000, 0.0000000000000000000, -1.000000000000000000 ) ) ;
#20 = ORIENTED_EDGE ( 'NONE', *, *, #248, .F. ) ;
#21 = EDGE_LOOP ( 'NONE', ( #203, #143 ) ) ;
#22 = FILL_AREA_STYLE_COLOUR ( '', #6 ) ;
#23 = CARTESIAN_POINT ( 'NONE',  ( 0.0000000000000000000, 13.70000000000000100, -0.8958548115672615400 ) ) ;
#24 = VECTOR ( 'NONE', #196, 1000.000000000000000 ) ;
#25 = EDGE_LOOP ( 'NONE', ( #68, #279, #220, #368 ) ) ;
#26 = ORIENTED_EDGE ( 'NONE', *, *, #128, .F. ) ;
#27 =( LENGTH_UNIT ( ) NAMED_UNIT ( * ) SI_UNIT ( .MILLI., .METRE. ) );
#28 = ADVANCED_FACE ( 'NONE', ( #125 ), #353, .T. ) ;
#29 = CARTESIAN_POINT ( 'NONE',  ( 0.0000000000000000000, 0.0000000000000000000, 0.0000000000000000000 ) ) ;
#30 = ADVANCED_FACE ( 'NONE', ( #117 ), #324, .T. ) ;
#31 = FILL_AREA_STYLE ('',( #1 ) ) ;
#32 = AXIS2_PLACEMENT_3D ( 'NONE', #107, #331, #112 ) ;
#33 = CONICAL_SURFACE ( 'NONE', #66, 1.300000000000000000, 0.5235987755983002600 ) ;
#34 = CIRCLE ( 'NONE', #290, 0.5000000000000004400 ) ;
#35 = FACE_OUTER_BOUND ( 'NONE', #5, .T. ) ;
#36 = AXIS2_PLACEMENT_3D ( 'NONE', #146, #206, #94 ) ;
#37 = ORIENTED_EDGE ( 'NONE', *, *, #312, .T. ) ;
#38 = DIRECTION ( 'NONE',  ( -0.0000000000000000000, -1.000000000000000000, -0.0000000000000000000 ) ) ;
#39 = DIRECTION ( 'NONE',  ( 0.0000000000000000000, 0.0000000000000000000, -1.000000000000000000 ) ) ;
#40 = CARTESIAN_POINT ( 'NONE',  ( 0.0000000000000000000, 13.00000000000000200, -1.300000000000000000 ) ) ;
#41 = CARTESIAN_POINT ( 'NONE',  ( 0.0000000000000000000, 13.99999999999999800, 0.0000000000000000000 ) ) ;
#42 = AXIS2_PLACEMENT_3D ( 'NONE', #281, #52, #19 ) ;
#43 = DIRECTION ( 'NONE',  ( -0.0000000000000000000, -1.000000000000000000, -0.0000000000000000000 ) ) ;
#44 = DIRECTION ( 'NONE',  ( -0.0000000000000000000, -1.000000000000000000, -0.0000000000000000000 ) ) ;
#45 = AXIS2_PLACEMENT_3D ( 'NONE', #205, #366, #228 ) ;
#46 = CIRCLE ( 'NONE', #133, 1.000000000000000000 ) ;
#47 = CIRCLE ( 'NONE', #337, 1.300000000000000000 ) ;
#48 = CARTESIAN_POINT ( 'NONE',  ( 0.0000000000000000000, 13.00000000000000200, -1.300000000000000000 ) ) ;
#49 = SURFACE_STYLE_FILL_AREA ( #31 ) ;
#50 = VERTEX_POINT ( 'NONE', #298 ) ;
#51 = EDGE_CURVE ( 'NONE', #319, #149, #325, .T. ) ;
#52 = DIRECTION ( 'NONE',  ( -0.0000000000000000000, -1.000000000000000000, -0.0000000000000000000 ) ) ;
#53 = ORIENTED_EDGE ( 'NONE', *, *, #322, .F. ) ;
#54 = DIRECTION ( 'NONE',  ( -0.0000000000000000000, -1.000000000000000000, -0.0000000000000000000 ) ) ;
#55 = DIRECTION ( 'NONE',  ( 0.0000000000000000000, 0.0000000000000000000, -1.000000000000000000 ) ) ;
#56 = VERTEX_POINT ( 'NONE', #184 ) ;
#57 = ORIENTED_EDGE ( 'NONE', *, *, #207, .T. ) ;
#58 = ADVANCED_FACE ( 'NONE', ( #77 ), #124, .T. ) ;
#59 = STYLED_ITEM ( 'NONE', ( #268 ), #303 ) ;
#60 =( NAMED_UNIT ( * ) PLANE_ANGLE_UNIT ( ) SI_UNIT ( $, .RADIAN. ) );
#61 =( LENGTH_UNIT ( ) NAMED_UNIT ( * ) SI_UNIT ( .MILLI., .METRE. ) );
#62 = ORIENTED_EDGE ( 'NONE', *, *, #4, .F. ) ;
#63 = APPLICATION_CONTEXT ( 'automotive_design' ) ;
#64 = ORIENTED_EDGE ( 'NONE', *, *, #72, .F. ) ;
#65 = LINE ( 'NONE', #40, #172 ) ;
#66 = AXIS2_PLACEMENT_3D ( 'NONE', #291, #239, #320 ) ;
#67 = SHAPE_DEFINITION_REPRESENTATION ( #159, #217 ) ;
#68 = ORIENTED_EDGE ( 'NONE', *, *, #276, .F. ) ;
#69 = PLANE ( 'NONE',  #130 ) ;
#70 = CONICAL_SURFACE ( 'NONE', #310, 1.300000000000000000, 0.5235987755983002600 ) ;
#71 = DIRECTION ( 'NONE',  ( 0.0000000000000000000, 0.0000000000000000000, 1.000000000000000000 ) ) ;
#72 = EDGE_CURVE ( 'NONE', #56, #292, #189, .T. ) ;
#73 = CARTESIAN_POINT ( 'NONE',  ( 0.0000000000000000000, 13.00000000000000200, 0.0000000000000000000 ) ) ;
#74 = DIRECTION ( 'NONE',  ( 0.0000000000000000000, 0.0000000000000000000, -1.000000000000000000 ) ) ;
#75 = DIRECTION ( 'NONE',  ( 0.0000000000000000000, 1.000000000000000000, 0.0000000000000000000 ) ) ;
#76 = CARTESIAN_POINT ( 'NONE',  ( 0.0000000000000000000, 13.39999999999999900, 0.3762395692965993500 ) ) ;
#77 = FACE_OUTER_BOUND ( 'NONE', #208, .T. ) ;
#78 = CLOSED_SHELL ( 'NONE', ( #232, #346, #28, #230, #289, #178, #343, #141, #139, #30, #202, #286, #58 ) ) ;
#79 = DIRECTION ( 'NONE',  ( 0.0000000000000000000, 1.000000000000000000, 0.0000000000000000000 ) ) ;
#80 = CARTESIAN_POINT ( 'NONE',  ( 0.0000000000000000000, 13.70000000000000100, 0.0000000000000000000 ) ) ;
#81 = AXIS2_PLACEMENT_3D ( 'NONE', #328, #104, #74 ) ;
#82 = CARTESIAN_POINT ( 'NONE',  ( 0.0000000000000000000, 13.00000000000000200, 0.0000000000000000000 ) ) ;
#83 = UNCERTAINTY_MEASURE_WITH_UNIT (LENGTH_MEASURE( 1.000000000000000100E-005 ), #313, 'distance_accuracy_value', 'NONE');
#84 = ORIENTED_EDGE ( 'NONE', *, *, #248, .T. ) ;
#85 = CARTESIAN_POINT ( 'NONE',  ( 0.0000000000000000000, 0.0000000000000000000, -1.000000000000000000 ) ) ;
#86 = SURFACE_STYLE_USAGE ( .BOTH. , #116 ) ;
#87 = ORIENTED_EDGE ( 'NONE', *, *, #145, .T. ) ;
#88 = DIRECTION ( 'NONE',  ( 0.0000000000000000000, 0.0000000000000000000, -1.000000000000000000 ) ) ;
#89 = VECTOR ( 'NONE', #370, 1000.000000000000100 ) ;
#90 = FACE_OUTER_BOUND ( 'NONE', #132, .T. ) ;
#91 = CARTESIAN_POINT ( 'NONE',  ( 0.0000000000000000000, 0.0000000000000000000, 0.0000000000000000000 ) ) ;
#92 = ORIENTED_EDGE ( 'NONE', *, *, #322, .T. ) ;
#93 = PRODUCT ( '38881~0', '38881~0', '', ( #287 ) ) ;
#94 = DIRECTION ( 'NONE',  ( 0.0000000000000000000, 0.0000000000000000000, 1.000000000000000000 ) ) ;
#95 = EDGE_CURVE ( 'NONE', #213, #149, #47, .T. ) ;
#96 = ORIENTED_EDGE ( 'NONE', *, *, #166, .T. ) ;
#97 = EDGE_CURVE ( 'NONE', #308, #135, #180, .T. ) ;
#98 = CYLINDRICAL_SURFACE ( 'NONE', #283, 1.300000000000000000 ) ;
#99 = FACE_OUTER_BOUND ( 'NONE', #25, .T. ) ;
#100 = PRODUCT_RELATED_PRODUCT_CATEGORY ( 'part', '', ( #93 ) ) ;
#101 = PRESENTATION_STYLE_ASSIGNMENT (( #177 ) ) ;
#102 = EDGE_LOOP ( 'NONE', ( #129, #84 ) ) ;
#103 = DIRECTION ( 'NONE',  ( 0.0000000000000000000, 0.0000000000000000000, -1.000000000000000000 ) ) ;
#104 = DIRECTION ( 'NONE',  ( -0.0000000000000000000, -1.000000000000000000, -0.0000000000000000000 ) ) ;
#105 = COLOUR_RGB ( '',0.7529411764705882200, 0.7529411764705882200, 0.7529411764705882200 ) ;
#106 = EDGE_CURVE ( 'NONE', #231, #323, #277, .T. ) ;
#107 = CARTESIAN_POINT ( 'NONE',  ( 0.0000000000000000000, 0.0000000000000000000, 0.0000000000000000000 ) ) ;
#108 = LINE ( 'NONE', #109, #24 ) ;
#109 = CARTESIAN_POINT ( 'NONE',  ( 0.0000000000000000000, 0.0000000000000000000, -1.300000000000000000 ) ) ;
#110 = VECTOR ( 'NONE', #301, 1000.000000000000000 ) ;
#111 = ORIENTED_EDGE ( 'NONE', *, *, #330, .F. ) ;
#112 = DIRECTION ( 'NONE',  ( 0.0000000000000000000, 0.0000000000000000000, -1.000000000000000000 ) ) ;
#113 = CARTESIAN_POINT ( 'NONE',  ( 0.0000000000000000000, 0.0000000000000000000, 0.0000000000000000000 ) ) ;
#114 = AXIS2_PLACEMENT_3D ( 'NONE', #365, #167, #259 ) ;
#115 = FILL_AREA_STYLE ('',( #22 ) ) ;
#116 = SURFACE_SIDE_STYLE ('',( #263 ) ) ;
#117 = FACE_OUTER_BOUND ( 'NONE', #238, .T. ) ;
#118 = VECTOR ( 'NONE', #338, 1000.000000000000100 ) ;
#119 = DIRECTION ( 'NONE',  ( 0.0000000000000000000, 1.000000000000000000, 0.0000000000000000000 ) ) ;
#120 = VERTEX_POINT ( 'NONE', #185 ) ;
#121 = APPLICATION_CONTEXT ( 'automotive_design' ) ;
#122 = DIRECTION ( 'NONE',  ( -0.0000000000000000000, -1.000000000000000000, -0.0000000000000000000 ) ) ;
#123 = AXIS2_PLACEMENT_3D ( 'NONE', #275, #247, #158 ) ;
#124 = TOROIDAL_SURFACE ( 'NONE', #123, 0.3762395692965993500, 0.5999999999999999800 ) ;
#125 = FACE_OUTER_BOUND ( 'NONE', #294, .T. ) ;
#126 = ORIENTED_EDGE ( 'NONE', *, *, #207, .F. ) ;
#127 = DIRECTION ( 'NONE',  ( -0.0000000000000000000, -1.000000000000000000, -0.0000000000000000000 ) ) ;
#128 = EDGE_CURVE ( 'NONE', #246, #231, #46, .T. ) ;
#129 = ORIENTED_EDGE ( 'NONE', *, *, #72, .T. ) ;
#130 = AXIS2_PLACEMENT_3D ( 'NONE', #295, #272, #152 ) ;
#131 = CARTESIAN_POINT ( 'NONE',  ( 0.0000000000000000000, 7.000000000000000000, 0.0000000000000000000 ) ) ;
#132 = EDGE_LOOP ( 'NONE', ( #200, #357, #62, #53 ) ) ;
#133 = AXIS2_PLACEMENT_3D ( 'NONE', #183, #358, #7 ) ;
#134 = CIRCLE ( 'NONE', #240, 0.5000000000000004400 ) ;
#135 = VERTEX_POINT ( 'NONE', #13 ) ;
#136 = CARTESIAN_POINT ( 'NONE',  ( 7.789331558691307000E-017, 13.99999999999999800, -0.3762395692965993500 ) ) ;
#137 = AXIS2_PLACEMENT_3D ( 'NONE', #164, #223, #306 ) ;
#138 = ORIENTED_EDGE ( 'NONE', *, *, #179, .T. ) ;
#139 = ADVANCED_FACE ( 'NONE', ( #171, #255 ), #69, .T. ) ;
#140 = DIRECTION ( 'NONE',  ( 0.0000000000000000000, 1.000000000000000000, 0.0000000000000000000 ) ) ;
#141 = ADVANCED_FACE ( 'NONE', ( #210 ), #98, .T. ) ;
#142 = APPLICATION_PROTOCOL_DEFINITION ( 'draft international standard', 'automotive_design', 1998, #121 ) ;
#143 = ORIENTED_EDGE ( 'NONE', *, *, #97, .T. ) ;
#144 =( NAMED_UNIT ( * ) PLANE_ANGLE_UNIT ( ) SI_UNIT ( $, .RADIAN. ) );
#145 = EDGE_CURVE ( 'NONE', #231, #246, #224, .T. ) ;
#146 = CARTESIAN_POINT ( 'NONE',  ( 0.0000000000000000000, 0.0000000000000000000, 0.0000000000000000000 ) ) ;
#147 =( GEOMETRIC_REPRESENTATION_CONTEXT ( 3 ) GLOBAL_UNCERTAINTY_ASSIGNED_CONTEXT ( ( #204 ) ) GLOBAL_UNIT_ASSIGNED_CONTEXT ( ( #61, #144, #175 ) ) REPRESENTATION_CONTEXT ( 'NONE', 'WORKASPACE' ) );
#148 = UNCERTAINTY_MEASURE_WITH_UNIT (LENGTH_MEASURE( 1.000000000000000100E-005 ), #27, 'distance_accuracy_value', 'NONE');
#149 = VERTEX_POINT ( 'NONE', #156 ) ;
#150 = EDGE_CURVE ( 'NONE', #135, #308, #302, .T. ) ;
#151 = ORIENTED_EDGE ( 'NONE', *, *, #197, .T. ) ;
#152 = DIRECTION ( 'NONE',  ( 0.0000000000000000000, 0.0000000000000000000, -1.000000000000000000 ) ) ;
#153 = AXIS2_PLACEMENT_3D ( 'NONE', #339, #119, #88 ) ;
#154 = CARTESIAN_POINT ( 'NONE',  ( 0.0000000000000000000, 13.99999999999999800, 0.0000000000000000000 ) ) ;
#155 = EDGE_LOOP ( 'NONE', ( #126, #191, #14, #20 ) ) ;
#156 = CARTESIAN_POINT ( 'NONE',  ( 1.592040838891559100E-016, 13.00000000000000200, 1.300000000000000000 ) ) ;
#157 = AXIS2_PLACEMENT_3D ( 'NONE', #41, #79, #188 ) ;
#158 = DIRECTION ( 'NONE',  ( 0.0000000000000000000, 0.0000000000000000000, 1.000000000000000000 ) ) ;
#159 = PRODUCT_DEFINITION_SHAPE ( 'NONE', 'NONE',  #187 ) ;
#160 = AXIS2_PLACEMENT_3D ( 'NONE', #131, #356, #39 ) ;
#161 = CARTESIAN_POINT ( 'NONE',  ( 0.0000000000000000000, 0.0000000000000000000, 0.0000000000000000000 ) ) ;
#162 = FACE_OUTER_BOUND ( 'NONE', #360, .T. ) ;
#163 = LINE ( 'NONE', #344, #89 ) ;
#164 = CARTESIAN_POINT ( 'NONE',  ( 0.7226497308103728700, 13.99999999999999800, 0.0000000000000000000 ) ) ;
#165 = ORIENTED_EDGE ( 'NONE', *, *, #349, .T. ) ;
#166 = EDGE_CURVE ( 'NONE', #326, #213, #65, .T. ) ;
#167 = DIRECTION ( 'NONE',  ( -0.0000000000000000000, -1.000000000000000000, -0.0000000000000000000 ) ) ;
#168 = CARTESIAN_POINT ( 'NONE',  ( 0.0000000000000000000, 13.70000000000000100, 0.0000000000000000000 ) ) ;
#169 = VERTEX_POINT ( 'NONE', #309 ) ;
#170 = DIRECTION ( 'NONE',  ( 0.0000000000000000000, 0.0000000000000000000, 1.000000000000000000 ) ) ;
#171 = FACE_OUTER_BOUND ( 'NONE', #102, .T. ) ;
#172 = VECTOR ( 'NONE', #215, 999.9999999999998900 ) ;
#173 = PRESENTATION_LAYER_ASSIGNMENT (  '', '', ( #273 ) ) ;
#174 = ORIENTED_EDGE ( 'NONE', *, *, #276, .T. ) ;
#175 =( NAMED_UNIT ( * ) SI_UNIT ( $, .STERADIAN. ) SOLID_ANGLE_UNIT ( ) );
#176 = AXIS2_PLACEMENT_3D ( 'NONE', #236, #288, #348 ) ;
#177 = SURFACE_STYLE_USAGE ( .BOTH. , #372 ) ;
#178 = ADVANCED_FACE ( 'NONE', ( #15 ), #327, .T. ) ;
#179 = EDGE_CURVE ( 'NONE', #169, #120, #34, .T. ) ;
#180 = CIRCLE ( 'NONE', #367, 0.3762395692965993500 ) ;
#181 = EDGE_LOOP ( 'NONE', ( #26, #265 ) ) ;
#182 = ORIENTED_EDGE ( 'NONE', *, *, #95, .F. ) ;
#183 = CARTESIAN_POINT ( 'NONE',  ( 0.0000000000000000000, 6.999999999999999100, 0.0000000000000000000 ) ) ;
#184 = CARTESIAN_POINT ( 'NONE',  ( 0.0000000000000000000, 7.000000000000000000, -1.300000000000000000 ) ) ;
#185 = CARTESIAN_POINT ( 'NONE',  ( 9.184850993605152100E-017, 0.0000000000000000000, -0.5000000000000004400 ) ) ;
#186 = CARTESIAN_POINT ( 'NONE',  ( 1.224646799147353200E-016, 0.0000000000000000000, 1.000000000000000000 ) ) ;
#187 = PRODUCT_DEFINITION ( 'UNKNOWN', '', #193, #226 ) ;
#188 = DIRECTION ( 'NONE',  ( 0.0000000000000000000, 0.0000000000000000000, 1.000000000000000000 ) ) ;
#189 = CIRCLE ( 'NONE', #160, 1.300000000000000000 ) ;
#190 = DIRECTION ( 'NONE',  ( 0.0000000000000000000, 0.0000000000000000000, 1.000000000000000000 ) ) ;
#191 = ORIENTED_EDGE ( 'NONE', *, *, #330, .T. ) ;
#192 = DIRECTION ( 'NONE',  ( 0.0000000000000000000, 0.0000000000000000000, 1.000000000000000000 ) ) ;
#193 = PRODUCT_DEFINITION_FORMATION_WITH_SPECIFIED_SOURCE ( 'ANY', '', #93, .NOT_KNOWN. ) ;
#194 = CONICAL_SURFACE ( 'NONE', #36, 0.5000000000000004400, 0.7853981633974482800 ) ;
#195 = ORIENTED_EDGE ( 'NONE', *, *, #106, .T. ) ;
#196 = DIRECTION ( 'NONE',  ( -0.0000000000000000000, -1.000000000000000000, -0.0000000000000000000 ) ) ;
#197 = EDGE_CURVE ( 'NONE', #319, #135, #342, .T. ) ;
#198 = CARTESIAN_POINT ( 'NONE',  ( 1.344573283189080300E-016, 13.70000000000000100, 0.8958548115672615400 ) ) ;
#199 = CIRCLE ( 'NONE', #267, 0.8958548115672615400 ) ;
#200 = ORIENTED_EDGE ( 'NONE', *, *, #349, .F. ) ;
#201 = DIRECTION ( 'NONE',  ( -0.0000000000000000000, -1.000000000000000000, -0.0000000000000000000 ) ) ;
#202 = ADVANCED_FACE ( 'NONE', ( #35 ), #256, .T. ) ;
#203 = ORIENTED_EDGE ( 'NONE', *, *, #150, .T. ) ;
#204 = UNCERTAINTY_MEASURE_WITH_UNIT (LENGTH_MEASURE( 1.000000000000000100E-005 ), #61, 'distance_accuracy_value', 'NONE');
#205 = CARTESIAN_POINT ( 'NONE',  ( 4.607605842516591500E-017, 13.39999999999999900, -0.3762395692965993500 ) ) ;
#206 = DIRECTION ( 'NONE',  ( 0.0000000000000000000, 1.000000000000000000, 0.0000000000000000000 ) ) ;
#207 = EDGE_CURVE ( 'NONE', #149, #292, #333, .T. ) ;
#208 = EDGE_LOOP ( 'NONE', ( #278, #251, #151, #354 ) ) ;
#209 = AXIS2_PLACEMENT_3D ( 'NONE', #225, #75, #190 ) ;
#210 = FACE_OUTER_BOUND ( 'NONE', #155, .T. ) ;
#211 = EDGE_LOOP ( 'NONE', ( #284, #57, #64, #274 ) ) ;
#212 = CARTESIAN_POINT ( 'NONE',  ( 0.0000000000000000000, 0.0000000000000000000, 0.0000000000000000000 ) ) ;
#213 = VERTEX_POINT ( 'NONE', #48 ) ;
#214 = DIRECTION ( 'NONE',  ( -0.0000000000000000000, -1.000000000000000000, -0.0000000000000000000 ) ) ;
#215 = DIRECTION ( 'NONE',  ( 0.0000000000000000000, -0.8660254037844380400, -0.5000000000000012200 ) ) ;
#216 = DIRECTION ( 'NONE',  ( 6.123233995736782100E-017, -0.8660254037844380400, 0.5000000000000012200 ) ) ;
#217 = ADVANCED_BREP_SHAPE_REPRESENTATION ( '38881~0', ( #303, #12 ), #147 ) ;
#218 = LINE ( 'NONE', #369, #118 ) ;
#219 = DIRECTION ( 'NONE',  ( 0.0000000000000000000, 0.0000000000000000000, -1.000000000000000000 ) ) ;
#220 = ORIENTED_EDGE ( 'NONE', *, *, #150, .F. ) ;
#221 = DIRECTION ( 'NONE',  ( 0.0000000000000000000, 0.0000000000000000000, -1.000000000000000000 ) ) ;
#222 = AXIS2_PLACEMENT_3D ( 'NONE', #168, #260, #170 ) ;
#223 = DIRECTION ( 'NONE',  ( 0.0000000000000000000, 1.000000000000000000, 0.0000000000000000000 ) ) ;
#224 = CIRCLE ( 'NONE', #258, 1.000000000000000000 ) ;
#225 = CARTESIAN_POINT ( 'NONE',  ( 0.0000000000000000000, 13.39999999999999900, 0.0000000000000000000 ) ) ;
#226 = PRODUCT_DEFINITION_CONTEXT ( 'detailed design', #121, 'design' ) ;
#227 = DIRECTION ( 'NONE',  ( 0.0000000000000000000, 0.0000000000000000000, 1.000000000000000000 ) ) ;
#228 = DIRECTION ( 'NONE',  ( 1.224646799147353000E-016, 0.0000000000000000000, -1.000000000000000000 ) ) ;
#229 = PRESENTATION_LAYER_ASSIGNMENT (  '', '', ( #59 ) ) ;
#230 = ADVANCED_FACE ( 'NONE', ( #332 ), #341, .T. ) ;
#231 = VERTEX_POINT ( 'NONE', #252 ) ;
#232 = ADVANCED_FACE ( 'NONE', ( #99 ), #315, .T. ) ;
#233 = DIRECTION ( 'NONE',  ( 0.0000000000000000000, 0.0000000000000000000, 1.000000000000000000 ) ) ;
#234 = EDGE_CURVE ( 'NONE', #213, #56, #108, .T. ) ;
#235 = CIRCLE ( 'NONE', #176, 1.300000000000000000 ) ;
#236 = CARTESIAN_POINT ( 'NONE',  ( 0.0000000000000000000, 13.00000000000000200, 0.0000000000000000000 ) ) ;
#237 = AXIS2_PLACEMENT_3D ( 'NONE', #113, #140, #227 ) ;
#238 = EDGE_LOOP ( 'NONE', ( #280, #87, #37, #300 ) ) ;
#239 = DIRECTION ( 'NONE',  ( -0.0000000000000000000, -1.000000000000000000, -0.0000000000000000000 ) ) ;
#240 = AXIS2_PLACEMENT_3D ( 'NONE', #29, #122, #241 ) ;
#241 = DIRECTION ( 'NONE',  ( 0.0000000000000000000, 0.0000000000000000000, -1.000000000000000000 ) ) ;
#242 = CIRCLE ( 'NONE', #153, 1.000000000000000000 ) ;
#243 = FACE_OUTER_BOUND ( 'NONE', #2, .T. ) ;
#244 = ORIENTED_EDGE ( 'NONE', *, *, #4, .T. ) ;
#245 = DIRECTION ( 'NONE',  ( 0.0000000000000000000, 0.0000000000000000000, -1.000000000000000000 ) ) ;
#246 = VERTEX_POINT ( 'NONE', #293 ) ;
#247 = DIRECTION ( 'NONE',  ( 0.0000000000000000000, 1.000000000000000000, 0.0000000000000000000 ) ) ;
#248 = EDGE_CURVE ( 'NONE', #292, #56, #254, .T. ) ;
#249 = CARTESIAN_POINT ( 'NONE',  ( 0.0000000000000000000, 6.999999999999999100, 0.0000000000000000000 ) ) ;
#250 = MECHANICAL_DESIGN_GEOMETRIC_PRESENTATION_REPRESENTATION (  '', ( #273 ), #299 ) ;
#251 = ORIENTED_EDGE ( 'NONE', *, *, #307, .F. ) ;
#252 = CARTESIAN_POINT ( 'NONE',  ( 1.224646799147353200E-016, 6.999999999999999100, 1.000000000000000000 ) ) ;
#253 = CARTESIAN_POINT ( 'NONE',  ( 0.0000000000000000000, 0.0000000000000000000, 0.0000000000000000000 ) ) ;
#254 = CIRCLE ( 'NONE', #114, 1.300000000000000000 ) ;
#255 = FACE_BOUND ( 'NONE', #181, .T. ) ;
#256 = PLANE ( 'NONE',  #32 ) ;
#257 = DIRECTION ( 'NONE',  ( 0.0000000000000000000, 1.000000000000000000, 0.0000000000000000000 ) ) ;
#258 = AXIS2_PLACEMENT_3D ( 'NONE', #249, #127, #11 ) ;
#259 = DIRECTION ( 'NONE',  ( 0.0000000000000000000, 0.0000000000000000000, -1.000000000000000000 ) ) ;
#260 = DIRECTION ( 'NONE',  ( -0.0000000000000000000, -1.000000000000000000, -0.0000000000000000000 ) ) ;
#261 = VECTOR ( 'NONE', #43, 1000.000000000000000 ) ;
#262 = AXIS2_PLACEMENT_3D ( 'NONE', #253, #359, #219 ) ;
#263 = SURFACE_STYLE_FILL_AREA ( #115 ) ;
#264 = DIRECTION ( 'NONE',  ( -0.0000000000000000000, -1.000000000000000000, -0.0000000000000000000 ) ) ;
#265 = ORIENTED_EDGE ( 'NONE', *, *, #145, .F. ) ;
#266 = ORIENTED_EDGE ( 'NONE', *, *, #51, .F. ) ;
#267 = AXIS2_PLACEMENT_3D ( 'NONE', #80, #264, #233 ) ;
#268 = PRESENTATION_STYLE_ASSIGNMENT (( #86 ) ) ;
#269 = CIRCLE ( 'NONE', #45, 0.5999999999999999800 ) ;
#270 = EDGE_CURVE ( 'NONE', #50, #323, #242, .T. ) ;
#271 = ORIENTED_EDGE ( 'NONE', *, *, #270, .F. ) ;
#272 = DIRECTION ( 'NONE',  ( 0.0000000000000000000, -1.000000000000000000, -0.0000000000000000000 ) ) ;
#273 = STYLED_ITEM ( 'NONE', ( #101 ), #217 ) ;
#274 = ORIENTED_EDGE ( 'NONE', *, *, #234, .F. ) ;
#275 = CARTESIAN_POINT ( 'NONE',  ( 0.0000000000000000000, 13.39999999999999900, 0.0000000000000000000 ) ) ;
#276 = EDGE_CURVE ( 'NONE', #326, #319, #199, .T. ) ;
#277 = LINE ( 'NONE', #186, #261 ) ;
#278 = ORIENTED_EDGE ( 'NONE', *, *, #282, .F. ) ;
#279 = ORIENTED_EDGE ( 'NONE', *, *, #282, .T. ) ;
#280 = ORIENTED_EDGE ( 'NONE', *, *, #106, .F. ) ;
#281 = CARTESIAN_POINT ( 'NONE',  ( 0.0000000000000000000, 0.0000000000000000000, 0.0000000000000000000 ) ) ;
#282 = EDGE_CURVE ( 'NONE', #326, #308, #269, .T. ) ;
#283 = AXIS2_PLACEMENT_3D ( 'NONE', #212, #38, #245 ) ;
#284 = ORIENTED_EDGE ( 'NONE', *, *, #95, .T. ) ;
#285 = FACE_OUTER_BOUND ( 'NONE', #363, .T. ) ;
#286 = ADVANCED_FACE ( 'NONE', ( #162 ), #371, .T. ) ;
#287 = PRODUCT_CONTEXT ( 'NONE', #63, 'mechanical' ) ;
#288 = DIRECTION ( 'NONE',  ( -0.0000000000000000000, -1.000000000000000000, -0.0000000000000000000 ) ) ;
#289 = ADVANCED_FACE ( 'NONE', ( #285 ), #70, .T. ) ;
#290 = AXIS2_PLACEMENT_3D ( 'NONE', #161, #44, #221 ) ;
#291 = CARTESIAN_POINT ( 'NONE',  ( 0.0000000000000000000, 13.00000000000000200, 0.0000000000000000000 ) ) ;
#292 = VERTEX_POINT ( 'NONE', #318 ) ;
#293 = CARTESIAN_POINT ( 'NONE',  ( 0.0000000000000000000, 6.999999999999999100, -1.000000000000000000 ) ) ;
#294 = EDGE_LOOP ( 'NONE', ( #350, #195, #244, #304 ) ) ;
#295 = CARTESIAN_POINT ( 'NONE',  ( 1.000000000000000000, 6.999999999999999100, 0.0000000000000000000 ) ) ;
#296 = DIRECTION ( 'NONE',  ( 0.0000000000000000000, 0.0000000000000000000, -1.000000000000000000 ) ) ;
#297 = EDGE_CURVE ( 'NONE', #120, #50, #218, .T. ) ;
#298 = CARTESIAN_POINT ( 'NONE',  ( 0.0000000000000000000, 0.4999999999999995600, -1.000000000000000000 ) ) ;
#299 =( GEOMETRIC_REPRESENTATION_CONTEXT ( 3 ) GLOBAL_UNCERTAINTY_ASSIGNED_CONTEXT ( ( #148 ) ) GLOBAL_UNIT_ASSIGNED_CONTEXT ( ( #27, #60, #351 ) ) REPRESENTATION_CONTEXT ( 'NONE', 'WORKASPACE' ) );
#300 = ORIENTED_EDGE ( 'NONE', *, *, #270, .T. ) ;
#301 = DIRECTION ( 'NONE',  ( -0.0000000000000000000, -1.000000000000000000, -0.0000000000000000000 ) ) ;
#302 = CIRCLE ( 'NONE', #157, 0.3762395692965993500 ) ;
#303 = MANIFOLD_SOLID_BREP ( 'Verrundung1', #78 ) ;
#304 = ORIENTED_EDGE ( 'NONE', *, *, #312, .F. ) ;
#305 = VECTOR ( 'NONE', #201, 1000.000000000000000 ) ;
#306 = DIRECTION ( 'NONE',  ( 0.0000000000000000000, -0.0000000000000000000, 1.000000000000000000 ) ) ;
#307 = EDGE_CURVE ( 'NONE', #319, #326, #317, .T. ) ;
#308 = VERTEX_POINT ( 'NONE', #136 ) ;
#309 = CARTESIAN_POINT ( 'NONE',  ( 0.0000000000000000000, 0.0000000000000000000, 0.5000000000000004400 ) ) ;
#310 = AXIS2_PLACEMENT_3D ( 'NONE', #82, #54, #55 ) ;
#311 =( NAMED_UNIT ( * ) SI_UNIT ( $, .STERADIAN. ) SOLID_ANGLE_UNIT ( ) );
#312 = EDGE_CURVE ( 'NONE', #246, #50, #8, .T. ) ;
#313 =( LENGTH_UNIT ( ) NAMED_UNIT ( * ) SI_UNIT ( .MILLI., .METRE. ) );
#314 = AXIS2_PLACEMENT_3D ( 'NONE', #76, #361, #192 ) ;
#315 = TOROIDAL_SURFACE ( 'NONE', #209, 0.3762395692965993500, 0.5999999999999999800 ) ;
#316 = ORIENTED_EDGE ( 'NONE', *, *, #166, .F. ) ;
#317 = CIRCLE ( 'NONE', #222, 0.8958548115672615400 ) ;
#318 = CARTESIAN_POINT ( 'NONE',  ( 1.592040838891559100E-016, 7.000000000000000000, 1.300000000000000000 ) ) ;
#319 = VERTEX_POINT ( 'NONE', #198 ) ;
#320 = DIRECTION ( 'NONE',  ( 0.0000000000000000000, 0.0000000000000000000, -1.000000000000000000 ) ) ;
#321 = APPLICATION_PROTOCOL_DEFINITION ( 'draft international standard', 'automotive_design', 1998, #63 ) ;
#322 = EDGE_CURVE ( 'NONE', #169, #323, #163, .T. ) ;
#323 = VERTEX_POINT ( 'NONE', #364 ) ;
#324 = CYLINDRICAL_SURFACE ( 'NONE', #81, 1.000000000000000000 ) ;
#325 = LINE ( 'NONE', #10, #362 ) ;
#326 = VERTEX_POINT ( 'NONE', #23 ) ;
#327 = PLANE ( 'NONE',  #137 ) ;
#328 = CARTESIAN_POINT ( 'NONE',  ( 0.0000000000000000000, 0.0000000000000000000, 0.0000000000000000000 ) ) ;
#329 = DIRECTION ( 'NONE',  ( 0.0000000000000000000, 1.000000000000000000, 0.0000000000000000000 ) ) ;
#330 = EDGE_CURVE ( 'NONE', #149, #213, #235, .T. ) ;
#331 = DIRECTION ( 'NONE',  ( 0.0000000000000000000, -1.000000000000000000, -0.0000000000000000000 ) ) ;
#332 = FACE_OUTER_BOUND ( 'NONE', #211, .T. ) ;
#333 = LINE ( 'NONE', #334, #110 ) ;
#334 = CARTESIAN_POINT ( 'NONE',  ( 1.592040838891559100E-016, 0.0000000000000000000, 1.300000000000000000 ) ) ;
#335 = MECHANICAL_DESIGN_GEOMETRIC_PRESENTATION_REPRESENTATION (  '', ( #59 ), #355 ) ;
#336 = ORIENTED_EDGE ( 'NONE', *, *, #307, .T. ) ;
#337 = AXIS2_PLACEMENT_3D ( 'NONE', #73, #214, #296 ) ;
#338 = DIRECTION ( 'NONE',  ( 8.659560562354932900E-017, 0.7071067811865474600, -0.7071067811865474600 ) ) ;
#339 = CARTESIAN_POINT ( 'NONE',  ( 0.0000000000000000000, 0.4999999999999995600, 0.0000000000000000000 ) ) ;
#340 = CARTESIAN_POINT ( 'NONE',  ( 0.0000000000000000000, 0.4999999999999995600, 0.0000000000000000000 ) ) ;
#341 = CYLINDRICAL_SURFACE ( 'NONE', #262, 1.300000000000000000 ) ;
#342 = CIRCLE ( 'NONE', #314, 0.5999999999999999800 ) ;
#343 = ADVANCED_FACE ( 'NONE', ( #243 ), #33, .T. ) ;
#344 = CARTESIAN_POINT ( 'NONE',  ( 0.0000000000000000000, 0.0000000000000000000, 0.5000000000000004400 ) ) ;
#345 = ORIENTED_EDGE ( 'NONE', *, *, #51, .T. ) ;
#346 = ADVANCED_FACE ( 'NONE', ( #90 ), #194, .T. ) ;
#347 = DIRECTION ( 'NONE',  ( 1.000000000000000000, 0.0000000000000000000, 0.0000000000000000000 ) ) ;
#348 = DIRECTION ( 'NONE',  ( 0.0000000000000000000, 0.0000000000000000000, -1.000000000000000000 ) ) ;
#349 = EDGE_CURVE ( 'NONE', #120, #169, #134, .T. ) ;
#350 = ORIENTED_EDGE ( 'NONE', *, *, #128, .T. ) ;
#351 =( NAMED_UNIT ( * ) SI_UNIT ( $, .STERADIAN. ) SOLID_ANGLE_UNIT ( ) );
#352 = ORIENTED_EDGE ( 'NONE', *, *, #297, .F. ) ;
#353 = CYLINDRICAL_SURFACE ( 'NONE', #42, 1.000000000000000000 ) ;
#354 = ORIENTED_EDGE ( 'NONE', *, *, #97, .F. ) ;
#355 =( GEOMETRIC_REPRESENTATION_CONTEXT ( 3 ) GLOBAL_UNCERTAINTY_ASSIGNED_CONTEXT ( ( #83 ) ) GLOBAL_UNIT_ASSIGNED_CONTEXT ( ( #313, #17, #311 ) ) REPRESENTATION_CONTEXT ( 'NONE', 'WORKASPACE' ) );
#356 = DIRECTION ( 'NONE',  ( -0.0000000000000000000, -1.000000000000000000, -0.0000000000000000000 ) ) ;
#357 = ORIENTED_EDGE ( 'NONE', *, *, #297, .T. ) ;
#358 = DIRECTION ( 'NONE',  ( -0.0000000000000000000, -1.000000000000000000, -0.0000000000000000000 ) ) ;
#359 = DIRECTION ( 'NONE',  ( -0.0000000000000000000, -1.000000000000000000, -0.0000000000000000000 ) ) ;
#360 = EDGE_LOOP ( 'NONE', ( #352, #9, #92, #271 ) ) ;
#361 = DIRECTION ( 'NONE',  ( -1.000000000000000000, 0.0000000000000000000, 0.0000000000000000000 ) ) ;
#362 = VECTOR ( 'NONE', #216, 999.9999999999998900 ) ;
#363 = EDGE_LOOP ( 'NONE', ( #174, #345, #182, #316 ) ) ;
#364 = CARTESIAN_POINT ( 'NONE',  ( 1.224646799147353200E-016, 0.4999999999999995600, 1.000000000000000000 ) ) ;
#365 = CARTESIAN_POINT ( 'NONE',  ( 0.0000000000000000000, 7.000000000000000000, 0.0000000000000000000 ) ) ;
#366 = DIRECTION ( 'NONE',  ( 1.000000000000000000, -0.0000000000000000000, 1.224646799147353200E-016 ) ) ;
#367 = AXIS2_PLACEMENT_3D ( 'NONE', #154, #329, #71 ) ;
#368 = ORIENTED_EDGE ( 'NONE', *, *, #197, .F. ) ;
#369 = CARTESIAN_POINT ( 'NONE',  ( 6.123233995736772200E-017, 0.0000000000000000000, -0.5000000000000004400 ) ) ;
#370 = DIRECTION ( 'NONE',  ( 0.0000000000000000000, 0.7071067811865474600, 0.7071067811865474600 ) ) ;
#371 = CONICAL_SURFACE ( 'NONE', #237, 0.5000000000000004400, 0.7853981633974482800 ) ;
#372 = SURFACE_SIDE_STYLE ('',( #49 ) ) ;
ENDSEC;
END-ISO-10303-21;
