ISO-10303-21;
HEADER;
FILE_DESCRIPTION (( 'STEP AP214' ),
    '1' );
FILE_NAME ('33330~0.STEP',
    '2020-08-06T14:58:27',
    ( '' ),
    ( '' ),
    'SwSTEP 2.0',
    'SolidWorks 2018',
    '' );
FILE_SCHEMA (( 'AUTOMOTIVE_DESIGN' ));
ENDSEC;

DATA;
#1 = CARTESIAN_POINT ( 'NONE',  ( -1.203706215242022408E-32, -7.617704964536699208, 19.11732937493396278 ) ) ;
#2 = EDGE_LOOP ( 'NONE', ( #106, #175, #36, #13 ) ) ;
#3 = DIRECTION ( 'NONE',  ( 0.000000000000000000, -0.7853005310942124950, 0.6191147517731651062 ) ) ;
#4 = DIRECTION ( 'NONE',  ( 1.000000000000000000, -0.000000000000000000, -0.000000000000000000 ) ) ;
#5 = SURFACE_STYLE_USAGE ( .BOTH. , #178 ) ;
#6 = CARTESIAN_POINT ( 'NONE',  ( -1.203706215242022408E-32, -7.927262340423282261, 18.72467910938685520 ) ) ;
#7 = AXIS2_PLACEMENT_3D ( 'NONE', #37, #174, #208 ) ;
#8 = AXIS2_PLACEMENT_3D ( 'NONE', #145, #186, #27 ) ;
#9 = FACE_OUTER_BOUND ( 'NONE', #75, .T. ) ;
#10 = CIRCLE ( 'NONE', #132, 0.5000000000000000000 ) ;
#11 = EDGE_LOOP ( 'NONE', ( #189, #143 ) ) ;
#12 = CYLINDRICAL_SURFACE ( 'NONE', #19, 0.5000000000000000000 ) ;
#13 = ORIENTED_EDGE ( 'NONE', *, *, #33, .F. ) ;
#14 = DIRECTION ( 'NONE',  ( -4.208624005345203397E-17, -0.7853005310942123840, 0.6191147517731651062 ) ) ;
#15 = DIRECTION ( 'NONE',  ( 0.000000000000000000, -0.7853005310942124950, 0.6191147517731651062 ) ) ;
#16 = ORIENTED_EDGE ( 'NONE', *, *, #54, .F. ) ;
#17 = CARTESIAN_POINT ( 'NONE',  ( 6.123233995736766036E-17, -7.308147588650116155, 19.50997964048106681 ) ) ;
#18 = DIRECTION ( 'NONE',  ( 1.000000000000000000, 0.000000000000000000, -0.000000000000000000 ) ) ;
#19 = AXIS2_PLACEMENT_3D ( 'NONE', #97, #99, #168 ) ;
#20 = CARTESIAN_POINT ( 'NONE',  ( 0.000000000000000000, 0.000000000000000000, 0.000000000000000000 ) ) ;
#21 =( NAMED_UNIT ( * ) SI_UNIT ( $, .STERADIAN. ) SOLID_ANGLE_UNIT ( ) );
#22 = PRESENTATION_STYLE_ASSIGNMENT (( #49 ) ) ;
#23 = VECTOR ( 'NONE', #55, 1000.000000000000227 ) ;
#24 = AXIS2_PLACEMENT_3D ( 'NONE', #237, #30, #141 ) ;
#25 = FILL_AREA_STYLE ('',( #57 ) ) ;
#26 = FILL_AREA_STYLE_COLOUR ( '', #216 ) ;
#27 = DIRECTION ( 'NONE',  ( 1.000000000000000000, 0.000000000000000000, 0.000000000000000000 ) ) ;
#28 = VERTEX_POINT ( 'NONE', #207 ) ;
#29 = CARTESIAN_POINT ( 'NONE',  ( 0.000000000000000000, 0.000000000000000000, 0.000000000000000000 ) ) ;
#30 = DIRECTION ( 'NONE',  ( 0.000000000000000000, -0.7853005310942124950, 0.6191147517731651062 ) ) ;
#31 = CIRCLE ( 'NONE', #108, 0.5000000000000000000 ) ;
#32 = ORIENTED_EDGE ( 'NONE', *, *, #45, .T. ) ;
#33 = EDGE_CURVE ( 'NONE', #193, #34, #72, .T. ) ;
#34 = VERTEX_POINT ( 'NONE', #76 ) ;
#35 = PRESENTATION_STYLE_ASSIGNMENT (( #5 ) ) ;
#36 = ORIENTED_EDGE ( 'NONE', *, *, #173, .T. ) ;
#37 = CARTESIAN_POINT ( 'NONE',  ( -1.203706215242022408E-32, 8.162632772109964455E-32, 3.411318753049707109 ) ) ;
#38 = PRESENTATION_LAYER_ASSIGNMENT (  '', '', ( #43 ) ) ;
#39 = FACE_OUTER_BOUND ( 'NONE', #229, .T. ) ;
#40 = CARTESIAN_POINT ( 'NONE',  ( -1.203706215242022408E-32, -20.00000000000000355, 3.411318753049707109 ) ) ;
#41 = ORIENTED_EDGE ( 'NONE', *, *, #144, .F. ) ;
#42 = CARTESIAN_POINT ( 'NONE',  ( -1.203706215242022408E-32, -7.617704964536699208, 19.11732937493396278 ) ) ;
#43 = STYLED_ITEM ( 'NONE', ( #22 ), #116 ) ;
#44 = CARTESIAN_POINT ( 'NONE',  ( -2.103714974333399778E-16, -11.54309360585192934, 22.21202486800185127 ) ) ;
#45 = EDGE_CURVE ( 'NONE', #117, #193, #112, .T. ) ;
#46 = DIRECTION ( 'NONE',  ( 0.000000000000000000, 0.000000000000000000, -1.000000000000000000 ) ) ;
#47 = ORIENTED_EDGE ( 'NONE', *, *, #190, .F. ) ;
#48 = PRODUCT_CONTEXT ( 'NONE', #165, 'mechanical' ) ;
#49 = SURFACE_STYLE_USAGE ( .BOTH. , #62 ) ;
#50 = AXIS2_PLACEMENT_3D ( 'NONE', #93, #15, #111 ) ;
#51 = MECHANICAL_DESIGN_GEOMETRIC_PRESENTATION_REPRESENTATION (  '', ( #43 ), #150 ) ;
#52 = CYLINDRICAL_SURFACE ( 'NONE', #146, 0.5000000000000006661 ) ;
#53 = AXIS2_PLACEMENT_3D ( 'NONE', #1, #14, #226 ) ;
#54 = EDGE_CURVE ( 'NONE', #211, #28, #10, .T. ) ;
#55 = DIRECTION ( 'NONE',  ( -4.208624005345203397E-17, -0.7853005310942123840, 0.6191147517731651062 ) ) ;
#56 = DIRECTION ( 'NONE',  ( 1.000000000000000000, -0.000000000000000000, -0.000000000000000000 ) ) ;
#57 = FILL_AREA_STYLE_COLOUR ( '', #59 ) ;
#58 = DIRECTION ( 'NONE',  ( 0.000000000000000000, 0.000000000000000000, 1.000000000000000000 ) ) ;
#59 = COLOUR_RGB ( '',0.7529411764705882248, 0.7529411764705882248, 0.7529411764705882248 ) ;
#60 = ORIENTED_EDGE ( 'NONE', *, *, #173, .F. ) ;
#61 = ADVANCED_FACE ( 'NONE', ( #131 ), #92, .T. ) ;
#62 = SURFACE_SIDE_STYLE ('',( #135 ) ) ;
#63 =( NAMED_UNIT ( * ) PLANE_ANGLE_UNIT ( ) SI_UNIT ( $, .RADIAN. ) );
#64 = EDGE_LOOP ( 'NONE', ( #47, #169, #235, #69 ) ) ;
#65 = APPLICATION_PROTOCOL_DEFINITION ( 'draft international standard', 'automotive_design', 1998, #202 ) ;
#66 = VECTOR ( 'NONE', #217, 1000.000000000000227 ) ;
#67 = ORIENTED_EDGE ( 'NONE', *, *, #240, .F. ) ;
#68 = AXIS2_PLACEMENT_3D ( 'NONE', #118, #181, #18 ) ;
#69 = ORIENTED_EDGE ( 'NONE', *, *, #179, .F. ) ;
#70 = UNCERTAINTY_MEASURE_WITH_UNIT (LENGTH_MEASURE( 1.000000000000000082E-05 ), #238, 'distance_accuracy_value', 'NONE');
#71 = CIRCLE ( 'NONE', #24, 0.5000000000000000000 ) ;
#72 = CIRCLE ( 'NONE', #50, 0.5000000000000000000 ) ;
#73 = DIRECTION ( 'NONE',  ( 1.000000000000000000, 0.000000000000000000, 0.000000000000000000 ) ) ;
#74 = CARTESIAN_POINT ( 'NONE',  ( -2.103714974333399778E-16, -11.54309360585192934, 22.21202486800185127 ) ) ;
#75 = EDGE_LOOP ( 'NONE', ( #171, #177, #91, #67 ) ) ;
#76 = CARTESIAN_POINT ( 'NONE',  ( -2.103714974333400271E-16, -11.85265098173851328, 21.81937460245474369 ) ) ;
#77 = DIRECTION ( 'NONE',  ( 0.000000000000000000, -0.7853005310942124950, 0.6191147517731651062 ) ) ;
#78 = MECHANICAL_DESIGN_GEOMETRIC_PRESENTATION_REPRESENTATION (  '', ( #82 ), #105 ) ;
#79 = DIRECTION ( 'NONE',  ( 1.000000000000000000, 0.000000000000000000, 0.000000000000000000 ) ) ;
#80 = ORIENTED_EDGE ( 'NONE', *, *, #94, .T. ) ;
#81 = CARTESIAN_POINT ( 'NONE',  ( -1.491391574759723544E-16, -11.23353622996534540, 22.60467513354895885 ) ) ;
#82 = STYLED_ITEM ( 'NONE', ( #35 ), #161 ) ;
#83 = CARTESIAN_POINT ( 'NONE',  ( -6.018531076210113409E-33, 0.5000000000000000000, 0.000000000000000000 ) ) ;
#84 = EDGE_LOOP ( 'NONE', ( #110, #80, #41, #152 ) ) ;
#85 = LINE ( 'NONE', #234, #109 ) ;
#86 = ADVANCED_FACE ( 'NONE', ( #209 ), #204, .T. ) ;
#87 = ADVANCED_FACE ( 'NONE', ( #159 ), #138, .T. ) ;
#88 = AXIS2_PLACEMENT_3D ( 'NONE', #29, #101, #127 ) ;
#89 = CIRCLE ( 'NONE', #220, 0.5000000000000000000 ) ;
#90 = AXIS2_PLACEMENT_3D ( 'NONE', #42, #77, #100 ) ;
#91 = ORIENTED_EDGE ( 'NONE', *, *, #205, .T. ) ;
#92 = PLANE ( 'NONE',  #102 ) ;
#93 = CARTESIAN_POINT ( 'NONE',  ( -2.103714974333399778E-16, -11.54309360585192934, 22.21202486800185127 ) ) ;
#94 = EDGE_CURVE ( 'NONE', #124, #117, #133, .T. ) ;
#95 = CARTESIAN_POINT ( 'NONE',  ( 6.123233995736763571E-17, -0.5000000000000000000, 3.411318753049707109 ) ) ;
#96 = SURFACE_STYLE_FILL_AREA ( #25 ) ;
#97 = CARTESIAN_POINT ( 'NONE',  ( -1.203706215242022408E-32, 8.162632772109964455E-32, 3.411318753049707109 ) ) ;
#98 = AXIS2_PLACEMENT_3D ( 'NONE', #225, #192, #176 ) ;
#99 = DIRECTION ( 'NONE',  ( 3.528565643905053889E-33, -2.392808577273114788E-32, -1.000000000000000000 ) ) ;
#100 = DIRECTION ( 'NONE',  ( 1.000000000000000000, 0.000000000000000000, 0.000000000000000000 ) ) ;
#101 = DIRECTION ( 'NONE',  ( 0.000000000000000000, 0.000000000000000000, 1.000000000000000000 ) ) ;
#102 = AXIS2_PLACEMENT_3D ( 'NONE', #74, #3, #73 ) ;
#103 =( LENGTH_UNIT ( ) NAMED_UNIT ( * ) SI_UNIT ( .MILLI., .METRE. ) );
#104 = ADVANCED_FACE ( 'NONE', ( #39 ), #153, .T. ) ;
#105 =( GEOMETRIC_REPRESENTATION_CONTEXT ( 3 ) GLOBAL_UNCERTAINTY_ASSIGNED_CONTEXT ( ( #123 ) ) GLOBAL_UNIT_ASSIGNED_CONTEXT ( ( #163, #212, #21 ) ) REPRESENTATION_CONTEXT ( 'NONE', 'WORKASPACE' ) );
#106 = ORIENTED_EDGE ( 'NONE', *, *, #45, .F. ) ;
#107 = ADVANCED_FACE ( 'NONE', ( #206 ), #233, .F. ) ;
#108 = AXIS2_PLACEMENT_3D ( 'NONE', #214, #162, #199 ) ;
#109 = VECTOR ( 'NONE', #180, 1000.000000000000000 ) ;
#110 = ORIENTED_EDGE ( 'NONE', *, *, #190, .T. ) ;
#111 = DIRECTION ( 'NONE',  ( 1.000000000000000000, 0.000000000000000000, 0.000000000000000000 ) ) ;
#112 = LINE ( 'NONE', #210, #23 ) ;
#113 =( GEOMETRIC_REPRESENTATION_CONTEXT ( 3 ) GLOBAL_UNCERTAINTY_ASSIGNED_CONTEXT ( ( #70 ) ) GLOBAL_UNIT_ASSIGNED_CONTEXT ( ( #238, #120, #218 ) ) REPRESENTATION_CONTEXT ( 'NONE', 'WORKASPACE' ) );
#114 = DIRECTION ( 'NONE',  ( 0.000000000000000000, 0.000000000000000000, -1.000000000000000000 ) ) ;
#115 = PRODUCT_DEFINITION ( 'UNKNOWN', '', #182, #195 ) ;
#116 = ADVANCED_BREP_SHAPE_REPRESENTATION ( '33330~0', ( #161, #88 ), #113 ) ;
#117 = VERTEX_POINT ( 'NONE', #17 ) ;
#118 = CARTESIAN_POINT ( 'NONE',  ( 0.000000000000000000, 0.000000000000000000, 0.000000000000000000 ) ) ;
#119 = ADVANCED_FACE ( 'NONE', ( #149 ), #52, .T. ) ;
#120 =( NAMED_UNIT ( * ) PLANE_ANGLE_UNIT ( ) SI_UNIT ( $, .RADIAN. ) );
#121 = PRODUCT ( '33330~0', '33330~0', '', ( #48 ) ) ;
#122 = APPLICATION_PROTOCOL_DEFINITION ( 'draft international standard', 'automotive_design', 1998, #165 ) ;
#123 = UNCERTAINTY_MEASURE_WITH_UNIT (LENGTH_MEASURE( 1.000000000000000082E-05 ), #163, 'distance_accuracy_value', 'NONE');
#124 = VERTEX_POINT ( 'NONE', #183 ) ;
#125 = CARTESIAN_POINT ( 'NONE',  ( -6.123233995736767268E-17, -20.00000000000000355, 3.411318753049707109 ) ) ;
#126 = EDGE_CURVE ( 'NONE', #28, #211, #89, .T. ) ;
#127 = DIRECTION ( 'NONE',  ( 1.000000000000000000, 0.000000000000000000, 0.000000000000000000 ) ) ;
#128 =( NAMED_UNIT ( * ) SI_UNIT ( $, .STERADIAN. ) SOLID_ANGLE_UNIT ( ) );
#129 = AXIS2_PLACEMENT_3D ( 'NONE', #44, #198, #79 ) ;
#130 = VECTOR ( 'NONE', #140, 1000.000000000000000 ) ;
#131 = FACE_OUTER_BOUND ( 'NONE', #11, .T. ) ;
#132 = AXIS2_PLACEMENT_3D ( 'NONE', #228, #157, #154 ) ;
#133 = CIRCLE ( 'NONE', #203, 20.50000000000000355 ) ;
#134 = ORIENTED_EDGE ( 'NONE', *, *, #54, .T. ) ;
#135 = SURFACE_STYLE_FILL_AREA ( #147 ) ;
#136 = ORIENTED_EDGE ( 'NONE', *, *, #170, .F. ) ;
#137 = CARTESIAN_POINT ( 'NONE',  ( -1.203706215242022408E-32, -20.00000000000000355, 3.411318753049707109 ) ) ;
#138 = CYLINDRICAL_SURFACE ( 'NONE', #7, 0.5000000000000000000 ) ;
#139 = EDGE_LOOP ( 'NONE', ( #16, #219 ) ) ;
#140 = DIRECTION ( 'NONE',  ( 3.528565643905053889E-33, -2.392808577273114788E-32, -1.000000000000000000 ) ) ;
#141 = DIRECTION ( 'NONE',  ( 1.000000000000000000, 0.000000000000000000, 0.000000000000000000 ) ) ;
#142 = DIRECTION ( 'NONE',  ( 1.000000000000000000, -0.000000000000000000, -0.000000000000000000 ) ) ;
#143 = ORIENTED_EDGE ( 'NONE', *, *, #33, .T. ) ;
#144 = EDGE_CURVE ( 'NONE', #222, #117, #241, .T. ) ;
#145 = CARTESIAN_POINT ( 'NONE',  ( -1.203706215242022408E-32, 8.162632772109964455E-32, 3.411318753049707109 ) ) ;
#146 = AXIS2_PLACEMENT_3D ( 'NONE', #158, #194, #230 ) ;
#147 = FILL_AREA_STYLE ('',( #26 ) ) ;
#148 = SHAPE_DEFINITION_REPRESENTATION ( #227, #116 ) ;
#149 = FACE_OUTER_BOUND ( 'NONE', #2, .T. ) ;
#150 =( GEOMETRIC_REPRESENTATION_CONTEXT ( 3 ) GLOBAL_UNCERTAINTY_ASSIGNED_CONTEXT ( ( #151 ) ) GLOBAL_UNIT_ASSIGNED_CONTEXT ( ( #103, #63, #128 ) ) REPRESENTATION_CONTEXT ( 'NONE', 'WORKASPACE' ) );
#151 = UNCERTAINTY_MEASURE_WITH_UNIT (LENGTH_MEASURE( 1.000000000000000082E-05 ), #103, 'distance_accuracy_value', 'NONE');
#152 = ORIENTED_EDGE ( 'NONE', *, *, #205, .F. ) ;
#153 = CYLINDRICAL_SURFACE ( 'NONE', #53, 0.5000000000000006661 ) ;
#154 = DIRECTION ( 'NONE',  ( 1.000000000000000000, 0.000000000000000000, 0.000000000000000000 ) ) ;
#155 = CIRCLE ( 'NONE', #242, 19.50000000000000355 ) ;
#156 = ORIENTED_EDGE ( 'NONE', *, *, #179, .T. ) ;
#157 = DIRECTION ( 'NONE',  ( 0.000000000000000000, 0.000000000000000000, 1.000000000000000000 ) ) ;
#158 = CARTESIAN_POINT ( 'NONE',  ( -1.203706215242022408E-32, -7.617704964536699208, 19.11732937493396278 ) ) ;
#159 = FACE_OUTER_BOUND ( 'NONE', #64, .T. ) ;
#160 = DIRECTION ( 'NONE',  ( 1.000000000000000000, 0.000000000000000000, 0.000000000000000000 ) ) ;
#161 = MANIFOLD_SOLID_BREP ( 'Austragung1', #224 ) ;
#162 = DIRECTION ( 'NONE',  ( 0.000000000000000000, 0.000000000000000000, 1.000000000000000000 ) ) ;
#163 =( LENGTH_UNIT ( ) NAMED_UNIT ( * ) SI_UNIT ( .MILLI., .METRE. ) );
#164 = ORIENTED_EDGE ( 'NONE', *, *, #213, .F. ) ;
#165 = APPLICATION_CONTEXT ( 'automotive_design' ) ;
#166 = ADVANCED_FACE ( 'NONE', ( #9 ), #188, .T. ) ;
#167 = ORIENTED_EDGE ( 'NONE', *, *, #144, .T. ) ;
#168 = DIRECTION ( 'NONE',  ( 0.000000000000000000, 1.000000000000000000, 0.000000000000000000 ) ) ;
#169 = ORIENTED_EDGE ( 'NONE', *, *, #170, .T. ) ;
#170 = EDGE_CURVE ( 'NONE', #200, #28, #191, .T. ) ;
#171 = ORIENTED_EDGE ( 'NONE', *, *, #94, .F. ) ;
#172 = PRODUCT_RELATED_PRODUCT_CATEGORY ( 'part', '', ( #121 ) ) ;
#173 = EDGE_CURVE ( 'NONE', #222, #34, #239, .T. ) ;
#174 = DIRECTION ( 'NONE',  ( 3.528565643905053889E-33, -2.392808577273114788E-32, -1.000000000000000000 ) ) ;
#175 = ORIENTED_EDGE ( 'NONE', *, *, #240, .T. ) ;
#176 = DIRECTION ( 'NONE',  ( 0.000000000000000000, 0.000000000000000000, -1.000000000000000000 ) ) ;
#177 = ORIENTED_EDGE ( 'NONE', *, *, #213, .T. ) ;
#178 = SURFACE_SIDE_STYLE ('',( #96 ) ) ;
#179 = EDGE_CURVE ( 'NONE', #124, #211, #85, .T. ) ;
#180 = DIRECTION ( 'NONE',  ( 3.528565643905053889E-33, -2.392808577273114788E-32, -1.000000000000000000 ) ) ;
#181 = DIRECTION ( 'NONE',  ( 0.000000000000000000, 0.000000000000000000, 1.000000000000000000 ) ) ;
#182 = PRODUCT_DEFINITION_FORMATION_WITH_SPECIFIED_SOURCE ( 'ANY', '', #121, .NOT_KNOWN. ) ;
#183 = CARTESIAN_POINT ( 'NONE',  ( -6.018531076210113409E-33, 0.5000000000000000000, 3.411318753049707109 ) ) ;
#184 = DIRECTION ( 'NONE',  ( 0.000000000000000000, 0.000000000000000000, -1.000000000000000000 ) ) ;
#185 = EDGE_LOOP ( 'NONE', ( #136, #164, #156, #134 ) ) ;
#186 = DIRECTION ( 'NONE',  ( 0.000000000000000000, 0.000000000000000000, 1.000000000000000000 ) ) ;
#187 = CIRCLE ( 'NONE', #8, 0.5000000000000000000 ) ;
#188 = TOROIDAL_SURFACE ( 'NONE', #232, 20.00000000000000355, 0.5000000000000000000 ) ;
#189 = ORIENTED_EDGE ( 'NONE', *, *, #201, .T. ) ;
#190 = EDGE_CURVE ( 'NONE', #200, #124, #31, .T. ) ;
#191 = LINE ( 'NONE', #95, #130 ) ;
#192 = DIRECTION ( 'NONE',  ( 1.000000000000000000, -0.000000000000000000, -0.000000000000000000 ) ) ;
#193 = VERTEX_POINT ( 'NONE', #81 ) ;
#194 = DIRECTION ( 'NONE',  ( -4.208624005345203397E-17, -0.7853005310942123840, 0.6191147517731651062 ) ) ;
#195 = PRODUCT_DEFINITION_CONTEXT ( 'detailed design', #202, 'design' ) ;
#196 = CARTESIAN_POINT ( 'NONE',  ( 6.123233995736764803E-17, -0.5000000000000000000, 3.411318753049707109 ) ) ;
#197 = FACE_OUTER_BOUND ( 'NONE', #185, .T. ) ;
#198 = DIRECTION ( 'NONE',  ( 0.000000000000000000, -0.7853005310942124950, 0.6191147517731651062 ) ) ;
#199 = DIRECTION ( 'NONE',  ( 1.000000000000000000, 0.000000000000000000, 0.000000000000000000 ) ) ;
#200 = VERTEX_POINT ( 'NONE', #196 ) ;
#201 = EDGE_CURVE ( 'NONE', #34, #193, #223, .T. ) ;
#202 = APPLICATION_CONTEXT ( 'automotive_design' ) ;
#203 = AXIS2_PLACEMENT_3D ( 'NONE', #40, #56, #114 ) ;
#204 = TOROIDAL_SURFACE ( 'NONE', #98, 20.00000000000000355, 0.5000000000000000000 ) ;
#205 = EDGE_CURVE ( 'NONE', #200, #222, #155, .T. ) ;
#206 = FACE_OUTER_BOUND ( 'NONE', #139, .T. ) ;
#207 = CARTESIAN_POINT ( 'NONE',  ( 6.123233995736764803E-17, -0.5000000000000000000, 0.000000000000000000 ) ) ;
#208 = DIRECTION ( 'NONE',  ( 0.000000000000000000, 1.000000000000000000, 0.000000000000000000 ) ) ;
#209 = FACE_OUTER_BOUND ( 'NONE', #84, .T. ) ;
#210 = CARTESIAN_POINT ( 'NONE',  ( 6.123233995736764803E-17, -7.308147588650116155, 19.50997964048106681 ) ) ;
#211 = VERTEX_POINT ( 'NONE', #83 ) ;
#212 =( NAMED_UNIT ( * ) PLANE_ANGLE_UNIT ( ) SI_UNIT ( $, .RADIAN. ) );
#213 = EDGE_CURVE ( 'NONE', #124, #200, #187, .T. ) ;
#214 = CARTESIAN_POINT ( 'NONE',  ( -1.203706215242022408E-32, 8.162632772109964455E-32, 3.411318753049707109 ) ) ;
#215 = PRESENTATION_LAYER_ASSIGNMENT (  '', '', ( #82 ) ) ;
#216 = COLOUR_RGB ( '',0.7529411764705882248, 0.7529411764705882248, 0.7529411764705882248 ) ;
#217 = DIRECTION ( 'NONE',  ( -4.208624005345203397E-17, -0.7853005310942123840, 0.6191147517731651062 ) ) ;
#218 =( NAMED_UNIT ( * ) SI_UNIT ( $, .STERADIAN. ) SOLID_ANGLE_UNIT ( ) );
#219 = ORIENTED_EDGE ( 'NONE', *, *, #126, .F. ) ;
#220 = AXIS2_PLACEMENT_3D ( 'NONE', #20, #58, #160 ) ;
#221 = ADVANCED_FACE ( 'NONE', ( #197 ), #12, .T. ) ;
#222 = VERTEX_POINT ( 'NONE', #236 ) ;
#223 = CIRCLE ( 'NONE', #129, 0.5000000000000000000 ) ;
#224 = CLOSED_SHELL ( 'NONE', ( #86, #87, #104, #119, #166, #221, #61, #107 ) ) ;
#225 = CARTESIAN_POINT ( 'NONE',  ( -1.203706215242022408E-32, -20.00000000000000355, 3.411318753049707109 ) ) ;
#226 = DIRECTION ( 'NONE',  ( 0.000000000000000000, -0.6191147517731659944, -0.7853005310942119399 ) ) ;
#227 = PRODUCT_DEFINITION_SHAPE ( 'NONE', 'NONE',  #115 ) ;
#228 = CARTESIAN_POINT ( 'NONE',  ( 0.000000000000000000, 0.000000000000000000, 0.000000000000000000 ) ) ;
#229 = EDGE_LOOP ( 'NONE', ( #167, #32, #231, #60 ) ) ;
#230 = DIRECTION ( 'NONE',  ( 0.000000000000000000, -0.6191147517731659944, -0.7853005310942119399 ) ) ;
#231 = ORIENTED_EDGE ( 'NONE', *, *, #201, .F. ) ;
#232 = AXIS2_PLACEMENT_3D ( 'NONE', #137, #4, #46 ) ;
#233 = PLANE ( 'NONE',  #68 ) ;
#234 = CARTESIAN_POINT ( 'NONE',  ( -1.203706215242022408E-32, 0.5000000000000000000, 3.411318753049707109 ) ) ;
#235 = ORIENTED_EDGE ( 'NONE', *, *, #126, .T. ) ;
#236 = CARTESIAN_POINT ( 'NONE',  ( 9.637184473986874867E-33, -7.927262340423282261, 18.72467910938685520 ) ) ;
#237 = CARTESIAN_POINT ( 'NONE',  ( -1.203706215242022408E-32, -7.617704964536699208, 19.11732937493396278 ) ) ;
#238 =( LENGTH_UNIT ( ) NAMED_UNIT ( * ) SI_UNIT ( .MILLI., .METRE. ) );
#239 = LINE ( 'NONE', #6, #66 ) ;
#240 = EDGE_CURVE ( 'NONE', #117, #222, #71, .T. ) ;
#241 = CIRCLE ( 'NONE', #90, 0.5000000000000000000 ) ;
#242 = AXIS2_PLACEMENT_3D ( 'NONE', #125, #142, #184 ) ;
ENDSEC;
END-ISO-10303-21;
