ISO-10303-21;
HEADER;
FILE_DESCRIPTION (( 'STEP AP214' ),
    '1' );
FILE_NAME ('38891~0.STEP',
    '2017-07-04T09:03:22',
    ( '' ),
    ( '' ),
    'SwSTEP 2.0',
    'SolidWorks 2016',
    '' );
FILE_SCHEMA (( 'AUTOMOTIVE_DESIGN' ));
ENDSEC;

DATA;
#1 = EDGE_CURVE ( 'NONE', #75, #222, #81, .T. ) ;
#2 = ADVANCED_BREP_SHAPE_REPRESENTATION ( '38891~0', ( #80, #339 ), #179 ) ;
#3 = DIRECTION ( 'NONE',  ( -0.0000000000000000000, -1.000000000000000000, -0.0000000000000000000 ) ) ;
#4 = CONICAL_SURFACE ( 'NONE', #333, 0.4999999999999970000, 0.7853981633974466100 ) ;
#5 = EDGE_LOOP ( 'NONE', ( #259, #241, #50, #326 ) ) ;
#6 = DIRECTION ( 'NONE',  ( -1.000000000000000000, 0.0000000000000000000, 0.0000000000000000000 ) ) ;
#7 = PRODUCT_DEFINITION ( 'UNKNOWN', '', #40, #203 ) ;
#8 = ORIENTED_EDGE ( 'NONE', *, *, #269, .T. ) ;
#9 = DIRECTION ( 'NONE',  ( 0.0000000000000000000, 0.0000000000000000000, -1.000000000000000000 ) ) ;
#10 = UNCERTAINTY_MEASURE_WITH_UNIT (LENGTH_MEASURE( 1.000000000000000100E-005 ), #230, 'distance_accuracy_value', 'NONE');
#11 = DIRECTION ( 'NONE',  ( 0.0000000000000000000, 0.0000000000000000000, -1.000000000000000000 ) ) ;
#12 = CARTESIAN_POINT ( 'NONE',  ( 0.0000000000000000000, 0.0000000000000000000, 0.0000000000000000000 ) ) ;
#13 = DIRECTION ( 'NONE',  ( 0.0000000000000000000, 1.000000000000000000, 0.0000000000000000000 ) ) ;
#14 = CIRCLE ( 'NONE', #250, 0.6000000000000000900 ) ;
#15 = ADVANCED_FACE ( 'NONE', ( #23 ), #210, .T. ) ;
#16 = ORIENTED_EDGE ( 'NONE', *, *, #104, .F. ) ;
#17 = CARTESIAN_POINT ( 'NONE',  ( 2.204364238465235600E-016, 0.0000000000000000000, 1.800000000000000000 ) ) ;
#18 = MECHANICAL_DESIGN_GEOMETRIC_PRESENTATION_REPRESENTATION (  '', ( #304 ), #313 ) ;
#19 = FILL_AREA_STYLE ('',( #154 ) ) ;
#20 = ORIENTED_EDGE ( 'NONE', *, *, #235, .F. ) ;
#21 = CARTESIAN_POINT ( 'NONE',  ( 0.0000000000000000000, 0.0000000000000000000, 0.0000000000000000000 ) ) ;
#22 = EDGE_CURVE ( 'NONE', #222, #75, #330, .T. ) ;
#23 = FACE_OUTER_BOUND ( 'NONE', #205, .T. ) ;
#24 = CARTESIAN_POINT ( 'NONE',  ( 1.224646799147353200E-016, 0.5000000000000047700, 1.000000000000000000 ) ) ;
#25 = EDGE_LOOP ( 'NONE', ( #112, #370, #363, #212 ) ) ;
#26 = VERTEX_POINT ( 'NONE', #161 ) ;
#27 = AXIS2_PLACEMENT_3D ( 'NONE', #237, #266, #90 ) ;
#28 = COLOUR_RGB ( '',0.7529411764705882200, 0.7529411764705882200, 0.7529411764705882200 ) ;
#29 = EDGE_LOOP ( 'NONE', ( #331, #142, #158, #191 ) ) ;
#30 = CARTESIAN_POINT ( 'NONE',  ( 0.0000000000000000000, 0.0000000000000000000, 0.4999999999999970000 ) ) ;
#31 = DIRECTION ( 'NONE',  ( 0.0000000000000000000, 1.000000000000000000, 0.0000000000000000000 ) ) ;
#32 = AXIS2_PLACEMENT_3D ( 'NONE', #196, #111, #260 ) ;
#33 = DIRECTION ( 'NONE',  ( -0.0000000000000000000, -1.000000000000000000, -0.0000000000000000000 ) ) ;
#34 = VECTOR ( 'NONE', #156, 1000.000000000000000 ) ;
#35 = CLOSED_SHELL ( 'NONE', ( #66, #245, #267, #321, #318, #355, #121, #39, #149, #15, #273, #216, #175 ) ) ;
#36 = DIRECTION ( 'NONE',  ( 0.0000000000000000000, 0.0000000000000000000, -1.000000000000000000 ) ) ;
#37 = DIRECTION ( 'NONE',  ( 0.0000000000000000000, 0.0000000000000000000, -1.000000000000000000 ) ) ;
#38 = CARTESIAN_POINT ( 'NONE',  ( 0.0000000000000000000, 13.00000000000000200, 0.0000000000000000000 ) ) ;
#39 = ADVANCED_FACE ( 'NONE', ( #134 ), #315, .T. ) ;
#40 = PRODUCT_DEFINITION_FORMATION_WITH_SPECIFIED_SOURCE ( 'ANY', '', #303, .NOT_KNOWN. ) ;
#41 = SURFACE_STYLE_FILL_AREA ( #19 ) ;
#42 = DIRECTION ( 'NONE',  ( 0.0000000000000000000, -1.000000000000000000, -0.0000000000000000000 ) ) ;
#43 = VERTEX_POINT ( 'NONE', #82 ) ;
#44 = DIRECTION ( 'NONE',  ( 0.0000000000000000000, 1.000000000000000000, 0.0000000000000000000 ) ) ;
#45 =( LENGTH_UNIT ( ) NAMED_UNIT ( * ) SI_UNIT ( .MILLI., .METRE. ) );
#46 = LINE ( 'NONE', #348, #186 ) ;
#47 = VECTOR ( 'NONE', #292, 999.9999999999998900 ) ;
#48 =( NAMED_UNIT ( * ) SI_UNIT ( $, .STERADIAN. ) SOLID_ANGLE_UNIT ( ) );
#49 = UNCERTAINTY_MEASURE_WITH_UNIT (LENGTH_MEASURE( 1.000000000000000100E-005 ), #45, 'distance_accuracy_value', 'NONE');
#50 = ORIENTED_EDGE ( 'NONE', *, *, #255, .T. ) ;
#51 = CIRCLE ( 'NONE', #62, 0.4999999999999970000 ) ;
#52 = VERTEX_POINT ( 'NONE', #372 ) ;
#53 = CARTESIAN_POINT ( 'NONE',  ( 0.0000000000000000000, 0.0000000000000000000, -1.000000000000000000 ) ) ;
#54 = CARTESIAN_POINT ( 'NONE',  ( 0.0000000000000000000, 6.999999999999999100, 0.0000000000000000000 ) ) ;
#55 = CARTESIAN_POINT ( 'NONE',  ( 0.0000000000000000000, 13.69999999999999900, 0.0000000000000000000 ) ) ;
#56 = FACE_OUTER_BOUND ( 'NONE', #64, .T. ) ;
#57 = ORIENTED_EDGE ( 'NONE', *, *, #215, .F. ) ;
#58 =( NAMED_UNIT ( * ) PLANE_ANGLE_UNIT ( ) SI_UNIT ( $, .RADIAN. ) );
#59 = DIRECTION ( 'NONE',  ( -0.0000000000000000000, -1.000000000000000000, -0.0000000000000000000 ) ) ;
#60 = VECTOR ( 'NONE', #3, 1000.000000000000000 ) ;
#61 = DIRECTION ( 'NONE',  ( 0.0000000000000000000, 0.7071067811865487900, 0.7071067811865463500 ) ) ;
#62 = AXIS2_PLACEMENT_3D ( 'NONE', #270, #213, #9 ) ;
#63 = DIRECTION ( 'NONE',  ( 0.0000000000000000000, 0.0000000000000000000, -1.000000000000000000 ) ) ;
#64 = EDGE_LOOP ( 'NONE', ( #336, #102, #91, #252 ) ) ;
#65 = ORIENTED_EDGE ( 'NONE', *, *, #104, .T. ) ;
#66 = ADVANCED_FACE ( 'NONE', ( #162 ), #130, .T. ) ;
#67 = DIRECTION ( 'NONE',  ( -0.0000000000000000000, -1.000000000000000000, -0.0000000000000000000 ) ) ;
#68 = DIRECTION ( 'NONE',  ( -0.0000000000000000000, -1.000000000000000000, -0.0000000000000000000 ) ) ;
#69 = DIRECTION ( 'NONE',  ( 0.0000000000000000000, 0.0000000000000000000, 1.000000000000000000 ) ) ;
#70 = CIRCLE ( 'NONE', #360, 1.395854811567261300 ) ;
#71 = DIRECTION ( 'NONE',  ( 0.0000000000000000000, 0.0000000000000000000, -1.000000000000000000 ) ) ;
#72 = DIRECTION ( 'NONE',  ( 0.0000000000000000000, 0.0000000000000000000, -1.000000000000000000 ) ) ;
#73 = EDGE_CURVE ( 'NONE', #199, #52, #290, .T. ) ;
#74 = VERTEX_POINT ( 'NONE', #84 ) ;
#75 = VERTEX_POINT ( 'NONE', #343 ) ;
#76 = PRESENTATION_LAYER_ASSIGNMENT (  '', '', ( #188 ) ) ;
#77 = DIRECTION ( 'NONE',  ( 0.0000000000000000000, 0.0000000000000000000, -1.000000000000000000 ) ) ;
#78 = VECTOR ( 'NONE', #247, 1000.000000000000000 ) ;
#79 = VERTEX_POINT ( 'NONE', #342 ) ;
#80 = MANIFOLD_SOLID_BREP ( 'Verrundung1', #35 ) ;
#81 = CIRCLE ( 'NONE', #132, 1.000000000000000000 ) ;
#82 = CARTESIAN_POINT ( 'NONE',  ( 0.0000000000000000000, 13.00000000000000200, -1.800000000000000000 ) ) ;
#83 = EDGE_CURVE ( 'NONE', #52, #26, #362, .T. ) ;
#84 = CARTESIAN_POINT ( 'NONE',  ( 0.0000000000000000000, 13.99999999999999800, 0.8762395692965991900 ) ) ;
#85 = COLOUR_RGB ( '',0.7529411764705882200, 0.7529411764705882200, 0.7529411764705882200 ) ;
#86 = DIRECTION ( 'NONE',  ( 0.0000000000000000000, 1.000000000000000000, 0.0000000000000000000 ) ) ;
#87 = EDGE_CURVE ( 'NONE', #101, #79, #334, .T. ) ;
#88 = DIRECTION ( 'NONE',  ( 0.0000000000000000000, 0.0000000000000000000, 1.000000000000000000 ) ) ;
#89 = AXIS2_PLACEMENT_3D ( 'NONE', #128, #68, #37 ) ;
#90 = DIRECTION ( 'NONE',  ( 0.0000000000000000000, 0.0000000000000000000, -1.000000000000000000 ) ) ;
#91 = ORIENTED_EDGE ( 'NONE', *, *, #166, .F. ) ;
#92 = ORIENTED_EDGE ( 'NONE', *, *, #235, .T. ) ;
#93 =( LENGTH_UNIT ( ) NAMED_UNIT ( * ) SI_UNIT ( .MILLI., .METRE. ) );
#94 = AXIS2_PLACEMENT_3D ( 'NONE', #352, #264, #36 ) ;
#95 = CARTESIAN_POINT ( 'NONE',  ( 0.0000000000000000000, 0.0000000000000000000, 0.0000000000000000000 ) ) ;
#96 = VECTOR ( 'NONE', #122, 1000.000000000000000 ) ;
#97 = EDGE_CURVE ( 'NONE', #345, #74, #176, .T. ) ;
#98 = PLANE ( 'NONE',  #169 ) ;
#99 = APPLICATION_PROTOCOL_DEFINITION ( 'draft international standard', 'automotive_design', 1998, #278 ) ;
#100 = CIRCLE ( 'NONE', #329, 1.800000000000000000 ) ;
#101 = VERTEX_POINT ( 'NONE', #24 ) ;
#102 = ORIENTED_EDGE ( 'NONE', *, *, #83, .T. ) ;
#103 = PRESENTATION_LAYER_ASSIGNMENT (  '', '', ( #304 ) ) ;
#104 = EDGE_CURVE ( 'NONE', #79, #101, #356, .T. ) ;
#105 = CYLINDRICAL_SURFACE ( 'NONE', #159, 1.000000000000000000 ) ;
#106 = EDGE_CURVE ( 'NONE', #222, #79, #234, .T. ) ;
#107 = CARTESIAN_POINT ( 'NONE',  ( 0.0000000000000000000, 0.0000000000000000000, 0.0000000000000000000 ) ) ;
#108 = FACE_OUTER_BOUND ( 'NONE', #236, .T. ) ;
#109 = PRESENTATION_STYLE_ASSIGNMENT (( #197 ) ) ;
#110 = ORIENTED_EDGE ( 'NONE', *, *, #323, .T. ) ;
#111 = DIRECTION ( 'NONE',  ( 0.0000000000000000000, 1.000000000000000000, 0.0000000000000000000 ) ) ;
#112 = ORIENTED_EDGE ( 'NONE', *, *, #166, .T. ) ;
#113 = EDGE_CURVE ( 'NONE', #52, #199, #70, .T. ) ;
#114 = DIRECTION ( 'NONE',  ( 0.0000000000000000000, -0.8660254037844380400, -0.5000000000000012200 ) ) ;
#115 = DIRECTION ( 'NONE',  ( 0.0000000000000000000, 1.000000000000000000, 0.0000000000000000000 ) ) ;
#116 = DIRECTION ( 'NONE',  ( 0.0000000000000000000, 1.000000000000000000, 0.0000000000000000000 ) ) ;
#117 = CIRCLE ( 'NONE', #153, 1.800000000000000000 ) ;
#118 = ORIENTED_EDGE ( 'NONE', *, *, #146, .T. ) ;
#119 = ORIENTED_EDGE ( 'NONE', *, *, #22, .F. ) ;
#120 = DIRECTION ( 'NONE',  ( 0.0000000000000000000, 0.0000000000000000000, -1.000000000000000000 ) ) ;
#121 = ADVANCED_FACE ( 'NONE', ( #171 ), #309, .T. ) ;
#122 = DIRECTION ( 'NONE',  ( -0.0000000000000000000, -1.000000000000000000, -0.0000000000000000000 ) ) ;
#123 = PLANE ( 'NONE',  #288 ) ;
#124 = EDGE_CURVE ( 'NONE', #199, #345, #14, .T. ) ;
#125 = LINE ( 'NONE', #242, #34 ) ;
#126 = CARTESIAN_POINT ( 'NONE',  ( 0.0000000000000000000, 7.000000000000000000, 0.0000000000000000000 ) ) ;
#127 = CARTESIAN_POINT ( 'NONE',  ( 9.184850993605129900E-017, 0.0000000000000000000, -0.4999999999999970000 ) ) ;
#128 = CARTESIAN_POINT ( 'NONE',  ( 0.0000000000000000000, 0.0000000000000000000, 0.0000000000000000000 ) ) ;
#129 = CIRCLE ( 'NONE', #226, 0.4999999999999970000 ) ;
#130 = TOROIDAL_SURFACE ( 'NONE', #366, 0.8762395692965991900, 0.5999999999999999800 ) ;
#131 = ORIENTED_EDGE ( 'NONE', *, *, #113, .F. ) ;
#132 = AXIS2_PLACEMENT_3D ( 'NONE', #337, #139, #72 ) ;
#133 = DIRECTION ( 'NONE',  ( 0.0000000000000000000, 0.0000000000000000000, 1.000000000000000000 ) ) ;
#134 = FACE_OUTER_BOUND ( 'NONE', #5, .T. ) ;
#135 = EDGE_LOOP ( 'NONE', ( #302, #310, #298, #187 ) ) ;
#136 = AXIS2_PLACEMENT_3D ( 'NONE', #322, #6, #206 ) ;
#137 = TOROIDAL_SURFACE ( 'NONE', #207, 0.8762395692965991900, 0.5999999999999999800 ) ;
#138 = ORIENTED_EDGE ( 'NONE', *, *, #113, .T. ) ;
#139 = DIRECTION ( 'NONE',  ( -0.0000000000000000000, -1.000000000000000000, -0.0000000000000000000 ) ) ;
#140 = DIRECTION ( 'NONE',  ( 0.0000000000000000000, 0.0000000000000000000, -1.000000000000000000 ) ) ;
#141 = AXIS2_PLACEMENT_3D ( 'NONE', #368, #144, #367 ) ;
#142 = ORIENTED_EDGE ( 'NONE', *, *, #328, .T. ) ;
#143 = VERTEX_POINT ( 'NONE', #30 ) ;
#144 = DIRECTION ( 'NONE',  ( 0.0000000000000000000, 1.000000000000000000, 0.0000000000000000000 ) ) ;
#145 = CARTESIAN_POINT ( 'NONE',  ( 2.204364238465235600E-016, 7.000000000000000000, 1.800000000000000000 ) ) ;
#146 = EDGE_CURVE ( 'NONE', #143, #101, #46, .T. ) ;
#147 = CARTESIAN_POINT ( 'NONE',  ( 1.073083983825335700E-016, 13.39999999999999900, -0.8762395692965991900 ) ) ;
#148 = AXIS2_PLACEMENT_3D ( 'NONE', #317, #116, #202 ) ;
#149 = ADVANCED_FACE ( 'NONE', ( #262, #198 ), #240, .T. ) ;
#150 = CARTESIAN_POINT ( 'NONE',  ( 0.0000000000000000000, 13.69999999999999900, 0.0000000000000000000 ) ) ;
#151 = ORIENTED_EDGE ( 'NONE', *, *, #124, .F. ) ;
#152 = ORIENTED_EDGE ( 'NONE', *, *, #83, .F. ) ;
#153 = AXIS2_PLACEMENT_3D ( 'NONE', #239, #295, #319 ) ;
#154 = FILL_AREA_STYLE_COLOUR ( '', #28 ) ;
#155 = LINE ( 'NONE', #354, #96 ) ;
#156 = DIRECTION ( 'NONE',  ( 8.659560562354919300E-017, 0.7071067811865487900, -0.7071067811865463500 ) ) ;
#157 = ORIENTED_EDGE ( 'NONE', *, *, #328, .F. ) ;
#158 = ORIENTED_EDGE ( 'NONE', *, *, #87, .F. ) ;
#159 = AXIS2_PLACEMENT_3D ( 'NONE', #201, #33, #120 ) ;
#160 = APPLICATION_CONTEXT ( 'automotive_design' ) ;
#161 = CARTESIAN_POINT ( 'NONE',  ( 2.204364238465235600E-016, 13.00000000000000200, 1.800000000000000000 ) ) ;
#162 = FACE_OUTER_BOUND ( 'NONE', #306, .T. ) ;
#163 =( NAMED_UNIT ( * ) SI_UNIT ( $, .STERADIAN. ) SOLID_ANGLE_UNIT ( ) );
#164 = CARTESIAN_POINT ( 'NONE',  ( 2.204364238465235600E-016, 13.00000000000000200, 1.800000000000000000 ) ) ;
#165 = EDGE_LOOP ( 'NONE', ( #152, #138, #194, #276 ) ) ;
#166 = EDGE_CURVE ( 'NONE', #43, #26, #117, .T. ) ;
#167 = ORIENTED_EDGE ( 'NONE', *, *, #106, .T. ) ;
#168 = DIRECTION ( 'NONE',  ( 0.0000000000000000000, 0.0000000000000000000, 1.000000000000000000 ) ) ;
#169 = AXIS2_PLACEMENT_3D ( 'NONE', #184, #42, #209 ) ;
#170 = DIRECTION ( 'NONE',  ( 1.000000000000000000, -0.0000000000000000000, 1.224646799147353200E-016 ) ) ;
#171 = FACE_OUTER_BOUND ( 'NONE', #165, .T. ) ;
#172 = CARTESIAN_POINT ( 'NONE',  ( 0.0000000000000000000, 13.39999999999999900, 0.0000000000000000000 ) ) ;
#173 = CARTESIAN_POINT ( 'NONE',  ( 0.0000000000000000000, 6.999999999999999100, -1.000000000000000000 ) ) ;
#174 = DIRECTION ( 'NONE',  ( 1.224646799147352700E-016, 0.0000000000000000000, -1.000000000000000000 ) ) ;
#175 = ADVANCED_FACE ( 'NONE', ( #344 ), #137, .T. ) ;
#176 = CIRCLE ( 'NONE', #32, 0.8762395692965991900 ) ;
#177 = ORIENTED_EDGE ( 'NONE', *, *, #97, .F. ) ;
#178 = DIRECTION ( 'NONE',  ( -0.0000000000000000000, -1.000000000000000000, -0.0000000000000000000 ) ) ;
#179 =( GEOMETRIC_REPRESENTATION_CONTEXT ( 3 ) GLOBAL_UNCERTAINTY_ASSIGNED_CONTEXT ( ( #189 ) ) GLOBAL_UNIT_ASSIGNED_CONTEXT ( ( #93, #220, #221 ) ) REPRESENTATION_CONTEXT ( 'NONE', 'WORKASPACE' ) );
#180 = DIRECTION ( 'NONE',  ( -0.0000000000000000000, -1.000000000000000000, -0.0000000000000000000 ) ) ;
#181 = EDGE_CURVE ( 'NONE', #199, #43, #224, .T. ) ;
#182 = VERTEX_POINT ( 'NONE', #145 ) ;
#183 = CARTESIAN_POINT ( 'NONE',  ( 0.0000000000000000000, 13.99999999999999800, 0.0000000000000000000 ) ) ;
#184 = CARTESIAN_POINT ( 'NONE',  ( 0.0000000000000000000, 0.0000000000000000000, 0.0000000000000000000 ) ) ;
#185 = PRODUCT_DEFINITION_SHAPE ( 'NONE', 'NONE',  #7 ) ;
#186 = VECTOR ( 'NONE', #61, 1000.000000000000000 ) ;
#187 = ORIENTED_EDGE ( 'NONE', *, *, #106, .F. ) ;
#188 = STYLED_ITEM ( 'NONE', ( #109 ), #80 ) ;
#189 = UNCERTAINTY_MEASURE_WITH_UNIT (LENGTH_MEASURE( 1.000000000000000100E-005 ), #93, 'distance_accuracy_value', 'NONE');
#190 = FACE_OUTER_BOUND ( 'NONE', #25, .T. ) ;
#191 = ORIENTED_EDGE ( 'NONE', *, *, #146, .F. ) ;
#192 = AXIS2_PLACEMENT_3D ( 'NONE', #55, #287, #227 ) ;
#193 = ORIENTED_EDGE ( 'NONE', *, *, #341, .T. ) ;
#194 = ORIENTED_EDGE ( 'NONE', *, *, #181, .T. ) ;
#195 = SURFACE_SIDE_STYLE ('',( #248 ) ) ;
#196 = CARTESIAN_POINT ( 'NONE',  ( 0.0000000000000000000, 13.99999999999999800, 0.0000000000000000000 ) ) ;
#197 = SURFACE_STYLE_USAGE ( .BOTH. , #195 ) ;
#198 = FACE_BOUND ( 'NONE', #297, .T. ) ;
#199 = VERTEX_POINT ( 'NONE', #296 ) ;
#200 = FILL_AREA_STYLE_COLOUR ( '', #85 ) ;
#201 = CARTESIAN_POINT ( 'NONE',  ( 0.0000000000000000000, 0.0000000000000000000, 0.0000000000000000000 ) ) ;
#202 = DIRECTION ( 'NONE',  ( 0.0000000000000000000, 0.0000000000000000000, -1.000000000000000000 ) ) ;
#203 = PRODUCT_DEFINITION_CONTEXT ( 'detailed design', #160, 'design' ) ;
#204 = CONICAL_SURFACE ( 'NONE', #299, 1.800000000000000000, 0.5235987755983002600 ) ;
#205 = EDGE_LOOP ( 'NONE', ( #57, #253, #167, #65 ) ) ;
#206 = DIRECTION ( 'NONE',  ( 0.0000000000000000000, 0.0000000000000000000, 1.000000000000000000 ) ) ;
#207 = AXIS2_PLACEMENT_3D ( 'NONE', #172, #86, #263 ) ;
#208 = CARTESIAN_POINT ( 'NONE',  ( 0.0000000000000000000, 0.0000000000000000000, 0.0000000000000000000 ) ) ;
#209 = DIRECTION ( 'NONE',  ( 0.0000000000000000000, 0.0000000000000000000, -1.000000000000000000 ) ) ;
#210 = CYLINDRICAL_SURFACE ( 'NONE', #261, 1.000000000000000000 ) ;
#211 = CARTESIAN_POINT ( 'NONE',  ( 0.0000000000000000000, 7.000000000000000000, 0.0000000000000000000 ) ) ;
#212 = ORIENTED_EDGE ( 'NONE', *, *, #255, .F. ) ;
#213 = DIRECTION ( 'NONE',  ( -0.0000000000000000000, -1.000000000000000000, -0.0000000000000000000 ) ) ;
#214 =( GEOMETRIC_REPRESENTATION_CONTEXT ( 3 ) GLOBAL_UNCERTAINTY_ASSIGNED_CONTEXT ( ( #10 ) ) GLOBAL_UNIT_ASSIGNED_CONTEXT ( ( #230, #58, #163 ) ) REPRESENTATION_CONTEXT ( 'NONE', 'WORKASPACE' ) );
#215 = EDGE_CURVE ( 'NONE', #75, #101, #155, .T. ) ;
#216 = ADVANCED_FACE ( 'NONE', ( #284 ), #4, .T. ) ;
#217 = CARTESIAN_POINT ( 'NONE',  ( 0.0000000000000000000, 7.000000000000000000, -1.800000000000000000 ) ) ;
#218 = FACE_OUTER_BOUND ( 'NONE', #135, .T. ) ;
#219 = SURFACE_SIDE_STYLE ('',( #41 ) ) ;
#220 =( NAMED_UNIT ( * ) PLANE_ANGLE_UNIT ( ) SI_UNIT ( $, .RADIAN. ) );
#221 =( NAMED_UNIT ( * ) SI_UNIT ( $, .STERADIAN. ) SOLID_ANGLE_UNIT ( ) );
#222 = VERTEX_POINT ( 'NONE', #173 ) ;
#223 = EDGE_LOOP ( 'NONE', ( #151, #131, #92, #177 ) ) ;
#224 = LINE ( 'NONE', #293, #364 ) ;
#225 = DIRECTION ( 'NONE',  ( 0.0000000000000000000, 0.0000000000000000000, -1.000000000000000000 ) ) ;
#226 = AXIS2_PLACEMENT_3D ( 'NONE', #12, #300, #11 ) ;
#227 = DIRECTION ( 'NONE',  ( 0.0000000000000000000, 0.0000000000000000000, 1.000000000000000000 ) ) ;
#228 = ORIENTED_EDGE ( 'NONE', *, *, #347, .T. ) ;
#229 = ORIENTED_EDGE ( 'NONE', *, *, #73, .F. ) ;
#230 =( LENGTH_UNIT ( ) NAMED_UNIT ( * ) SI_UNIT ( .MILLI., .METRE. ) );
#231 = FILL_AREA_STYLE ('',( #200 ) ) ;
#232 = PRODUCT_RELATED_PRODUCT_CATEGORY ( 'part', '', ( #303 ) ) ;
#233 = DIRECTION ( 'NONE',  ( 0.0000000000000000000, 0.0000000000000000000, 1.000000000000000000 ) ) ;
#234 = LINE ( 'NONE', #53, #281 ) ;
#235 = EDGE_CURVE ( 'NONE', #52, #74, #325, .T. ) ;
#236 = EDGE_LOOP ( 'NONE', ( #110, #193 ) ) ;
#237 = CARTESIAN_POINT ( 'NONE',  ( 1.000000000000000000, 6.999999999999999100, 0.0000000000000000000 ) ) ;
#238 = DIRECTION ( 'NONE',  ( 0.0000000000000000000, 0.0000000000000000000, 1.000000000000000000 ) ) ;
#239 = CARTESIAN_POINT ( 'NONE',  ( 0.0000000000000000000, 13.00000000000000200, 0.0000000000000000000 ) ) ;
#240 = PLANE ( 'NONE',  #27 ) ;
#241 = ORIENTED_EDGE ( 'NONE', *, *, #314, .T. ) ;
#242 = CARTESIAN_POINT ( 'NONE',  ( 6.123233995736727800E-017, 0.0000000000000000000, -0.4999999999999970000 ) ) ;
#243 = AXIS2_PLACEMENT_3D ( 'NONE', #21, #335, #140 ) ;
#244 = CARTESIAN_POINT ( 'NONE',  ( 1.222649730810372800, 13.99999999999999800, 0.0000000000000000000 ) ) ;
#245 = ADVANCED_FACE ( 'NONE', ( #258 ), #271, .T. ) ;
#246 = DIRECTION ( 'NONE',  ( 0.0000000000000000000, 0.0000000000000000000, -1.000000000000000000 ) ) ;
#247 = DIRECTION ( 'NONE',  ( -0.0000000000000000000, -1.000000000000000000, -0.0000000000000000000 ) ) ;
#248 = SURFACE_STYLE_FILL_AREA ( #231 ) ;
#249 = DIRECTION ( 'NONE',  ( 0.0000000000000000000, -0.0000000000000000000, 1.000000000000000000 ) ) ;
#250 = AXIS2_PLACEMENT_3D ( 'NONE', #147, #170, #174 ) ;
#251 = FACE_OUTER_BOUND ( 'NONE', #285, .T. ) ;
#252 = ORIENTED_EDGE ( 'NONE', *, *, #181, .F. ) ;
#253 = ORIENTED_EDGE ( 'NONE', *, *, #1, .T. ) ;
#254 = SURFACE_STYLE_USAGE ( .BOTH. , #219 ) ;
#255 = EDGE_CURVE ( 'NONE', #43, #353, #294, .T. ) ;
#256 = DIRECTION ( 'NONE',  ( -0.0000000000000000000, -1.000000000000000000, -0.0000000000000000000 ) ) ;
#257 = PRESENTATION_STYLE_ASSIGNMENT (( #254 ) ) ;
#258 = FACE_OUTER_BOUND ( 'NONE', #29, .T. ) ;
#259 = ORIENTED_EDGE ( 'NONE', *, *, #283, .F. ) ;
#260 = DIRECTION ( 'NONE',  ( 0.0000000000000000000, 0.0000000000000000000, 1.000000000000000000 ) ) ;
#261 = AXIS2_PLACEMENT_3D ( 'NONE', #107, #256, #77 ) ;
#262 = FACE_OUTER_BOUND ( 'NONE', #265, .T. ) ;
#263 = DIRECTION ( 'NONE',  ( 0.0000000000000000000, 0.0000000000000000000, 1.000000000000000000 ) ) ;
#264 = DIRECTION ( 'NONE',  ( -0.0000000000000000000, -1.000000000000000000, -0.0000000000000000000 ) ) ;
#265 = EDGE_LOOP ( 'NONE', ( #8, #228 ) ) ;
#266 = DIRECTION ( 'NONE',  ( 0.0000000000000000000, -1.000000000000000000, -0.0000000000000000000 ) ) ;
#267 = ADVANCED_FACE ( 'NONE', ( #218 ), #105, .T. ) ;
#268 = AXIS2_PLACEMENT_3D ( 'NONE', #211, #67, #63 ) ;
#269 = EDGE_CURVE ( 'NONE', #353, #182, #100, .T. ) ;
#270 = CARTESIAN_POINT ( 'NONE',  ( 0.0000000000000000000, 0.0000000000000000000, 0.0000000000000000000 ) ) ;
#271 = CONICAL_SURFACE ( 'NONE', #307, 0.4999999999999970000, 0.7853981633974466100 ) ;
#272 = CARTESIAN_POINT ( 'NONE',  ( 1.391256555442807700E-016, 13.99999999999999800, -0.8762395692965991900 ) ) ;
#273 = ADVANCED_FACE ( 'NONE', ( #108 ), #98, .T. ) ;
#274 = CARTESIAN_POINT ( 'NONE',  ( 0.0000000000000000000, 13.00000000000000200, 0.0000000000000000000 ) ) ;
#275 = CIRCLE ( 'NONE', #349, 0.8762395692965991900 ) ;
#276 = ORIENTED_EDGE ( 'NONE', *, *, #314, .F. ) ;
#277 = ORIENTED_EDGE ( 'NONE', *, *, #97, .T. ) ;
#278 = APPLICATION_CONTEXT ( 'automotive_design' ) ;
#279 =( NAMED_UNIT ( * ) PLANE_ANGLE_UNIT ( ) SI_UNIT ( $, .RADIAN. ) );
#280 = MECHANICAL_DESIGN_GEOMETRIC_PRESENTATION_REPRESENTATION (  '', ( #188 ), #214 ) ;
#281 = VECTOR ( 'NONE', #340, 1000.000000000000000 ) ;
#282 = ORIENTED_EDGE ( 'NONE', *, *, #323, .F. ) ;
#283 = EDGE_CURVE ( 'NONE', #26, #182, #338, .T. ) ;
#284 = FACE_OUTER_BOUND ( 'NONE', #291, .T. ) ;
#285 = EDGE_LOOP ( 'NONE', ( #286, #277 ) ) ;
#286 = ORIENTED_EDGE ( 'NONE', *, *, #365, .T. ) ;
#287 = DIRECTION ( 'NONE',  ( -0.0000000000000000000, -1.000000000000000000, -0.0000000000000000000 ) ) ;
#288 = AXIS2_PLACEMENT_3D ( 'NONE', #244, #44, #249 ) ;
#289 = DIRECTION ( 'NONE',  ( -0.0000000000000000000, -1.000000000000000000, -0.0000000000000000000 ) ) ;
#290 = CIRCLE ( 'NONE', #192, 1.395854811567261300 ) ;
#291 = EDGE_LOOP ( 'NONE', ( #157, #282, #118, #16 ) ) ;
#292 = DIRECTION ( 'NONE',  ( 6.123233995736782100E-017, -0.8660254037844380400, 0.5000000000000012200 ) ) ;
#293 = CARTESIAN_POINT ( 'NONE',  ( 0.0000000000000000000, 13.00000000000000200, -1.800000000000000000 ) ) ;
#294 = LINE ( 'NONE', #346, #60 ) ;
#295 = DIRECTION ( 'NONE',  ( -0.0000000000000000000, -1.000000000000000000, -0.0000000000000000000 ) ) ;
#296 = CARTESIAN_POINT ( 'NONE',  ( 0.0000000000000000000, 13.69999999999999900, -1.395854811567261300 ) ) ;
#297 = EDGE_LOOP ( 'NONE', ( #119, #311 ) ) ;
#298 = ORIENTED_EDGE ( 'NONE', *, *, #87, .T. ) ;
#299 = AXIS2_PLACEMENT_3D ( 'NONE', #274, #180, #324 ) ;
#300 = DIRECTION ( 'NONE',  ( -0.0000000000000000000, -1.000000000000000000, -0.0000000000000000000 ) ) ;
#301 = CIRCLE ( 'NONE', #357, 1.800000000000000000 ) ;
#302 = ORIENTED_EDGE ( 'NONE', *, *, #22, .T. ) ;
#303 = PRODUCT ( '38891~0', '38891~0', '', ( #332 ) ) ;
#304 = STYLED_ITEM ( 'NONE', ( #257 ), #2 ) ;
#305 = APPLICATION_PROTOCOL_DEFINITION ( 'draft international standard', 'automotive_design', 1998, #160 ) ;
#306 = EDGE_LOOP ( 'NONE', ( #229, #320, #371, #20 ) ) ;
#307 = AXIS2_PLACEMENT_3D ( 'NONE', #316, #31, #88 ) ;
#308 = SHAPE_DEFINITION_REPRESENTATION ( #185, #2 ) ;
#309 = CONICAL_SURFACE ( 'NONE', #94, 1.800000000000000000, 0.5235987755983002600 ) ;
#310 = ORIENTED_EDGE ( 'NONE', *, *, #215, .T. ) ;
#311 = ORIENTED_EDGE ( 'NONE', *, *, #1, .F. ) ;
#312 = DIRECTION ( 'NONE',  ( 0.0000000000000000000, 1.000000000000000000, 0.0000000000000000000 ) ) ;
#313 =( GEOMETRIC_REPRESENTATION_CONTEXT ( 3 ) GLOBAL_UNCERTAINTY_ASSIGNED_CONTEXT ( ( #49 ) ) GLOBAL_UNIT_ASSIGNED_CONTEXT ( ( #45, #279, #48 ) ) REPRESENTATION_CONTEXT ( 'NONE', 'WORKASPACE' ) );
#314 = EDGE_CURVE ( 'NONE', #26, #43, #301, .T. ) ;
#315 = CYLINDRICAL_SURFACE ( 'NONE', #243, 1.800000000000000000 ) ;
#316 = CARTESIAN_POINT ( 'NONE',  ( 0.0000000000000000000, 0.0000000000000000000, 0.0000000000000000000 ) ) ;
#317 = CARTESIAN_POINT ( 'NONE',  ( 0.0000000000000000000, 0.5000000000000047700, 0.0000000000000000000 ) ) ;
#318 = ADVANCED_FACE ( 'NONE', ( #56 ), #204, .T. ) ;
#319 = DIRECTION ( 'NONE',  ( 0.0000000000000000000, 0.0000000000000000000, -1.000000000000000000 ) ) ;
#320 = ORIENTED_EDGE ( 'NONE', *, *, #124, .T. ) ;
#321 = ADVANCED_FACE ( 'NONE', ( #190 ), #358, .T. ) ;
#322 = CARTESIAN_POINT ( 'NONE',  ( 0.0000000000000000000, 13.39999999999999900, 0.8762395692965991900 ) ) ;
#323 = EDGE_CURVE ( 'NONE', #143, #351, #51, .T. ) ;
#324 = DIRECTION ( 'NONE',  ( 0.0000000000000000000, 0.0000000000000000000, -1.000000000000000000 ) ) ;
#325 = CIRCLE ( 'NONE', #136, 0.6000000000000000900 ) ;
#326 = ORIENTED_EDGE ( 'NONE', *, *, #347, .F. ) ;
#327 = DIRECTION ( 'NONE',  ( -0.0000000000000000000, -1.000000000000000000, -0.0000000000000000000 ) ) ;
#328 = EDGE_CURVE ( 'NONE', #351, #79, #125, .T. ) ;
#329 = AXIS2_PLACEMENT_3D ( 'NONE', #126, #327, #246 ) ;
#330 = CIRCLE ( 'NONE', #361, 1.000000000000000000 ) ;
#331 = ORIENTED_EDGE ( 'NONE', *, *, #341, .F. ) ;
#332 = PRODUCT_CONTEXT ( 'NONE', #278, 'mechanical' ) ;
#333 = AXIS2_PLACEMENT_3D ( 'NONE', #208, #115, #238 ) ;
#334 = CIRCLE ( 'NONE', #141, 1.000000000000000000 ) ;
#335 = DIRECTION ( 'NONE',  ( -0.0000000000000000000, -1.000000000000000000, -0.0000000000000000000 ) ) ;
#336 = ORIENTED_EDGE ( 'NONE', *, *, #73, .T. ) ;
#337 = CARTESIAN_POINT ( 'NONE',  ( 0.0000000000000000000, 6.999999999999999100, 0.0000000000000000000 ) ) ;
#338 = LINE ( 'NONE', #17, #78 ) ;
#339 = AXIS2_PLACEMENT_3D ( 'NONE', #95, #133, #359 ) ;
#340 = DIRECTION ( 'NONE',  ( -0.0000000000000000000, -1.000000000000000000, -0.0000000000000000000 ) ) ;
#341 = EDGE_CURVE ( 'NONE', #351, #143, #129, .T. ) ;
#342 = CARTESIAN_POINT ( 'NONE',  ( 0.0000000000000000000, 0.5000000000000047700, -1.000000000000000000 ) ) ;
#343 = CARTESIAN_POINT ( 'NONE',  ( 1.224646799147353200E-016, 6.999999999999999100, 1.000000000000000000 ) ) ;
#344 = FACE_OUTER_BOUND ( 'NONE', #223, .T. ) ;
#345 = VERTEX_POINT ( 'NONE', #272 ) ;
#346 = CARTESIAN_POINT ( 'NONE',  ( 0.0000000000000000000, 0.0000000000000000000, -1.800000000000000000 ) ) ;
#347 = EDGE_CURVE ( 'NONE', #182, #353, #350, .T. ) ;
#348 = CARTESIAN_POINT ( 'NONE',  ( 0.0000000000000000000, 0.0000000000000000000, 0.4999999999999970000 ) ) ;
#349 = AXIS2_PLACEMENT_3D ( 'NONE', #183, #13, #69 ) ;
#350 = CIRCLE ( 'NONE', #268, 1.800000000000000000 ) ;
#351 = VERTEX_POINT ( 'NONE', #127 ) ;
#352 = CARTESIAN_POINT ( 'NONE',  ( 0.0000000000000000000, 13.00000000000000200, 0.0000000000000000000 ) ) ;
#353 = VERTEX_POINT ( 'NONE', #217 ) ;
#354 = CARTESIAN_POINT ( 'NONE',  ( 1.224646799147353200E-016, 0.0000000000000000000, 1.000000000000000000 ) ) ;
#355 = ADVANCED_FACE ( 'NONE', ( #251 ), #123, .T. ) ;
#356 = CIRCLE ( 'NONE', #148, 1.000000000000000000 ) ;
#357 = AXIS2_PLACEMENT_3D ( 'NONE', #38, #178, #71 ) ;
#358 = CYLINDRICAL_SURFACE ( 'NONE', #89, 1.800000000000000000 ) ;
#359 = DIRECTION ( 'NONE',  ( 1.000000000000000000, 0.0000000000000000000, 0.0000000000000000000 ) ) ;
#360 = AXIS2_PLACEMENT_3D ( 'NONE', #150, #59, #233 ) ;
#361 = AXIS2_PLACEMENT_3D ( 'NONE', #54, #289, #225 ) ;
#362 = LINE ( 'NONE', #164, #47 ) ;
#363 = ORIENTED_EDGE ( 'NONE', *, *, #269, .F. ) ;
#364 = VECTOR ( 'NONE', #114, 999.9999999999998900 ) ;
#365 = EDGE_CURVE ( 'NONE', #74, #345, #275, .T. ) ;
#366 = AXIS2_PLACEMENT_3D ( 'NONE', #369, #312, #168 ) ;
#367 = DIRECTION ( 'NONE',  ( 0.0000000000000000000, 0.0000000000000000000, -1.000000000000000000 ) ) ;
#368 = CARTESIAN_POINT ( 'NONE',  ( 0.0000000000000000000, 0.5000000000000047700, 0.0000000000000000000 ) ) ;
#369 = CARTESIAN_POINT ( 'NONE',  ( 0.0000000000000000000, 13.39999999999999900, 0.0000000000000000000 ) ) ;
#370 = ORIENTED_EDGE ( 'NONE', *, *, #283, .T. ) ;
#371 = ORIENTED_EDGE ( 'NONE', *, *, #365, .F. ) ;
#372 = CARTESIAN_POINT ( 'NONE',  ( 1.956896682762757100E-016, 13.69999999999999900, 1.395854811567261300 ) ) ;
ENDSEC;
END-ISO-10303-21;
