ISO-10303-21;
HEADER;
FILE_DESCRIPTION (( 'STEP AP214' ),
    '1' );
FILE_NAME ('42743~0.STEP',
    '2017-07-04T09:07:31',
    ( '' ),
    ( '' ),
    'SwSTEP 2.0',
    'SolidWorks 2016',
    '' );
FILE_SCHEMA (( 'AUTOMOTIVE_DESIGN' ));
ENDSEC;

DATA;
#1 =( GEOMETRIC_REPRESENTATION_CONTEXT ( 3 ) GLOBAL_UNCERTAINTY_ASSIGNED_CONTEXT ( ( #328 ) ) GLOBAL_UNIT_ASSIGNED_CONTEXT ( ( #259, #340, #110 ) ) REPRESENTATION_CONTEXT ( 'NONE', 'WORKASPACE' ) );
#2 = ORIENTED_EDGE ( 'NONE', *, *, #33, .T. ) ;
#3 = DIRECTION ( 'NONE',  ( -1.000000000000000000, 0.0000000000000000000, 0.0000000000000000000 ) ) ;
#4 = MANIFOLD_SOLID_BREP ( 'Verrundung1', #311 ) ;
#5 =( NAMED_UNIT ( * ) SI_UNIT ( $, .STERADIAN. ) SOLID_ANGLE_UNIT ( ) );
#6 = CARTESIAN_POINT ( 'NONE',  ( 0.0000000000000000000, 13.39999999999999900, 1.226239569296599300 ) ) ;
#7 = DIRECTION ( 'NONE',  ( 0.0000000000000000000, 0.0000000000000000000, -1.000000000000000000 ) ) ;
#8 = EDGE_LOOP ( 'NONE', ( #278, #276, #282, #310 ) ) ;
#9 = EDGE_LOOP ( 'NONE', ( #37, #339, #274, #13 ) ) ;
#10 = AXIS2_PLACEMENT_3D ( 'NONE', #49, #92, #16 ) ;
#11 = FACE_OUTER_BOUND ( 'NONE', #153, .T. ) ;
#12 = PRODUCT_DEFINITION_FORMATION_WITH_SPECIFIED_SOURCE ( 'ANY', '', #66, .NOT_KNOWN. ) ;
#13 = ORIENTED_EDGE ( 'NONE', *, *, #158, .F. ) ;
#14 = FILL_AREA_STYLE ('',( #216 ) ) ;
#15 = CYLINDRICAL_SURFACE ( 'NONE', #10, 1.000000000000000000 ) ;
#16 = DIRECTION ( 'NONE',  ( 0.0000000000000000000, 0.0000000000000000000, -1.000000000000000000 ) ) ;
#17 = CARTESIAN_POINT ( 'NONE',  ( 9.184850993605162000E-017, 0.0000000000000000000, -0.5000000000000022200 ) ) ;
#18 = AXIS2_PLACEMENT_3D ( 'NONE', #128, #178, #71 ) ;
#19 = EDGE_CURVE ( 'NONE', #227, #144, #242, .T. ) ;
#20 = VERTEX_POINT ( 'NONE', #93 ) ;
#21 = ORIENTED_EDGE ( 'NONE', *, *, #52, .F. ) ;
#22 = CIRCLE ( 'NONE', #260, 0.6000000000000000900 ) ;
#23 = CARTESIAN_POINT ( 'NONE',  ( 0.0000000000000000000, 13.39999999999999900, 0.0000000000000000000 ) ) ;
#24 = CARTESIAN_POINT ( 'NONE',  ( 0.0000000000000000000, 0.4999999999999978400, -1.000000000000000000 ) ) ;
#25 = CARTESIAN_POINT ( 'NONE',  ( 0.0000000000000000000, 0.0000000000000000000, 0.0000000000000000000 ) ) ;
#26 = ADVANCED_FACE ( 'NONE', ( #73 ), #331, .T. ) ;
#27 = PRESENTATION_LAYER_ASSIGNMENT (  '', '', ( #245 ) ) ;
#28 =( LENGTH_UNIT ( ) NAMED_UNIT ( * ) SI_UNIT ( .MILLI., .METRE. ) );
#29 = AXIS2_PLACEMENT_3D ( 'NONE', #246, #69, #304 ) ;
#30 = CARTESIAN_POINT ( 'NONE',  ( 0.0000000000000000000, 13.99999999999999800, 0.0000000000000000000 ) ) ;
#31 = DIRECTION ( 'NONE',  ( 0.0000000000000000000, -1.000000000000000000, -0.0000000000000000000 ) ) ;
#32 = CARTESIAN_POINT ( 'NONE',  ( 0.0000000000000000000, 0.0000000000000000000, 0.0000000000000000000 ) ) ;
#33 = EDGE_CURVE ( 'NONE', #287, #254, #360, .T. ) ;
#34 = CARTESIAN_POINT ( 'NONE',  ( 0.0000000000000000000, 0.4999999999999978400, 0.0000000000000000000 ) ) ;
#35 = VERTEX_POINT ( 'NONE', #62 ) ;
#36 = DIRECTION ( 'NONE',  ( 0.0000000000000000000, 0.0000000000000000000, -1.000000000000000000 ) ) ;
#37 = ORIENTED_EDGE ( 'NONE', *, *, #234, .T. ) ;
#38 = CYLINDRICAL_SURFACE ( 'NONE', #56, 2.149999999999999900 ) ;
#39 = EDGE_CURVE ( 'NONE', #287, #272, #236, .T. ) ;
#40 = AXIS2_PLACEMENT_3D ( 'NONE', #6, #3, #317 ) ;
#41 = VERTEX_POINT ( 'NONE', #72 ) ;
#42 = ORIENTED_EDGE ( 'NONE', *, *, #230, .T. ) ;
#43 = VECTOR ( 'NONE', #164, 999.9999999999998900 ) ;
#44 = VERTEX_POINT ( 'NONE', #183 ) ;
#45 = ORIENTED_EDGE ( 'NONE', *, *, #39, .F. ) ;
#46 = CARTESIAN_POINT ( 'NONE',  ( 0.0000000000000000000, 13.70000000000000100, 0.0000000000000000000 ) ) ;
#47 = AXIS2_PLACEMENT_3D ( 'NONE', #34, #206, #203 ) ;
#48 = VERTEX_POINT ( 'NONE', #362 ) ;
#49 = CARTESIAN_POINT ( 'NONE',  ( 0.0000000000000000000, 0.0000000000000000000, 0.0000000000000000000 ) ) ;
#50 = EDGE_LOOP ( 'NONE', ( #189, #356, #318, #21 ) ) ;
#51 = CARTESIAN_POINT ( 'NONE',  ( 1.501710363526909200E-016, 13.39999999999999900, -1.226239569296599300 ) ) ;
#52 = EDGE_CURVE ( 'NONE', #187, #41, #175, .T. ) ;
#53 = EDGE_CURVE ( 'NONE', #48, #227, #355, .T. ) ;
#54 = PRODUCT_CONTEXT ( 'NONE', #312, 'mechanical' ) ;
#55 = DIRECTION ( 'NONE',  ( 0.0000000000000000000, 0.0000000000000000000, 1.000000000000000000 ) ) ;
#56 = AXIS2_PLACEMENT_3D ( 'NONE', #111, #117, #7 ) ;
#57 = CARTESIAN_POINT ( 'NONE',  ( 0.0000000000000000000, 13.00000000000000200, 0.0000000000000000000 ) ) ;
#58 = CARTESIAN_POINT ( 'NONE',  ( 2.385523062464331000E-016, 13.70000000000000100, 1.745854811567262100 ) ) ;
#59 = VERTEX_POINT ( 'NONE', #17 ) ;
#60 = PLANE ( 'NONE',  #239 ) ;
#61 = SURFACE_STYLE_FILL_AREA ( #14 ) ;
#62 = CARTESIAN_POINT ( 'NONE',  ( 0.0000000000000000000, 13.99999999999999800, 1.226239569296599300 ) ) ;
#63 = ORIENTED_EDGE ( 'NONE', *, *, #240, .F. ) ;
#64 = EDGE_CURVE ( 'NONE', #187, #272, #221, .T. ) ;
#65 = CIRCLE ( 'NONE', #138, 0.5000000000000022200 ) ;
#66 = PRODUCT ( '42743~0', '42743~0', '', ( #54 ) ) ;
#67 = ORIENTED_EDGE ( 'NONE', *, *, #211, .F. ) ;
#68 = AXIS2_PLACEMENT_3D ( 'NONE', #314, #172, #263 ) ;
#69 = DIRECTION ( 'NONE',  ( -0.0000000000000000000, -1.000000000000000000, -0.0000000000000000000 ) ) ;
#70 = CARTESIAN_POINT ( 'NONE',  ( 0.0000000000000000000, 0.0000000000000000000, 0.0000000000000000000 ) ) ;
#71 = DIRECTION ( 'NONE',  ( 0.0000000000000000000, 0.0000000000000000000, -1.000000000000000000 ) ) ;
#72 = CARTESIAN_POINT ( 'NONE',  ( 0.0000000000000000000, 7.000000000000000000, -2.149999999999999900 ) ) ;
#73 = FACE_OUTER_BOUND ( 'NONE', #78, .T. ) ;
#74 = CARTESIAN_POINT ( 'NONE',  ( 1.000000000000000000, 6.999999999999999100, 0.0000000000000000000 ) ) ;
#75 = FACE_OUTER_BOUND ( 'NONE', #347, .T. ) ;
#76 = ORIENTED_EDGE ( 'NONE', *, *, #211, .T. ) ;
#77 = SURFACE_SIDE_STYLE ('',( #88 ) ) ;
#78 = EDGE_LOOP ( 'NONE', ( #226, #300 ) ) ;
#79 = DIRECTION ( 'NONE',  ( 1.000000000000000000, 0.0000000000000000000, 0.0000000000000000000 ) ) ;
#80 = DIRECTION ( 'NONE',  ( 0.0000000000000000000, 0.0000000000000000000, -1.000000000000000000 ) ) ;
#81 = DIRECTION ( 'NONE',  ( -0.0000000000000000000, -1.000000000000000000, -0.0000000000000000000 ) ) ;
#82 = CIRCLE ( 'NONE', #154, 2.149999999999999900 ) ;
#83 = EDGE_CURVE ( 'NONE', #20, #41, #372, .T. ) ;
#84 = CARTESIAN_POINT ( 'NONE',  ( 0.0000000000000000000, 0.0000000000000000000, 0.0000000000000000000 ) ) ;
#85 = DIRECTION ( 'NONE',  ( 0.0000000000000000000, -0.0000000000000000000, 1.000000000000000000 ) ) ;
#86 = CARTESIAN_POINT ( 'NONE',  ( 2.632990618166809200E-016, 13.00000000000000200, 2.149999999999999900 ) ) ;
#87 = FACE_OUTER_BOUND ( 'NONE', #8, .T. ) ;
#88 = SURFACE_STYLE_FILL_AREA ( #194 ) ;
#89 = CONICAL_SURFACE ( 'NONE', #313, 0.5000000000000022200, 0.7853981633974482800 ) ;
#90 = CIRCLE ( 'NONE', #166, 2.149999999999999900 ) ;
#91 = DIRECTION ( 'NONE',  ( -0.0000000000000000000, -1.000000000000000000, -0.0000000000000000000 ) ) ;
#92 = DIRECTION ( 'NONE',  ( -0.0000000000000000000, -1.000000000000000000, -0.0000000000000000000 ) ) ;
#93 = CARTESIAN_POINT ( 'NONE',  ( 2.632990618166809200E-016, 7.000000000000000000, 2.149999999999999900 ) ) ;
#94 = PRODUCT_DEFINITION_SHAPE ( 'NONE', 'NONE',  #184 ) ;
#95 = DIRECTION ( 'NONE',  ( 0.0000000000000000000, 0.0000000000000000000, 1.000000000000000000 ) ) ;
#96 = FACE_OUTER_BOUND ( 'NONE', #107, .T. ) ;
#97 = FACE_OUTER_BOUND ( 'NONE', #291, .T. ) ;
#98 = VECTOR ( 'NONE', #358, 1000.000000000000000 ) ;
#99 = DIRECTION ( 'NONE',  ( 0.0000000000000000000, 0.0000000000000000000, -1.000000000000000000 ) ) ;
#100 = ADVANCED_FACE ( 'NONE', ( #75 ), #15, .T. ) ;
#101 = ORIENTED_EDGE ( 'NONE', *, *, #19, .T. ) ;
#102 = DIRECTION ( 'NONE',  ( 0.0000000000000000000, 1.000000000000000000, 0.0000000000000000000 ) ) ;
#103 = ADVANCED_FACE ( 'NONE', ( #115 ), #222, .T. ) ;
#104 = DIRECTION ( 'NONE',  ( 0.0000000000000000000, 1.000000000000000000, 0.0000000000000000000 ) ) ;
#105 = VERTEX_POINT ( 'NONE', #160 ) ;
#106 = AXIS2_PLACEMENT_3D ( 'NONE', #255, #369, #135 ) ;
#107 = EDGE_LOOP ( 'NONE', ( #212, #137, #133, #350 ) ) ;
#108 = CARTESIAN_POINT ( 'NONE',  ( 0.0000000000000000000, 0.4999999999999978400, 0.0000000000000000000 ) ) ;
#109 = VECTOR ( 'NONE', #346, 1000.000000000000000 ) ;
#110 =( NAMED_UNIT ( * ) SI_UNIT ( $, .STERADIAN. ) SOLID_ANGLE_UNIT ( ) );
#111 = CARTESIAN_POINT ( 'NONE',  ( 0.0000000000000000000, 0.0000000000000000000, 0.0000000000000000000 ) ) ;
#112 = DIRECTION ( 'NONE',  ( -0.0000000000000000000, -1.000000000000000000, -0.0000000000000000000 ) ) ;
#113 = ORIENTED_EDGE ( 'NONE', *, *, #230, .F. ) ;
#114 = AXIS2_PLACEMENT_3D ( 'NONE', #217, #330, #215 ) ;
#115 = FACE_OUTER_BOUND ( 'NONE', #50, .T. ) ;
#116 = CARTESIAN_POINT ( 'NONE',  ( 6.123233995736791900E-017, 0.0000000000000000000, -0.5000000000000022200 ) ) ;
#117 = DIRECTION ( 'NONE',  ( -0.0000000000000000000, -1.000000000000000000, -0.0000000000000000000 ) ) ;
#118 = DIRECTION ( 'NONE',  ( 0.0000000000000000000, 1.000000000000000000, 0.0000000000000000000 ) ) ;
#119 = ORIENTED_EDGE ( 'NONE', *, *, #301, .T. ) ;
#120 = EDGE_CURVE ( 'NONE', #272, #20, #205, .T. ) ;
#121 = AXIS2_PLACEMENT_3D ( 'NONE', #235, #112, #316 ) ;
#122 = AXIS2_PLACEMENT_3D ( 'NONE', #231, #191, #371 ) ;
#123 = ORIENTED_EDGE ( 'NONE', *, *, #219, .F. ) ;
#124 = LINE ( 'NONE', #116, #169 ) ;
#125 = ORIENTED_EDGE ( 'NONE', *, *, #325, .T. ) ;
#126 = PRODUCT_RELATED_PRODUCT_CATEGORY ( 'part', '', ( #66 ) ) ;
#127 = EDGE_CURVE ( 'NONE', #254, #297, #22, .T. ) ;
#128 = CARTESIAN_POINT ( 'NONE',  ( 0.0000000000000000000, 7.000000000000000000, 0.0000000000000000000 ) ) ;
#129 = AXIS2_PLACEMENT_3D ( 'NONE', #25, #131, #336 ) ;
#130 = EDGE_CURVE ( 'NONE', #272, #187, #90, .T. ) ;
#131 = DIRECTION ( 'NONE',  ( -0.0000000000000000000, -1.000000000000000000, -0.0000000000000000000 ) ) ;
#132 = DIRECTION ( 'NONE',  ( 0.0000000000000000000, 0.7071067811865474600, 0.7071067811865474600 ) ) ;
#133 = ORIENTED_EDGE ( 'NONE', *, *, #52, .T. ) ;
#134 = CARTESIAN_POINT ( 'NONE',  ( 0.0000000000000000000, 13.00000000000000200, -2.149999999999999900 ) ) ;
#135 = DIRECTION ( 'NONE',  ( 0.0000000000000000000, 0.0000000000000000000, 1.000000000000000000 ) ) ;
#136 = CYLINDRICAL_SURFACE ( 'NONE', #129, 1.000000000000000000 ) ;
#137 = ORIENTED_EDGE ( 'NONE', *, *, #130, .T. ) ;
#138 = AXIS2_PLACEMENT_3D ( 'NONE', #32, #81, #289 ) ;
#139 = CARTESIAN_POINT ( 'NONE',  ( 0.0000000000000000000, 13.70000000000000100, -1.745854811567262100 ) ) ;
#140 = CONICAL_SURFACE ( 'NONE', #218, 0.5000000000000022200, 0.7853981633974482800 ) ;
#141 = DIRECTION ( 'NONE',  ( -0.0000000000000000000, -1.000000000000000000, -0.0000000000000000000 ) ) ;
#142 =( NAMED_UNIT ( * ) PLANE_ANGLE_UNIT ( ) SI_UNIT ( $, .RADIAN. ) );
#143 = CARTESIAN_POINT ( 'NONE',  ( 2.632990618166809200E-016, 13.00000000000000200, 2.149999999999999900 ) ) ;
#144 = VERTEX_POINT ( 'NONE', #24 ) ;
#145 = DIRECTION ( 'NONE',  ( 8.659560562354932900E-017, 0.7071067811865474600, -0.7071067811865474600 ) ) ;
#146 = AXIS2_PLACEMENT_3D ( 'NONE', #70, #31, #204 ) ;
#147 = CARTESIAN_POINT ( 'NONE',  ( 1.224646799147353200E-016, 0.0000000000000000000, 1.000000000000000000 ) ) ;
#148 = FACE_OUTER_BOUND ( 'NONE', #321, .T. ) ;
#149 = EDGE_CURVE ( 'NONE', #144, #44, #323, .T. ) ;
#150 = ORIENTED_EDGE ( 'NONE', *, *, #33, .F. ) ;
#151 = DIRECTION ( 'NONE',  ( -0.0000000000000000000, -1.000000000000000000, -0.0000000000000000000 ) ) ;
#152 = CARTESIAN_POINT ( 'NONE',  ( 0.0000000000000000000, 0.0000000000000000000, 0.0000000000000000000 ) ) ;
#153 = EDGE_LOOP ( 'NONE', ( #76, #181 ) ) ;
#154 = AXIS2_PLACEMENT_3D ( 'NONE', #349, #151, #293 ) ;
#155 = CIRCLE ( 'NONE', #122, 1.000000000000000000 ) ;
#156 = ORIENTED_EDGE ( 'NONE', *, *, #19, .F. ) ;
#157 = VECTOR ( 'NONE', #223, 1000.000000000000000 ) ;
#158 = EDGE_CURVE ( 'NONE', #254, #187, #247, .T. ) ;
#159 = ADVANCED_FACE ( 'NONE', ( #87 ), #89, .T. ) ;
#160 = CARTESIAN_POINT ( 'NONE',  ( 0.0000000000000000000, 0.0000000000000000000, 0.5000000000000022200 ) ) ;
#161 = CONICAL_SURFACE ( 'NONE', #354, 2.149999999999999900, 0.5235987755983002600 ) ;
#162 = CARTESIAN_POINT ( 'NONE',  ( 0.0000000000000000000, 13.00000000000000200, -2.149999999999999900 ) ) ;
#163 = SURFACE_STYLE_USAGE ( .BOTH. , #77 ) ;
#164 = DIRECTION ( 'NONE',  ( 0.0000000000000000000, -0.8660254037844380400, -0.5000000000000012200 ) ) ;
#165 = CIRCLE ( 'NONE', #233, 1.226239569296599300 ) ;
#166 = AXIS2_PLACEMENT_3D ( 'NONE', #370, #195, #258 ) ;
#167 = EDGE_CURVE ( 'NONE', #105, #44, #168, .T. ) ;
#168 = LINE ( 'NONE', #185, #334 ) ;
#169 = VECTOR ( 'NONE', #145, 1000.000000000000100 ) ;
#170 = DIRECTION ( 'NONE',  ( 0.0000000000000000000, 1.000000000000000000, 0.0000000000000000000 ) ) ;
#171 = AXIS2_PLACEMENT_3D ( 'NONE', #265, #118, #322 ) ;
#172 = DIRECTION ( 'NONE',  ( -0.0000000000000000000, -1.000000000000000000, -0.0000000000000000000 ) ) ;
#173 = FACE_OUTER_BOUND ( 'NONE', #368, .T. ) ;
#174 = CARTESIAN_POINT ( 'NONE',  ( 1.572649730810372800, 13.99999999999999800, 0.0000000000000000000 ) ) ;
#175 = LINE ( 'NONE', #182, #98 ) ;
#176 = UNCERTAINTY_MEASURE_WITH_UNIT (LENGTH_MEASURE( 1.000000000000000100E-005 ), #28, 'distance_accuracy_value', 'NONE');
#177 = EDGE_LOOP ( 'NONE', ( #327, #273 ) ) ;
#178 = DIRECTION ( 'NONE',  ( -0.0000000000000000000, -1.000000000000000000, -0.0000000000000000000 ) ) ;
#179 = DIRECTION ( 'NONE',  ( 0.0000000000000000000, 0.0000000000000000000, -1.000000000000000000 ) ) ;
#180 = SURFACE_STYLE_USAGE ( .BOTH. , #361 ) ;
#181 = ORIENTED_EDGE ( 'NONE', *, *, #219, .T. ) ;
#182 = CARTESIAN_POINT ( 'NONE',  ( 0.0000000000000000000, 0.0000000000000000000, -2.149999999999999900 ) ) ;
#183 = CARTESIAN_POINT ( 'NONE',  ( 1.224646799147353200E-016, 0.4999999999999978400, 1.000000000000000000 ) ) ;
#184 = PRODUCT_DEFINITION ( 'UNKNOWN', '', #12, #279 ) ;
#185 = CARTESIAN_POINT ( 'NONE',  ( 0.0000000000000000000, 0.0000000000000000000, 0.5000000000000022200 ) ) ;
#186 = ADVANCED_FACE ( 'NONE', ( #97, #237 ), #338, .T. ) ;
#187 = VERTEX_POINT ( 'NONE', #134 ) ;
#188 =( NAMED_UNIT ( * ) PLANE_ANGLE_UNIT ( ) SI_UNIT ( $, .RADIAN. ) );
#189 = ORIENTED_EDGE ( 'NONE', *, *, #64, .T. ) ;
#190 = ADVANCED_FACE ( 'NONE', ( #332 ), #136, .T. ) ;
#191 = DIRECTION ( 'NONE',  ( -0.0000000000000000000, -1.000000000000000000, -0.0000000000000000000 ) ) ;
#192 = DIRECTION ( 'NONE',  ( 0.0000000000000000000, 0.0000000000000000000, 1.000000000000000000 ) ) ;
#193 = FACE_OUTER_BOUND ( 'NONE', #9, .T. ) ;
#194 = FILL_AREA_STYLE ('',( #202 ) ) ;
#195 = DIRECTION ( 'NONE',  ( -0.0000000000000000000, -1.000000000000000000, -0.0000000000000000000 ) ) ;
#196 = ADVANCED_FACE ( 'NONE', ( #173 ), #286, .T. ) ;
#197 = MECHANICAL_DESIGN_GEOMETRIC_PRESENTATION_REPRESENTATION (  '', ( #245 ), #208 ) ;
#198 = APPLICATION_PROTOCOL_DEFINITION ( 'draft international standard', 'automotive_design', 1998, #312 ) ;
#199 = DIRECTION ( 'NONE',  ( 1.224646799147352700E-016, 0.0000000000000000000, -1.000000000000000000 ) ) ;
#200 = COLOUR_RGB ( '',0.7529411764705882200, 0.7529411764705882200, 0.7529411764705882200 ) ;
#201 = CARTESIAN_POINT ( 'NONE',  ( 0.0000000000000000000, 0.0000000000000000000, -1.000000000000000000 ) ) ;
#202 = FILL_AREA_STYLE_COLOUR ( '', #268 ) ;
#203 = DIRECTION ( 'NONE',  ( 0.0000000000000000000, 0.0000000000000000000, -1.000000000000000000 ) ) ;
#204 = DIRECTION ( 'NONE',  ( 0.0000000000000000000, 0.0000000000000000000, -1.000000000000000000 ) ) ;
#205 = LINE ( 'NONE', #363, #157 ) ;
#206 = DIRECTION ( 'NONE',  ( 0.0000000000000000000, 1.000000000000000000, 0.0000000000000000000 ) ) ;
#207 = DIRECTION ( 'NONE',  ( 0.0000000000000000000, 0.0000000000000000000, 1.000000000000000000 ) ) ;
#208 =( GEOMETRIC_REPRESENTATION_CONTEXT ( 3 ) GLOBAL_UNCERTAINTY_ASSIGNED_CONTEXT ( ( #326 ) ) GLOBAL_UNIT_ASSIGNED_CONTEXT ( ( #365, #188, #5 ) ) REPRESENTATION_CONTEXT ( 'NONE', 'WORKASPACE' ) );
#209 = DIRECTION ( 'NONE',  ( 0.0000000000000000000, 1.000000000000000000, 0.0000000000000000000 ) ) ;
#210 = AXIS2_PLACEMENT_3D ( 'NONE', #84, #261, #79 ) ;
#211 = EDGE_CURVE ( 'NONE', #35, #297, #364, .T. ) ;
#212 = ORIENTED_EDGE ( 'NONE', *, *, #120, .F. ) ;
#213 = CARTESIAN_POINT ( 'NONE',  ( 0.0000000000000000000, 13.00000000000000200, 0.0000000000000000000 ) ) ;
#214 = CIRCLE ( 'NONE', #40, 0.6000000000000000900 ) ;
#215 = DIRECTION ( 'NONE',  ( 0.0000000000000000000, 0.0000000000000000000, -1.000000000000000000 ) ) ;
#216 = FILL_AREA_STYLE_COLOUR ( '', #200 ) ;
#217 = CARTESIAN_POINT ( 'NONE',  ( 0.0000000000000000000, 6.999999999999999100, 0.0000000000000000000 ) ) ;
#218 = AXIS2_PLACEMENT_3D ( 'NONE', #292, #319, #207 ) ;
#219 = EDGE_CURVE ( 'NONE', #297, #35, #165, .T. ) ;
#220 = ORIENTED_EDGE ( 'NONE', *, *, #315, .F. ) ;
#221 = CIRCLE ( 'NONE', #299, 2.149999999999999900 ) ;
#222 = CYLINDRICAL_SURFACE ( 'NONE', #29, 2.149999999999999900 ) ;
#223 = DIRECTION ( 'NONE',  ( -0.0000000000000000000, -1.000000000000000000, -0.0000000000000000000 ) ) ;
#224 =( NAMED_UNIT ( * ) SI_UNIT ( $, .STERADIAN. ) SOLID_ANGLE_UNIT ( ) );
#225 = CARTESIAN_POINT ( 'NONE',  ( 0.0000000000000000000, 6.999999999999999100, -1.000000000000000000 ) ) ;
#226 = ORIENTED_EDGE ( 'NONE', *, *, #253, .T. ) ;
#227 = VERTEX_POINT ( 'NONE', #225 ) ;
#228 = DIRECTION ( 'NONE',  ( 1.000000000000000000, -0.0000000000000000000, 1.224646799147353200E-016 ) ) ;
#229 = APPLICATION_CONTEXT ( 'automotive_design' ) ;
#230 = EDGE_CURVE ( 'NONE', #44, #144, #264, .T. ) ;
#231 = CARTESIAN_POINT ( 'NONE',  ( 0.0000000000000000000, 6.999999999999999100, 0.0000000000000000000 ) ) ;
#232 = ORIENTED_EDGE ( 'NONE', *, *, #234, .F. ) ;
#233 = AXIS2_PLACEMENT_3D ( 'NONE', #30, #102, #55 ) ;
#234 = EDGE_CURVE ( 'NONE', #254, #287, #359, .T. ) ;
#235 = CARTESIAN_POINT ( 'NONE',  ( 0.0000000000000000000, 13.00000000000000200, 0.0000000000000000000 ) ) ;
#236 = LINE ( 'NONE', #86, #296 ) ;
#237 = FACE_BOUND ( 'NONE', #177, .T. ) ;
#238 = ORIENTED_EDGE ( 'NONE', *, *, #127, .F. ) ;
#239 = AXIS2_PLACEMENT_3D ( 'NONE', #174, #209, #85 ) ;
#240 = EDGE_CURVE ( 'NONE', #287, #35, #214, .T. ) ;
#241 = PRESENTATION_STYLE_ASSIGNMENT (( #163 ) ) ;
#242 = LINE ( 'NONE', #201, #270 ) ;
#243 = ORIENTED_EDGE ( 'NONE', *, *, #149, .T. ) ;
#244 = CIRCLE ( 'NONE', #294, 0.5000000000000022200 ) ;
#245 = STYLED_ITEM ( 'NONE', ( #284 ), #4 ) ;
#246 = CARTESIAN_POINT ( 'NONE',  ( 0.0000000000000000000, 0.0000000000000000000, 0.0000000000000000000 ) ) ;
#247 = LINE ( 'NONE', #162, #43 ) ;
#248 = AXIS2_PLACEMENT_3D ( 'NONE', #74, #281, #280 ) ;
#249 = SHAPE_DEFINITION_REPRESENTATION ( #94, #351 ) ;
#250 = ADVANCED_FACE ( 'NONE', ( #96 ), #38, .T. ) ;
#251 = DIRECTION ( 'NONE',  ( -0.0000000000000000000, -1.000000000000000000, -0.0000000000000000000 ) ) ;
#252 = AXIS2_PLACEMENT_3D ( 'NONE', #23, #104, #341 ) ;
#253 = EDGE_CURVE ( 'NONE', #105, #59, #65, .T. ) ;
#254 = VERTEX_POINT ( 'NONE', #139 ) ;
#255 = CARTESIAN_POINT ( 'NONE',  ( 0.0000000000000000000, 13.99999999999999800, 0.0000000000000000000 ) ) ;
#256 = ADVANCED_FACE ( 'NONE', ( #148 ), #140, .T. ) ;
#257 = CARTESIAN_POINT ( 'NONE',  ( 0.0000000000000000000, 0.0000000000000000000, 0.0000000000000000000 ) ) ;
#258 = DIRECTION ( 'NONE',  ( 0.0000000000000000000, 0.0000000000000000000, -1.000000000000000000 ) ) ;
#259 =( LENGTH_UNIT ( ) NAMED_UNIT ( * ) SI_UNIT ( .MILLI., .METRE. ) );
#260 = AXIS2_PLACEMENT_3D ( 'NONE', #51, #228, #199 ) ;
#261 = DIRECTION ( 'NONE',  ( 0.0000000000000000000, 0.0000000000000000000, 1.000000000000000000 ) ) ;
#262 = DIRECTION ( 'NONE',  ( -0.0000000000000000000, -1.000000000000000000, -0.0000000000000000000 ) ) ;
#263 = DIRECTION ( 'NONE',  ( 0.0000000000000000000, 0.0000000000000000000, 1.000000000000000000 ) ) ;
#264 = CIRCLE ( 'NONE', #47, 1.000000000000000000 ) ;
#265 = CARTESIAN_POINT ( 'NONE',  ( 0.0000000000000000000, 13.39999999999999900, 0.0000000000000000000 ) ) ;
#266 = LINE ( 'NONE', #147, #109 ) ;
#267 = EDGE_CURVE ( 'NONE', #59, #144, #124, .T. ) ;
#268 = COLOUR_RGB ( '',0.7529411764705882200, 0.7529411764705882200, 0.7529411764705882200 ) ;
#269 = EDGE_LOOP ( 'NONE', ( #45, #2, #335, #298 ) ) ;
#270 = VECTOR ( 'NONE', #141, 1000.000000000000000 ) ;
#271 = STYLED_ITEM ( 'NONE', ( #241 ), #351 ) ;
#272 = VERTEX_POINT ( 'NONE', #143 ) ;
#273 = ORIENTED_EDGE ( 'NONE', *, *, #53, .F. ) ;
#274 = ORIENTED_EDGE ( 'NONE', *, *, #64, .F. ) ;
#275 = ORIENTED_EDGE ( 'NONE', *, *, #53, .T. ) ;
#276 = ORIENTED_EDGE ( 'NONE', *, *, #253, .F. ) ;
#277 = AXIS2_PLACEMENT_3D ( 'NONE', #108, #170, #99 ) ;
#278 = ORIENTED_EDGE ( 'NONE', *, *, #267, .F. ) ;
#279 = PRODUCT_DEFINITION_CONTEXT ( 'detailed design', #229, 'design' ) ;
#280 = DIRECTION ( 'NONE',  ( 0.0000000000000000000, 0.0000000000000000000, -1.000000000000000000 ) ) ;
#281 = DIRECTION ( 'NONE',  ( 0.0000000000000000000, -1.000000000000000000, -0.0000000000000000000 ) ) ;
#282 = ORIENTED_EDGE ( 'NONE', *, *, #167, .T. ) ;
#283 = APPLICATION_PROTOCOL_DEFINITION ( 'draft international standard', 'automotive_design', 1998, #229 ) ;
#284 = PRESENTATION_STYLE_ASSIGNMENT (( #180 ) ) ;
#285 = ADVANCED_FACE ( 'NONE', ( #367 ), #329, .T. ) ;
#286 = TOROIDAL_SURFACE ( 'NONE', #252, 1.226239569296599300, 0.5999999999999999800 ) ;
#287 = VERTEX_POINT ( 'NONE', #58 ) ;
#288 = ORIENTED_EDGE ( 'NONE', *, *, #83, .T. ) ;
#289 = DIRECTION ( 'NONE',  ( 0.0000000000000000000, 0.0000000000000000000, -1.000000000000000000 ) ) ;
#290 = PRESENTATION_LAYER_ASSIGNMENT (  '', '', ( #271 ) ) ;
#291 = EDGE_LOOP ( 'NONE', ( #125, #288 ) ) ;
#292 = CARTESIAN_POINT ( 'NONE',  ( 0.0000000000000000000, 0.0000000000000000000, 0.0000000000000000000 ) ) ;
#293 = DIRECTION ( 'NONE',  ( 0.0000000000000000000, 0.0000000000000000000, -1.000000000000000000 ) ) ;
#294 = AXIS2_PLACEMENT_3D ( 'NONE', #152, #320, #36 ) ;
#295 = ORIENTED_EDGE ( 'NONE', *, *, #167, .F. ) ;
#296 = VECTOR ( 'NONE', #302, 999.9999999999998900 ) ;
#297 = VERTEX_POINT ( 'NONE', #344 ) ;
#298 = ORIENTED_EDGE ( 'NONE', *, *, #130, .F. ) ;
#299 = AXIS2_PLACEMENT_3D ( 'NONE', #213, #251, #179 ) ;
#300 = ORIENTED_EDGE ( 'NONE', *, *, #315, .T. ) ;
#301 = EDGE_CURVE ( 'NONE', #48, #44, #266, .T. ) ;
#302 = DIRECTION ( 'NONE',  ( 6.123233995736782100E-017, -0.8660254037844380400, 0.5000000000000012200 ) ) ;
#303 = ORIENTED_EDGE ( 'NONE', *, *, #343, .T. ) ;
#304 = DIRECTION ( 'NONE',  ( 0.0000000000000000000, 0.0000000000000000000, -1.000000000000000000 ) ) ;
#305 =( GEOMETRIC_REPRESENTATION_CONTEXT ( 3 ) GLOBAL_UNCERTAINTY_ASSIGNED_CONTEXT ( ( #176 ) ) GLOBAL_UNIT_ASSIGNED_CONTEXT ( ( #28, #142, #224 ) ) REPRESENTATION_CONTEXT ( 'NONE', 'WORKASPACE' ) );
#306 = ADVANCED_FACE ( 'NONE', ( #193 ), #161, .T. ) ;
#307 = ORIENTED_EDGE ( 'NONE', *, *, #127, .T. ) ;
#308 = DIRECTION ( 'NONE',  ( 0.0000000000000000000, 1.000000000000000000, 0.0000000000000000000 ) ) ;
#309 = ORIENTED_EDGE ( 'NONE', *, *, #267, .T. ) ;
#310 = ORIENTED_EDGE ( 'NONE', *, *, #149, .F. ) ;
#311 = CLOSED_SHELL ( 'NONE', ( #196, #256, #100, #103, #306, #337, #285, #250, #186, #190, #26, #159, #342 ) ) ;
#312 = APPLICATION_CONTEXT ( 'automotive_design' ) ;
#313 = AXIS2_PLACEMENT_3D ( 'NONE', #257, #308, #192 ) ;
#314 = CARTESIAN_POINT ( 'NONE',  ( 0.0000000000000000000, 13.70000000000000100, 0.0000000000000000000 ) ) ;
#315 = EDGE_CURVE ( 'NONE', #59, #105, #244, .T. ) ;
#316 = DIRECTION ( 'NONE',  ( 0.0000000000000000000, 0.0000000000000000000, -1.000000000000000000 ) ) ;
#317 = DIRECTION ( 'NONE',  ( 0.0000000000000000000, 0.0000000000000000000, 1.000000000000000000 ) ) ;
#318 = ORIENTED_EDGE ( 'NONE', *, *, #325, .F. ) ;
#319 = DIRECTION ( 'NONE',  ( 0.0000000000000000000, 1.000000000000000000, 0.0000000000000000000 ) ) ;
#320 = DIRECTION ( 'NONE',  ( -0.0000000000000000000, -1.000000000000000000, -0.0000000000000000000 ) ) ;
#321 = EDGE_LOOP ( 'NONE', ( #220, #309, #113, #295 ) ) ;
#322 = DIRECTION ( 'NONE',  ( 0.0000000000000000000, 0.0000000000000000000, 1.000000000000000000 ) ) ;
#323 = CIRCLE ( 'NONE', #277, 1.000000000000000000 ) ;
#324 = MECHANICAL_DESIGN_GEOMETRIC_PRESENTATION_REPRESENTATION (  '', ( #271 ), #305 ) ;
#325 = EDGE_CURVE ( 'NONE', #41, #20, #82, .T. ) ;
#326 = UNCERTAINTY_MEASURE_WITH_UNIT (LENGTH_MEASURE( 1.000000000000000100E-005 ), #365, 'distance_accuracy_value', 'NONE');
#327 = ORIENTED_EDGE ( 'NONE', *, *, #343, .F. ) ;
#328 = UNCERTAINTY_MEASURE_WITH_UNIT (LENGTH_MEASURE( 1.000000000000000100E-005 ), #259, 'distance_accuracy_value', 'NONE');
#329 = CONICAL_SURFACE ( 'NONE', #121, 2.149999999999999900, 0.5235987755983002600 ) ;
#330 = DIRECTION ( 'NONE',  ( -0.0000000000000000000, -1.000000000000000000, -0.0000000000000000000 ) ) ;
#331 = PLANE ( 'NONE',  #146 ) ;
#332 = FACE_OUTER_BOUND ( 'NONE', #357, .T. ) ;
#333 = AXIS2_PLACEMENT_3D ( 'NONE', #46, #91, #95 ) ;
#334 = VECTOR ( 'NONE', #132, 1000.000000000000100 ) ;
#335 = ORIENTED_EDGE ( 'NONE', *, *, #158, .T. ) ;
#336 = DIRECTION ( 'NONE',  ( 0.0000000000000000000, 0.0000000000000000000, -1.000000000000000000 ) ) ;
#337 = ADVANCED_FACE ( 'NONE', ( #11 ), #60, .T. ) ;
#338 = PLANE ( 'NONE',  #248 ) ;
#339 = ORIENTED_EDGE ( 'NONE', *, *, #39, .T. ) ;
#340 =( NAMED_UNIT ( * ) PLANE_ANGLE_UNIT ( ) SI_UNIT ( $, .RADIAN. ) );
#341 = DIRECTION ( 'NONE',  ( 0.0000000000000000000, 0.0000000000000000000, 1.000000000000000000 ) ) ;
#342 = ADVANCED_FACE ( 'NONE', ( #366 ), #345, .T. ) ;
#343 = EDGE_CURVE ( 'NONE', #227, #48, #155, .T. ) ;
#344 = CARTESIAN_POINT ( 'NONE',  ( 1.819882935144380800E-016, 13.99999999999999800, -1.226239569296599300 ) ) ;
#345 = TOROIDAL_SURFACE ( 'NONE', #171, 1.226239569296599300, 0.5999999999999999800 ) ;
#346 = DIRECTION ( 'NONE',  ( -0.0000000000000000000, -1.000000000000000000, -0.0000000000000000000 ) ) ;
#347 = EDGE_LOOP ( 'NONE', ( #303, #119, #42, #156 ) ) ;
#348 = ORIENTED_EDGE ( 'NONE', *, *, #240, .T. ) ;
#349 = CARTESIAN_POINT ( 'NONE',  ( 0.0000000000000000000, 7.000000000000000000, 0.0000000000000000000 ) ) ;
#350 = ORIENTED_EDGE ( 'NONE', *, *, #83, .F. ) ;
#351 = ADVANCED_BREP_SHAPE_REPRESENTATION ( '42743~0', ( #4, #210 ), #1 ) ;
#352 = EDGE_LOOP ( 'NONE', ( #238, #150, #348, #123 ) ) ;
#353 = ORIENTED_EDGE ( 'NONE', *, *, #301, .F. ) ;
#354 = AXIS2_PLACEMENT_3D ( 'NONE', #57, #262, #80 ) ;
#355 = CIRCLE ( 'NONE', #114, 1.000000000000000000 ) ;
#356 = ORIENTED_EDGE ( 'NONE', *, *, #120, .T. ) ;
#357 = EDGE_LOOP ( 'NONE', ( #353, #275, #101, #243 ) ) ;
#358 = DIRECTION ( 'NONE',  ( -0.0000000000000000000, -1.000000000000000000, -0.0000000000000000000 ) ) ;
#359 = CIRCLE ( 'NONE', #68, 1.745854811567261900 ) ;
#360 = CIRCLE ( 'NONE', #333, 1.745854811567261900 ) ;
#361 = SURFACE_SIDE_STYLE ('',( #61 ) ) ;
#362 = CARTESIAN_POINT ( 'NONE',  ( 1.224646799147353200E-016, 6.999999999999999100, 1.000000000000000000 ) ) ;
#363 = CARTESIAN_POINT ( 'NONE',  ( 2.632990618166809200E-016, 0.0000000000000000000, 2.149999999999999900 ) ) ;
#364 = CIRCLE ( 'NONE', #106, 1.226239569296599300 ) ;
#365 =( LENGTH_UNIT ( ) NAMED_UNIT ( * ) SI_UNIT ( .MILLI., .METRE. ) );
#366 = FACE_OUTER_BOUND ( 'NONE', #352, .T. ) ;
#367 = FACE_OUTER_BOUND ( 'NONE', #269, .T. ) ;
#368 = EDGE_LOOP ( 'NONE', ( #232, #307, #67, #63 ) ) ;
#369 = DIRECTION ( 'NONE',  ( 0.0000000000000000000, 1.000000000000000000, 0.0000000000000000000 ) ) ;
#370 = CARTESIAN_POINT ( 'NONE',  ( 0.0000000000000000000, 13.00000000000000200, 0.0000000000000000000 ) ) ;
#371 = DIRECTION ( 'NONE',  ( 0.0000000000000000000, 0.0000000000000000000, -1.000000000000000000 ) ) ;
#372 = CIRCLE ( 'NONE', #18, 2.149999999999999900 ) ;
ENDSEC;
END-ISO-10303-21;
