ISO-10303-21;
HEADER;
FILE_DESCRIPTION (( 'STEP AP214' ),
    '1' );
FILE_NAME ('38892~0.STEP',
    '2017-07-04T09:03:50',
    ( '' ),
    ( '' ),
    'SwSTEP 2.0',
    'SolidWorks 2016',
    '' );
FILE_SCHEMA (( 'AUTOMOTIVE_DESIGN' ));
ENDSEC;

DATA;
#1 = FACE_OUTER_BOUND ( 'NONE', #32, .T. ) ;
#2 = EDGE_CURVE ( 'NONE', #205, #167, #353, .T. ) ;
#3 = DIRECTION ( 'NONE',  ( 0.0000000000000000000, 1.000000000000000000, 0.0000000000000000000 ) ) ;
#4 = MECHANICAL_DESIGN_GEOMETRIC_PRESENTATION_REPRESENTATION (  '', ( #97 ), #192 ) ;
#5 = CIRCLE ( 'NONE', #159, 1.445854811567261800 ) ;
#6 = EDGE_LOOP ( 'NONE', ( #266, #191, #60, #92 ) ) ;
#7 = DIRECTION ( 'NONE',  ( -0.0000000000000000000, -1.000000000000000000, -0.0000000000000000000 ) ) ;
#8 = DIRECTION ( 'NONE',  ( -0.0000000000000000000, -1.000000000000000000, -0.0000000000000000000 ) ) ;
#9 =( GEOMETRIC_REPRESENTATION_CONTEXT ( 3 ) GLOBAL_UNCERTAINTY_ASSIGNED_CONTEXT ( ( #34 ) ) GLOBAL_UNIT_ASSIGNED_CONTEXT ( ( #56, #58, #119 ) ) REPRESENTATION_CONTEXT ( 'NONE', 'WORKASPACE' ) );
#10 = CARTESIAN_POINT ( 'NONE',  ( 0.0000000000000000000, 13.00000000000000200, 0.0000000000000000000 ) ) ;
#11 = ORIENTED_EDGE ( 'NONE', *, *, #68, .T. ) ;
#12 = FILL_AREA_STYLE ('',( #213 ) ) ;
#13 = ADVANCED_FACE ( 'NONE', ( #275 ), #318, .T. ) ;
#14 = DIRECTION ( 'NONE',  ( 0.0000000000000000000, 0.0000000000000000000, -1.000000000000000000 ) ) ;
#15 = DIRECTION ( 'NONE',  ( -0.0000000000000000000, -1.000000000000000000, -0.0000000000000000000 ) ) ;
#16 = EDGE_LOOP ( 'NONE', ( #180, #286, #144, #301 ) ) ;
#17 = CARTESIAN_POINT ( 'NONE',  ( 2.265596578422603100E-016, 0.0000000000000000000, 1.850000000000000100 ) ) ;
#18 = CIRCLE ( 'NONE', #370, 1.850000000000000100 ) ;
#19 = DIRECTION ( 'NONE',  ( 0.0000000000000000000, 0.0000000000000000000, 1.000000000000000000 ) ) ;
#20 = AXIS2_PLACEMENT_3D ( 'NONE', #348, #95, #71 ) ;
#21 = DIRECTION ( 'NONE',  ( 1.224646799147353000E-016, 0.0000000000000000000, -1.000000000000000000 ) ) ;
#22 = PRODUCT ( '38892~0', '38892~0', '', ( #63 ) ) ;
#23 = DIRECTION ( 'NONE',  ( 0.0000000000000000000, 0.0000000000000000000, -1.000000000000000000 ) ) ;
#24 = ORIENTED_EDGE ( 'NONE', *, *, #179, .F. ) ;
#25 = APPLICATION_PROTOCOL_DEFINITION ( 'draft international standard', 'automotive_design', 1998, #341 ) ;
#26 = DIRECTION ( 'NONE',  ( 0.0000000000000000000, -1.000000000000000000, -0.0000000000000000000 ) ) ;
#27 = EDGE_CURVE ( 'NONE', #323, #205, #344, .T. ) ;
#28 = SURFACE_SIDE_STYLE ('',( #94 ) ) ;
#29 = CIRCLE ( 'NONE', #287, 1.000000000000000000 ) ;
#30 =( GEOMETRIC_REPRESENTATION_CONTEXT ( 3 ) GLOBAL_UNCERTAINTY_ASSIGNED_CONTEXT ( ( #231 ) ) GLOBAL_UNIT_ASSIGNED_CONTEXT ( ( #117, #343, #365 ) ) REPRESENTATION_CONTEXT ( 'NONE', 'WORKASPACE' ) );
#31 = FACE_OUTER_BOUND ( 'NONE', #83, .T. ) ;
#32 = EDGE_LOOP ( 'NONE', ( #223, #207, #233, #252 ) ) ;
#33 = ORIENTED_EDGE ( 'NONE', *, *, #313, .F. ) ;
#34 = UNCERTAINTY_MEASURE_WITH_UNIT (LENGTH_MEASURE( 1.000000000000000100E-005 ), #56, 'distance_accuracy_value', 'NONE');
#35 = AXIS2_PLACEMENT_3D ( 'NONE', #188, #8, #294 ) ;
#36 = ORIENTED_EDGE ( 'NONE', *, *, #236, .T. ) ;
#37 = DIRECTION ( 'NONE',  ( 0.0000000000000000000, 0.0000000000000000000, -1.000000000000000000 ) ) ;
#38 = CARTESIAN_POINT ( 'NONE',  ( 1.224646799147353200E-016, 0.0000000000000000000, 1.000000000000000000 ) ) ;
#39 = STYLED_ITEM ( 'NONE', ( #62 ), #170 ) ;
#40 = EDGE_CURVE ( 'NONE', #307, #107, #65, .T. ) ;
#41 = CIRCLE ( 'NONE', #121, 0.5000000000000022200 ) ;
#42 = VERTEX_POINT ( 'NONE', #156 ) ;
#43 = CARTESIAN_POINT ( 'NONE',  ( 1.272649730810373000, 13.99999999999999800, 0.0000000000000000000 ) ) ;
#44 = CARTESIAN_POINT ( 'NONE',  ( 0.0000000000000000000, 0.4999999999999995600, -1.000000000000000000 ) ) ;
#45 = DIRECTION ( 'NONE',  ( -0.0000000000000000000, -1.000000000000000000, -0.0000000000000000000 ) ) ;
#46 = CIRCLE ( 'NONE', #150, 1.850000000000000100 ) ;
#47 = CARTESIAN_POINT ( 'NONE',  ( 1.134316323782703600E-016, 13.39999999999999900, -0.9262395692965994500 ) ) ;
#48 = EDGE_CURVE ( 'NONE', #107, #307, #29, .T. ) ;
#49 = ORIENTED_EDGE ( 'NONE', *, *, #260, .F. ) ;
#50 = CARTESIAN_POINT ( 'NONE',  ( 0.0000000000000000000, 13.39999999999999900, 0.0000000000000000000 ) ) ;
#51 = PRODUCT_DEFINITION_SHAPE ( 'NONE', 'NONE',  #168 ) ;
#52 = CARTESIAN_POINT ( 'NONE',  ( 0.0000000000000000000, 13.00000000000000200, -1.850000000000000100 ) ) ;
#53 = FACE_OUTER_BOUND ( 'NONE', #291, .T. ) ;
#54 = ORIENTED_EDGE ( 'NONE', *, *, #313, .T. ) ;
#55 = CARTESIAN_POINT ( 'NONE',  ( 0.0000000000000000000, 13.99999999999999800, 0.9262395692965994500 ) ) ;
#56 =( LENGTH_UNIT ( ) NAMED_UNIT ( * ) SI_UNIT ( .MILLI., .METRE. ) );
#57 = AXIS2_PLACEMENT_3D ( 'NONE', #293, #190, #78 ) ;
#58 =( NAMED_UNIT ( * ) PLANE_ANGLE_UNIT ( ) SI_UNIT ( $, .RADIAN. ) );
#59 = CIRCLE ( 'NONE', #334, 0.9262395692965994500 ) ;
#60 = ORIENTED_EDGE ( 'NONE', *, *, #40, .T. ) ;
#61 = DIRECTION ( 'NONE',  ( 8.659560562354918100E-017, 0.7071067811865487900, -0.7071067811865463500 ) ) ;
#62 = PRESENTATION_STYLE_ASSIGNMENT (( #227 ) ) ;
#63 = PRODUCT_CONTEXT ( 'NONE', #90, 'mechanical' ) ;
#64 = CONICAL_SURFACE ( 'NONE', #174, 1.850000000000000100, 0.5235987755983002600 ) ;
#65 = CIRCLE ( 'NONE', #268, 1.000000000000000000 ) ;
#66 = CYLINDRICAL_SURFACE ( 'NONE', #358, 1.850000000000000100 ) ;
#67 = ORIENTED_EDGE ( 'NONE', *, *, #279, .T. ) ;
#68 = EDGE_CURVE ( 'NONE', #210, #157, #248, .T. ) ;
#69 = AXIS2_PLACEMENT_3D ( 'NONE', #80, #85, #196 ) ;
#70 = CYLINDRICAL_SURFACE ( 'NONE', #35, 1.850000000000000100 ) ;
#71 = DIRECTION ( 'NONE',  ( 0.0000000000000000000, 0.0000000000000000000, 1.000000000000000000 ) ) ;
#72 = VECTOR ( 'NONE', #265, 1000.000000000000000 ) ;
#73 = DIRECTION ( 'NONE',  ( 0.0000000000000000000, -0.0000000000000000000, 1.000000000000000000 ) ) ;
#74 = PRODUCT_RELATED_PRODUCT_CATEGORY ( 'part', '', ( #22 ) ) ;
#75 = CARTESIAN_POINT ( 'NONE',  ( 1.452488895400175400E-016, 13.99999999999999800, -0.9262395692965994500 ) ) ;
#76 = EDGE_CURVE ( 'NONE', #347, #195, #96, .T. ) ;
#77 = FACE_BOUND ( 'NONE', #218, .T. ) ;
#78 = DIRECTION ( 'NONE',  ( 0.0000000000000000000, 0.0000000000000000000, 1.000000000000000000 ) ) ;
#79 = ADVANCED_FACE ( 'NONE', ( #184 ), #70, .T. ) ;
#80 = CARTESIAN_POINT ( 'NONE',  ( 1.000000000000000000, 6.999999999999999100, 0.0000000000000000000 ) ) ;
#81 = DIRECTION ( 'NONE',  ( 0.0000000000000000000, 1.000000000000000000, 0.0000000000000000000 ) ) ;
#82 = DIRECTION ( 'NONE',  ( 6.123233995736782100E-017, -0.8660254037844380400, 0.5000000000000012200 ) ) ;
#83 = EDGE_LOOP ( 'NONE', ( #306, #122, #270, #261 ) ) ;
#84 = ADVANCED_FACE ( 'NONE', ( #162 ), #64, .T. ) ;
#85 = DIRECTION ( 'NONE',  ( 0.0000000000000000000, -1.000000000000000000, -0.0000000000000000000 ) ) ;
#86 = CARTESIAN_POINT ( 'NONE',  ( 0.0000000000000000000, 0.0000000000000000000, 0.0000000000000000000 ) ) ;
#87 = DIRECTION ( 'NONE',  ( -0.0000000000000000000, -1.000000000000000000, -0.0000000000000000000 ) ) ;
#88 = EDGE_CURVE ( 'NONE', #131, #42, #166, .T. ) ;
#89 = CARTESIAN_POINT ( 'NONE',  ( 0.0000000000000000000, 0.0000000000000000000, 0.0000000000000000000 ) ) ;
#90 = APPLICATION_CONTEXT ( 'automotive_design' ) ;
#91 = AXIS2_PLACEMENT_3D ( 'NONE', #219, #250, #274 ) ;
#92 = ORIENTED_EDGE ( 'NONE', *, *, #340, .F. ) ;
#93 = ORIENTED_EDGE ( 'NONE', *, *, #372, .T. ) ;
#94 = SURFACE_STYLE_FILL_AREA ( #367 ) ;
#95 = DIRECTION ( 'NONE',  ( 0.0000000000000000000, 1.000000000000000000, 0.0000000000000000000 ) ) ;
#96 = CIRCLE ( 'NONE', #153, 1.000000000000000000 ) ;
#97 = STYLED_ITEM ( 'NONE', ( #228 ), #132 ) ;
#98 = DIRECTION ( 'NONE',  ( 0.0000000000000000000, 0.0000000000000000000, -1.000000000000000000 ) ) ;
#99 = ORIENTED_EDGE ( 'NONE', *, *, #183, .T. ) ;
#100 = CARTESIAN_POINT ( 'NONE',  ( 0.0000000000000000000, 0.0000000000000000000, 0.0000000000000000000 ) ) ;
#101 = ORIENTED_EDGE ( 'NONE', *, *, #297, .T. ) ;
#102 = COLOUR_RGB ( '',0.7529411764705882200, 0.7529411764705882200, 0.7529411764705882200 ) ;
#103 = CARTESIAN_POINT ( 'NONE',  ( 2.265596578422603100E-016, 13.00000000000000200, 1.850000000000000100 ) ) ;
#104 = CARTESIAN_POINT ( 'NONE',  ( 2.018129022720124800E-016, 13.69999999999999900, 1.445854811567261800 ) ) ;
#105 = DIRECTION ( 'NONE',  ( 1.000000000000000000, -0.0000000000000000000, 1.224646799147353200E-016 ) ) ;
#106 = VECTOR ( 'NONE', #221, 1000.000000000000000 ) ;
#107 = VERTEX_POINT ( 'NONE', #44 ) ;
#108 = AXIS2_PLACEMENT_3D ( 'NONE', #220, #333, #14 ) ;
#109 = ADVANCED_FACE ( 'NONE', ( #284 ), #356, .T. ) ;
#110 = DIRECTION ( 'NONE',  ( -0.0000000000000000000, -1.000000000000000000, -0.0000000000000000000 ) ) ;
#111 = VECTOR ( 'NONE', #175, 1000.000000000000000 ) ;
#112 = DIRECTION ( 'NONE',  ( 0.0000000000000000000, 0.7071067811865487900, 0.7071067811865463500 ) ) ;
#113 = VERTEX_POINT ( 'NONE', #129 ) ;
#114 = ORIENTED_EDGE ( 'NONE', *, *, #48, .T. ) ;
#115 = CARTESIAN_POINT ( 'NONE',  ( 0.0000000000000000000, 13.69999999999999900, -1.445854811567261800 ) ) ;
#116 = AXIS2_PLACEMENT_3D ( 'NONE', #100, #45, #263 ) ;
#117 =( LENGTH_UNIT ( ) NAMED_UNIT ( * ) SI_UNIT ( .MILLI., .METRE. ) );
#118 = EDGE_LOOP ( 'NONE', ( #285, #258, #354, #49 ) ) ;
#119 =( NAMED_UNIT ( * ) SI_UNIT ( $, .STERADIAN. ) SOLID_ANGLE_UNIT ( ) );
#120 = VECTOR ( 'NONE', #7, 1000.000000000000000 ) ;
#121 = AXIS2_PLACEMENT_3D ( 'NONE', #148, #281, #200 ) ;
#122 = ORIENTED_EDGE ( 'NONE', *, *, #260, .T. ) ;
#123 = EDGE_CURVE ( 'NONE', #323, #143, #5, .T. ) ;
#124 = FACE_OUTER_BOUND ( 'NONE', #290, .T. ) ;
#125 = ORIENTED_EDGE ( 'NONE', *, *, #76, .F. ) ;
#126 = AXIS2_PLACEMENT_3D ( 'NONE', #338, #176, #173 ) ;
#127 = DIRECTION ( 'NONE',  ( 0.0000000000000000000, 1.000000000000000000, 0.0000000000000000000 ) ) ;
#128 = CARTESIAN_POINT ( 'NONE',  ( 0.0000000000000000000, 13.00000000000000200, -1.850000000000000100 ) ) ;
#129 = CARTESIAN_POINT ( 'NONE',  ( 2.265596578422603100E-016, 7.000000000000000000, 1.850000000000000100 ) ) ;
#130 = VECTOR ( 'NONE', #82, 999.9999999999998900 ) ;
#131 = VERTEX_POINT ( 'NONE', #193 ) ;
#132 = MANIFOLD_SOLID_BREP ( 'Verrundung1', #171 ) ;
#133 = DIRECTION ( 'NONE',  ( 0.0000000000000000000, 0.0000000000000000000, 1.000000000000000000 ) ) ;
#134 = ADVANCED_FACE ( 'NONE', ( #289 ), #154, .T. ) ;
#135 = PRESENTATION_LAYER_ASSIGNMENT (  '', '', ( #97 ) ) ;
#136 = CARTESIAN_POINT ( 'NONE',  ( 0.0000000000000000000, 0.0000000000000000000, 0.0000000000000000000 ) ) ;
#137 = ADVANCED_FACE ( 'NONE', ( #1 ), #273, .T. ) ;
#138 = LINE ( 'NONE', #103, #130 ) ;
#139 = CARTESIAN_POINT ( 'NONE',  ( 2.265596578422603100E-016, 13.00000000000000200, 1.850000000000000100 ) ) ;
#140 = DIRECTION ( 'NONE',  ( 0.0000000000000000000, 0.0000000000000000000, -1.000000000000000000 ) ) ;
#141 = DIRECTION ( 'NONE',  ( 0.0000000000000000000, 0.0000000000000000000, -1.000000000000000000 ) ) ;
#142 = DIRECTION ( 'NONE',  ( -0.0000000000000000000, -1.000000000000000000, -0.0000000000000000000 ) ) ;
#143 = VERTEX_POINT ( 'NONE', #104 ) ;
#144 = ORIENTED_EDGE ( 'NONE', *, *, #253, .T. ) ;
#145 = MECHANICAL_DESIGN_GEOMETRIC_PRESENTATION_REPRESENTATION (  '', ( #39 ), #9 ) ;
#146 = DIRECTION ( 'NONE',  ( 0.0000000000000000000, 0.0000000000000000000, -1.000000000000000000 ) ) ;
#147 = CIRCLE ( 'NONE', #259, 1.000000000000000000 ) ;
#148 = CARTESIAN_POINT ( 'NONE',  ( 0.0000000000000000000, 0.0000000000000000000, 0.0000000000000000000 ) ) ;
#149 = EDGE_CURVE ( 'NONE', #347, #307, #206, .T. ) ;
#150 = AXIS2_PLACEMENT_3D ( 'NONE', #164, #142, #305 ) ;
#151 = ORIENTED_EDGE ( 'NONE', *, *, #316, .T. ) ;
#152 = CYLINDRICAL_SURFACE ( 'NONE', #299, 1.000000000000000000 ) ;
#153 = AXIS2_PLACEMENT_3D ( 'NONE', #160, #267, #98 ) ;
#154 = CYLINDRICAL_SURFACE ( 'NONE', #116, 1.000000000000000000 ) ;
#155 = COLOUR_RGB ( '',0.7529411764705882200, 0.7529411764705882200, 0.7529411764705882200 ) ;
#156 = CARTESIAN_POINT ( 'NONE',  ( 9.184850993605162000E-017, 0.0000000000000000000, -0.5000000000000022200 ) ) ;
#157 = VERTEX_POINT ( 'NONE', #75 ) ;
#158 =( NAMED_UNIT ( * ) PLANE_ANGLE_UNIT ( ) SI_UNIT ( $, .RADIAN. ) );
#159 = AXIS2_PLACEMENT_3D ( 'NONE', #296, #349, #133 ) ;
#160 = CARTESIAN_POINT ( 'NONE',  ( 0.0000000000000000000, 6.999999999999999100, 0.0000000000000000000 ) ) ;
#161 = DIRECTION ( 'NONE',  ( 0.0000000000000000000, 0.0000000000000000000, -1.000000000000000000 ) ) ;
#162 = FACE_OUTER_BOUND ( 'NONE', #330, .T. ) ;
#163 = ORIENTED_EDGE ( 'NONE', *, *, #271, .F. ) ;
#164 = CARTESIAN_POINT ( 'NONE',  ( 0.0000000000000000000, 13.00000000000000200, 0.0000000000000000000 ) ) ;
#165 = EDGE_CURVE ( 'NONE', #205, #189, #246, .T. ) ;
#166 = CIRCLE ( 'NONE', #345, 0.5000000000000022200 ) ;
#167 = VERTEX_POINT ( 'NONE', #326 ) ;
#168 = PRODUCT_DEFINITION ( 'UNKNOWN', '', #222, #350 ) ;
#169 = CARTESIAN_POINT ( 'NONE',  ( 0.0000000000000000000, 6.999999999999999100, 0.0000000000000000000 ) ) ;
#170 = ADVANCED_BREP_SHAPE_REPRESENTATION ( '38892~0', ( #132, #126 ), #30 ) ;
#171 = CLOSED_SHELL ( 'NONE', ( #298, #245, #332, #79, #84, #109, #243, #357, #216, #134, #304, #13, #137 ) ) ;
#172 = ORIENTED_EDGE ( 'NONE', *, *, #88, .T. ) ;
#173 = DIRECTION ( 'NONE',  ( 1.000000000000000000, 0.0000000000000000000, 0.0000000000000000000 ) ) ;
#174 = AXIS2_PLACEMENT_3D ( 'NONE', #10, #325, #212 ) ;
#175 = DIRECTION ( 'NONE',  ( -0.0000000000000000000, -1.000000000000000000, -0.0000000000000000000 ) ) ;
#176 = DIRECTION ( 'NONE',  ( 0.0000000000000000000, 0.0000000000000000000, 1.000000000000000000 ) ) ;
#177 = CIRCLE ( 'NONE', #315, 1.445854811567261800 ) ;
#178 = ORIENTED_EDGE ( 'NONE', *, *, #253, .F. ) ;
#179 = EDGE_CURVE ( 'NONE', #143, #210, #351, .T. ) ;
#180 = ORIENTED_EDGE ( 'NONE', *, *, #316, .F. ) ;
#181 = EDGE_LOOP ( 'NONE', ( #368, #101, #311, #360 ) ) ;
#182 = LINE ( 'NONE', #17, #106 ) ;
#183 = EDGE_CURVE ( 'NONE', #143, #189, #138, .T. ) ;
#184 = FACE_OUTER_BOUND ( 'NONE', #181, .T. ) ;
#185 = SURFACE_STYLE_USAGE ( .BOTH. , #319 ) ;
#186 = DIRECTION ( 'NONE',  ( -0.0000000000000000000, -1.000000000000000000, -0.0000000000000000000 ) ) ;
#187 = LINE ( 'NONE', #201, #111 ) ;
#188 = CARTESIAN_POINT ( 'NONE',  ( 0.0000000000000000000, 0.0000000000000000000, 0.0000000000000000000 ) ) ;
#189 = VERTEX_POINT ( 'NONE', #139 ) ;
#190 = DIRECTION ( 'NONE',  ( 0.0000000000000000000, 1.000000000000000000, 0.0000000000000000000 ) ) ;
#191 = ORIENTED_EDGE ( 'NONE', *, *, #149, .T. ) ;
#192 =( GEOMETRIC_REPRESENTATION_CONTEXT ( 3 ) GLOBAL_UNCERTAINTY_ASSIGNED_CONTEXT ( ( #362 ) ) GLOBAL_UNIT_ASSIGNED_CONTEXT ( ( #238, #158, #241 ) ) REPRESENTATION_CONTEXT ( 'NONE', 'WORKASPACE' ) );
#193 = CARTESIAN_POINT ( 'NONE',  ( 0.0000000000000000000, 0.0000000000000000000, 0.5000000000000022200 ) ) ;
#194 = CONICAL_SURFACE ( 'NONE', #324, 0.5000000000000022200, 0.7853981633974466100 ) ;
#195 = VERTEX_POINT ( 'NONE', #247 ) ;
#196 = DIRECTION ( 'NONE',  ( 0.0000000000000000000, 0.0000000000000000000, -1.000000000000000000 ) ) ;
#197 = DIRECTION ( 'NONE',  ( 0.0000000000000000000, 0.0000000000000000000, -1.000000000000000000 ) ) ;
#198 = CARTESIAN_POINT ( 'NONE',  ( 0.0000000000000000000, 13.99999999999999800, 0.0000000000000000000 ) ) ;
#199 = VECTOR ( 'NONE', #211, 999.9999999999998900 ) ;
#200 = DIRECTION ( 'NONE',  ( 0.0000000000000000000, 0.0000000000000000000, -1.000000000000000000 ) ) ;
#201 = CARTESIAN_POINT ( 'NONE',  ( 0.0000000000000000000, 0.0000000000000000000, -1.000000000000000000 ) ) ;
#202 = PLANE ( 'NONE',  #230 ) ;
#203 = AXIS2_PLACEMENT_3D ( 'NONE', #355, #320, #215 ) ;
#204 = TOROIDAL_SURFACE ( 'NONE', #282, 0.9262395692965994500, 0.5999999999999999800 ) ;
#205 = VERTEX_POINT ( 'NONE', #52 ) ;
#206 = LINE ( 'NONE', #38, #120 ) ;
#207 = ORIENTED_EDGE ( 'NONE', *, *, #214, .F. ) ;
#208 = DIRECTION ( 'NONE',  ( 0.0000000000000000000, 0.0000000000000000000, -1.000000000000000000 ) ) ;
#209 = ORIENTED_EDGE ( 'NONE', *, *, #149, .F. ) ;
#210 = VERTEX_POINT ( 'NONE', #55 ) ;
#211 = DIRECTION ( 'NONE',  ( 0.0000000000000000000, -0.8660254037844380400, -0.5000000000000012200 ) ) ;
#212 = DIRECTION ( 'NONE',  ( 0.0000000000000000000, 0.0000000000000000000, -1.000000000000000000 ) ) ;
#213 = FILL_AREA_STYLE_COLOUR ( '', #155 ) ;
#214 = EDGE_CURVE ( 'NONE', #143, #323, #177, .T. ) ;
#215 = DIRECTION ( 'NONE',  ( 0.0000000000000000000, 0.0000000000000000000, 1.000000000000000000 ) ) ;
#216 = ADVANCED_FACE ( 'NONE', ( #53, #77 ), #272, .T. ) ;
#217 = VECTOR ( 'NONE', #112, 1000.000000000000000 ) ;
#218 = EDGE_LOOP ( 'NONE', ( #163, #125 ) ) ;
#219 = CARTESIAN_POINT ( 'NONE',  ( 0.0000000000000000000, 13.39999999999999900, 0.9262395692965994500 ) ) ;
#220 = CARTESIAN_POINT ( 'NONE',  ( 0.0000000000000000000, 7.000000000000000000, 0.0000000000000000000 ) ) ;
#221 = DIRECTION ( 'NONE',  ( -0.0000000000000000000, -1.000000000000000000, -0.0000000000000000000 ) ) ;
#222 = PRODUCT_DEFINITION_FORMATION_WITH_SPECIFIED_SOURCE ( 'ANY', '', #22, .NOT_KNOWN. ) ;
#223 = ORIENTED_EDGE ( 'NONE', *, *, #236, .F. ) ;
#224 = CARTESIAN_POINT ( 'NONE',  ( 0.0000000000000000000, 13.00000000000000200, 0.0000000000000000000 ) ) ;
#225 = DIRECTION ( 'NONE',  ( -0.0000000000000000000, -1.000000000000000000, -0.0000000000000000000 ) ) ;
#226 = AXIS2_PLACEMENT_3D ( 'NONE', #327, #186, #197 ) ;
#227 = SURFACE_STYLE_USAGE ( .BOTH. , #28 ) ;
#228 = PRESENTATION_STYLE_ASSIGNMENT (( #185 ) ) ;
#229 = ORIENTED_EDGE ( 'NONE', *, *, #76, .T. ) ;
#230 = AXIS2_PLACEMENT_3D ( 'NONE', #308, #26, #146 ) ;
#231 = UNCERTAINTY_MEASURE_WITH_UNIT (LENGTH_MEASURE( 1.000000000000000100E-005 ), #117, 'distance_accuracy_value', 'NONE');
#232 = EDGE_CURVE ( 'NONE', #157, #210, #59, .T. ) ;
#233 = ORIENTED_EDGE ( 'NONE', *, *, #179, .T. ) ;
#234 = EDGE_LOOP ( 'NONE', ( #11, #239 ) ) ;
#235 = CARTESIAN_POINT ( 'NONE',  ( 0.0000000000000000000, 0.4999999999999995600, 0.0000000000000000000 ) ) ;
#236 = EDGE_CURVE ( 'NONE', #323, #157, #295, .T. ) ;
#237 = DIRECTION ( 'NONE',  ( -0.0000000000000000000, -1.000000000000000000, -0.0000000000000000000 ) ) ;
#238 =( LENGTH_UNIT ( ) NAMED_UNIT ( * ) SI_UNIT ( .MILLI., .METRE. ) );
#239 = ORIENTED_EDGE ( 'NONE', *, *, #232, .T. ) ;
#240 = ORIENTED_EDGE ( 'NONE', *, *, #340, .T. ) ;
#241 =( NAMED_UNIT ( * ) SI_UNIT ( $, .STERADIAN. ) SOLID_ANGLE_UNIT ( ) );
#242 = AXIS2_PLACEMENT_3D ( 'NONE', #224, #244, #140 ) ;
#243 = ADVANCED_FACE ( 'NONE', ( #317 ), #364, .T. ) ;
#244 = DIRECTION ( 'NONE',  ( -0.0000000000000000000, -1.000000000000000000, -0.0000000000000000000 ) ) ;
#245 = ADVANCED_FACE ( 'NONE', ( #124 ), #194, .T. ) ;
#246 = CIRCLE ( 'NONE', #226, 1.850000000000000100 ) ;
#247 = CARTESIAN_POINT ( 'NONE',  ( 0.0000000000000000000, 6.999999999999999100, -1.000000000000000000 ) ) ;
#248 = CIRCLE ( 'NONE', #203, 0.9262395692965994500 ) ;
#249 = SHAPE_DEFINITION_REPRESENTATION ( #51, #170 ) ;
#250 = DIRECTION ( 'NONE',  ( -1.000000000000000000, 0.0000000000000000000, 0.0000000000000000000 ) ) ;
#251 = CARTESIAN_POINT ( 'NONE',  ( 0.0000000000000000000, 13.69999999999999900, 0.0000000000000000000 ) ) ;
#252 = ORIENTED_EDGE ( 'NONE', *, *, #232, .F. ) ;
#253 = EDGE_CURVE ( 'NONE', #131, #307, #346, .T. ) ;
#254 = DIRECTION ( 'NONE',  ( 0.0000000000000000000, 0.0000000000000000000, -1.000000000000000000 ) ) ;
#255 = APPLICATION_PROTOCOL_DEFINITION ( 'draft international standard', 'automotive_design', 1998, #90 ) ;
#256 = ORIENTED_EDGE ( 'NONE', *, *, #40, .F. ) ;
#257 = FACE_OUTER_BOUND ( 'NONE', #337, .T. ) ;
#258 = ORIENTED_EDGE ( 'NONE', *, *, #214, .T. ) ;
#259 = AXIS2_PLACEMENT_3D ( 'NONE', #169, #15, #141 ) ;
#260 = EDGE_CURVE ( 'NONE', #189, #205, #46, .T. ) ;
#261 = ORIENTED_EDGE ( 'NONE', *, *, #372, .F. ) ;
#262 = PRESENTATION_LAYER_ASSIGNMENT (  '', '', ( #39 ) ) ;
#263 = DIRECTION ( 'NONE',  ( 0.0000000000000000000, 0.0000000000000000000, -1.000000000000000000 ) ) ;
#264 = SURFACE_STYLE_FILL_AREA ( #12 ) ;
#265 = DIRECTION ( 'NONE',  ( -0.0000000000000000000, -1.000000000000000000, -0.0000000000000000000 ) ) ;
#266 = ORIENTED_EDGE ( 'NONE', *, *, #271, .T. ) ;
#267 = DIRECTION ( 'NONE',  ( -0.0000000000000000000, -1.000000000000000000, -0.0000000000000000000 ) ) ;
#268 = AXIS2_PLACEMENT_3D ( 'NONE', #235, #127, #37 ) ;
#269 = FACE_OUTER_BOUND ( 'NONE', #342, .T. ) ;
#270 = ORIENTED_EDGE ( 'NONE', *, *, #2, .T. ) ;
#271 = EDGE_CURVE ( 'NONE', #195, #347, #147, .T. ) ;
#272 = PLANE ( 'NONE',  #69 ) ;
#273 = TOROIDAL_SURFACE ( 'NONE', #57, 0.9262395692965994500, 0.5999999999999999800 ) ;
#274 = DIRECTION ( 'NONE',  ( 0.0000000000000000000, 0.0000000000000000000, 1.000000000000000000 ) ) ;
#275 = FACE_OUTER_BOUND ( 'NONE', #16, .T. ) ;
#276 = ORIENTED_EDGE ( 'NONE', *, *, #68, .F. ) ;
#277 = CARTESIAN_POINT ( 'NONE',  ( 0.0000000000000000000, 0.0000000000000000000, 0.0000000000000000000 ) ) ;
#278 = CARTESIAN_POINT ( 'NONE',  ( 1.224646799147353200E-016, 0.4999999999999995600, 1.000000000000000000 ) ) ;
#279 = EDGE_CURVE ( 'NONE', #167, #113, #328, .T. ) ;
#280 = ORIENTED_EDGE ( 'NONE', *, *, #27, .F. ) ;
#281 = DIRECTION ( 'NONE',  ( -0.0000000000000000000, -1.000000000000000000, -0.0000000000000000000 ) ) ;
#282 = AXIS2_PLACEMENT_3D ( 'NONE', #50, #303, #359 ) ;
#283 = CARTESIAN_POINT ( 'NONE',  ( 0.0000000000000000000, 7.000000000000000000, 0.0000000000000000000 ) ) ;
#284 = FACE_OUTER_BOUND ( 'NONE', #234, .T. ) ;
#285 = ORIENTED_EDGE ( 'NONE', *, *, #183, .F. ) ;
#286 = ORIENTED_EDGE ( 'NONE', *, *, #88, .F. ) ;
#287 = AXIS2_PLACEMENT_3D ( 'NONE', #292, #3, #208 ) ;
#288 = CARTESIAN_POINT ( 'NONE',  ( 0.0000000000000000000, 0.0000000000000000000, -1.850000000000000100 ) ) ;
#289 = FACE_OUTER_BOUND ( 'NONE', #369, .T. ) ;
#290 = EDGE_LOOP ( 'NONE', ( #33, #151, #256, #178 ) ) ;
#291 = EDGE_LOOP ( 'NONE', ( #67, #93 ) ) ;
#292 = CARTESIAN_POINT ( 'NONE',  ( 0.0000000000000000000, 0.4999999999999995600, 0.0000000000000000000 ) ) ;
#293 = CARTESIAN_POINT ( 'NONE',  ( 0.0000000000000000000, 13.39999999999999900, 0.0000000000000000000 ) ) ;
#294 = DIRECTION ( 'NONE',  ( 0.0000000000000000000, 0.0000000000000000000, -1.000000000000000000 ) ) ;
#295 = CIRCLE ( 'NONE', #363, 0.5999999999999999800 ) ;
#296 = CARTESIAN_POINT ( 'NONE',  ( 0.0000000000000000000, 13.69999999999999900, 0.0000000000000000000 ) ) ;
#297 = EDGE_CURVE ( 'NONE', #189, #113, #182, .T. ) ;
#298 = ADVANCED_FACE ( 'NONE', ( #257 ), #204, .T. ) ;
#299 = AXIS2_PLACEMENT_3D ( 'NONE', #86, #225, #312 ) ;
#300 = DIRECTION ( 'NONE',  ( 0.0000000000000000000, 1.000000000000000000, 0.0000000000000000000 ) ) ;
#301 = ORIENTED_EDGE ( 'NONE', *, *, #48, .F. ) ;
#302 = ORIENTED_EDGE ( 'NONE', *, *, #123, .F. ) ;
#303 = DIRECTION ( 'NONE',  ( 0.0000000000000000000, 1.000000000000000000, 0.0000000000000000000 ) ) ;
#304 = ADVANCED_FACE ( 'NONE', ( #269 ), #202, .T. ) ;
#305 = DIRECTION ( 'NONE',  ( 0.0000000000000000000, 0.0000000000000000000, -1.000000000000000000 ) ) ;
#306 = ORIENTED_EDGE ( 'NONE', *, *, #297, .F. ) ;
#307 = VERTEX_POINT ( 'NONE', #278 ) ;
#308 = CARTESIAN_POINT ( 'NONE',  ( 0.0000000000000000000, 0.0000000000000000000, 0.0000000000000000000 ) ) ;
#309 = CARTESIAN_POINT ( 'NONE',  ( 6.123233995736791900E-017, 0.0000000000000000000, -0.5000000000000022200 ) ) ;
#310 = CARTESIAN_POINT ( 'NONE',  ( 1.224646799147353200E-016, 6.999999999999999100, 1.000000000000000000 ) ) ;
#311 = ORIENTED_EDGE ( 'NONE', *, *, #279, .F. ) ;
#312 = DIRECTION ( 'NONE',  ( 0.0000000000000000000, 0.0000000000000000000, -1.000000000000000000 ) ) ;
#313 = EDGE_CURVE ( 'NONE', #42, #131, #41, .T. ) ;
#314 = ORIENTED_EDGE ( 'NONE', *, *, #165, .F. ) ;
#315 = AXIS2_PLACEMENT_3D ( 'NONE', #251, #110, #329 ) ;
#316 = EDGE_CURVE ( 'NONE', #42, #107, #322, .T. ) ;
#317 = FACE_OUTER_BOUND ( 'NONE', #118, .T. ) ;
#318 = CONICAL_SURFACE ( 'NONE', #20, 0.5000000000000022200, 0.7853981633974466100 ) ;
#319 = SURFACE_SIDE_STYLE ('',( #264 ) ) ;
#320 = DIRECTION ( 'NONE',  ( 0.0000000000000000000, 1.000000000000000000, 0.0000000000000000000 ) ) ;
#321 = DIRECTION ( 'NONE',  ( 0.0000000000000000000, 1.000000000000000000, 0.0000000000000000000 ) ) ;
#322 = LINE ( 'NONE', #309, #336 ) ;
#323 = VERTEX_POINT ( 'NONE', #115 ) ;
#324 = AXIS2_PLACEMENT_3D ( 'NONE', #277, #300, #19 ) ;
#325 = DIRECTION ( 'NONE',  ( -0.0000000000000000000, -1.000000000000000000, -0.0000000000000000000 ) ) ;
#326 = CARTESIAN_POINT ( 'NONE',  ( 0.0000000000000000000, 7.000000000000000000, -1.850000000000000100 ) ) ;
#327 = CARTESIAN_POINT ( 'NONE',  ( 0.0000000000000000000, 13.00000000000000200, 0.0000000000000000000 ) ) ;
#328 = CIRCLE ( 'NONE', #108, 1.850000000000000100 ) ;
#329 = DIRECTION ( 'NONE',  ( 0.0000000000000000000, 0.0000000000000000000, 1.000000000000000000 ) ) ;
#330 = EDGE_LOOP ( 'NONE', ( #361, #99, #314, #280 ) ) ;
#331 = CARTESIAN_POINT ( 'NONE',  ( 0.0000000000000000000, 0.0000000000000000000, 0.5000000000000022200 ) ) ;
#332 = ADVANCED_FACE ( 'NONE', ( #371 ), #152, .T. ) ;
#333 = DIRECTION ( 'NONE',  ( -0.0000000000000000000, -1.000000000000000000, -0.0000000000000000000 ) ) ;
#334 = AXIS2_PLACEMENT_3D ( 'NONE', #198, #81, #335 ) ;
#335 = DIRECTION ( 'NONE',  ( 0.0000000000000000000, 0.0000000000000000000, 1.000000000000000000 ) ) ;
#336 = VECTOR ( 'NONE', #61, 1000.000000000000000 ) ;
#337 = EDGE_LOOP ( 'NONE', ( #302, #36, #276, #24 ) ) ;
#338 = CARTESIAN_POINT ( 'NONE',  ( 0.0000000000000000000, 0.0000000000000000000, 0.0000000000000000000 ) ) ;
#339 = DIRECTION ( 'NONE',  ( -0.0000000000000000000, -1.000000000000000000, -0.0000000000000000000 ) ) ;
#340 = EDGE_CURVE ( 'NONE', #195, #107, #187, .T. ) ;
#341 = APPLICATION_CONTEXT ( 'automotive_design' ) ;
#342 = EDGE_LOOP ( 'NONE', ( #172, #54 ) ) ;
#343 =( NAMED_UNIT ( * ) PLANE_ANGLE_UNIT ( ) SI_UNIT ( $, .RADIAN. ) );
#344 = LINE ( 'NONE', #128, #199 ) ;
#345 = AXIS2_PLACEMENT_3D ( 'NONE', #136, #237, #161 ) ;
#346 = LINE ( 'NONE', #331, #217 ) ;
#347 = VERTEX_POINT ( 'NONE', #310 ) ;
#348 = CARTESIAN_POINT ( 'NONE',  ( 0.0000000000000000000, 0.0000000000000000000, 0.0000000000000000000 ) ) ;
#349 = DIRECTION ( 'NONE',  ( -0.0000000000000000000, -1.000000000000000000, -0.0000000000000000000 ) ) ;
#350 = PRODUCT_DEFINITION_CONTEXT ( 'detailed design', #341, 'design' ) ;
#351 = CIRCLE ( 'NONE', #91, 0.5999999999999999800 ) ;
#352 = AXIS2_PLACEMENT_3D ( 'NONE', #43, #321, #73 ) ;
#353 = LINE ( 'NONE', #288, #72 ) ;
#354 = ORIENTED_EDGE ( 'NONE', *, *, #27, .T. ) ;
#355 = CARTESIAN_POINT ( 'NONE',  ( 0.0000000000000000000, 13.99999999999999800, 0.0000000000000000000 ) ) ;
#356 = PLANE ( 'NONE',  #352 ) ;
#357 = ADVANCED_FACE ( 'NONE', ( #31 ), #66, .T. ) ;
#358 = AXIS2_PLACEMENT_3D ( 'NONE', #89, #339, #23 ) ;
#359 = DIRECTION ( 'NONE',  ( 0.0000000000000000000, 0.0000000000000000000, 1.000000000000000000 ) ) ;
#360 = ORIENTED_EDGE ( 'NONE', *, *, #2, .F. ) ;
#361 = ORIENTED_EDGE ( 'NONE', *, *, #123, .T. ) ;
#362 = UNCERTAINTY_MEASURE_WITH_UNIT (LENGTH_MEASURE( 1.000000000000000100E-005 ), #238, 'distance_accuracy_value', 'NONE');
#363 = AXIS2_PLACEMENT_3D ( 'NONE', #47, #105, #21 ) ;
#364 = CONICAL_SURFACE ( 'NONE', #242, 1.850000000000000100, 0.5235987755983002600 ) ;
#365 =( NAMED_UNIT ( * ) SI_UNIT ( $, .STERADIAN. ) SOLID_ANGLE_UNIT ( ) );
#366 = FILL_AREA_STYLE_COLOUR ( '', #102 ) ;
#367 = FILL_AREA_STYLE ('',( #366 ) ) ;
#368 = ORIENTED_EDGE ( 'NONE', *, *, #165, .T. ) ;
#369 = EDGE_LOOP ( 'NONE', ( #209, #229, #240, #114 ) ) ;
#370 = AXIS2_PLACEMENT_3D ( 'NONE', #283, #87, #254 ) ;
#371 = FACE_OUTER_BOUND ( 'NONE', #6, .T. ) ;
#372 = EDGE_CURVE ( 'NONE', #113, #167, #18, .T. ) ;
ENDSEC;
END-ISO-10303-21;
