ISO-10303-21;
HEADER;
FILE_DESCRIPTION (( 'STEP AP214' ),
    '1' );
FILE_NAME ('38882~0.STEP',
    '2017-07-04T08:58:09',
    ( '' ),
    ( '' ),
    'SwSTEP 2.0',
    'SolidWorks 2016',
    '' );
FILE_SCHEMA (( 'AUTOMOTIVE_DESIGN' ));
ENDSEC;

DATA;
#1 = CARTESIAN_POINT ( 'NONE',  ( 0.0000000000000000000, 0.0000000000000000000, 0.0000000000000000000 ) ) ;
#2 = VECTOR ( 'NONE', #212, 999.9999999999998900 ) ;
#3 = DIRECTION ( 'NONE',  ( 0.0000000000000000000, 0.0000000000000000000, -1.000000000000000000 ) ) ;
#4 = VERTEX_POINT ( 'NONE', #303 ) ;
#5 = AXIS2_PLACEMENT_3D ( 'NONE', #223, #75, #44 ) ;
#6 = DIRECTION ( 'NONE',  ( 0.0000000000000000000, 0.0000000000000000000, -1.000000000000000000 ) ) ;
#7 = SURFACE_SIDE_STYLE ('',( #252 ) ) ;
#8 = DIRECTION ( 'NONE',  ( 0.0000000000000000000, 1.000000000000000000, 0.0000000000000000000 ) ) ;
#9 = EDGE_CURVE ( 'NONE', #364, #96, #225, .T. ) ;
#10 = CARTESIAN_POINT ( 'NONE',  ( 1.405805623146447900E-016, 13.69999999999999900, 0.9458548115672613700 ) ) ;
#11 =( GEOMETRIC_REPRESENTATION_CONTEXT ( 3 ) GLOBAL_UNCERTAINTY_ASSIGNED_CONTEXT ( ( #312 ) ) GLOBAL_UNIT_ASSIGNED_CONTEXT ( ( #23, #249, #78 ) ) REPRESENTATION_CONTEXT ( 'NONE', 'WORKASPACE' ) );
#12 = EDGE_LOOP ( 'NONE', ( #162, #84, #190, #294 ) ) ;
#13 = ADVANCED_FACE ( 'NONE', ( #60 ), #365, .T. ) ;
#14 = EDGE_LOOP ( 'NONE', ( #269, #218, #76, #188 ) ) ;
#15 = EDGE_CURVE ( 'NONE', #167, #364, #117, .T. ) ;
#16 = ADVANCED_FACE ( 'NONE', ( #95 ), #345, .T. ) ;
#17 = STYLED_ITEM ( 'NONE', ( #216 ), #284 ) ;
#18 = DIRECTION ( 'NONE',  ( -0.0000000000000000000, -1.000000000000000000, -0.0000000000000000000 ) ) ;
#19 = ORIENTED_EDGE ( 'NONE', *, *, #231, .F. ) ;
#20 = LINE ( 'NONE', #289, #169 ) ;
#21 = PRESENTATION_STYLE_ASSIGNMENT (( #239 ) ) ;
#22 = EDGE_LOOP ( 'NONE', ( #357, #235, #123, #285 ) ) ;
#23 =( LENGTH_UNIT ( ) NAMED_UNIT ( * ) SI_UNIT ( .MILLI., .METRE. ) );
#24 = AXIS2_PLACEMENT_3D ( 'NONE', #47, #273, #334 ) ;
#25 = VERTEX_POINT ( 'NONE', #139 ) ;
#26 = ORIENTED_EDGE ( 'NONE', *, *, #87, .F. ) ;
#27 = DIRECTION ( 'NONE',  ( 6.123233995736782100E-017, -0.8660254037844380400, 0.5000000000000012200 ) ) ;
#28 = LINE ( 'NONE', #154, #125 ) ;
#29 = DIRECTION ( 'NONE',  ( 0.0000000000000000000, 1.000000000000000000, 0.0000000000000000000 ) ) ;
#30 = CARTESIAN_POINT ( 'NONE',  ( 0.0000000000000000000, 7.000000000000000000, 0.0000000000000000000 ) ) ;
#31 = CYLINDRICAL_SURFACE ( 'NONE', #178, 1.000000000000000000 ) ;
#32 = AXIS2_PLACEMENT_3D ( 'NONE', #1, #341, #3 ) ;
#33 = DIRECTION ( 'NONE',  ( 0.0000000000000000000, 0.0000000000000000000, 1.000000000000000000 ) ) ;
#34 = EDGE_CURVE ( 'NONE', #131, #4, #320, .T. ) ;
#35 = COLOUR_RGB ( '',0.7529411764705882200, 0.7529411764705882200, 0.7529411764705882200 ) ;
#36 = ORIENTED_EDGE ( 'NONE', *, *, #45, .F. ) ;
#37 = DIRECTION ( 'NONE',  ( 0.0000000000000000000, 0.0000000000000000000, -1.000000000000000000 ) ) ;
#38 = ADVANCED_FACE ( 'NONE', ( #200 ), #234, .T. ) ;
#39 = AXIS2_PLACEMENT_3D ( 'NONE', #278, #29, #310 ) ;
#40 = CIRCLE ( 'NONE', #32, 0.5000000000000004400 ) ;
#41 = ORIENTED_EDGE ( 'NONE', *, *, #132, .F. ) ;
#42 = ADVANCED_FACE ( 'NONE', ( #205 ), #31, .T. ) ;
#43 = FACE_OUTER_BOUND ( 'NONE', #213, .T. ) ;
#44 = DIRECTION ( 'NONE',  ( 0.0000000000000000000, 0.0000000000000000000, -1.000000000000000000 ) ) ;
#45 = EDGE_CURVE ( 'NONE', #4, #131, #128, .T. ) ;
#46 = LINE ( 'NONE', #251, #105 ) ;
#47 = CARTESIAN_POINT ( 'NONE',  ( 0.0000000000000000000, 6.999999999999999100, 0.0000000000000000000 ) ) ;
#48 =( GEOMETRIC_REPRESENTATION_CONTEXT ( 3 ) GLOBAL_UNCERTAINTY_ASSIGNED_CONTEXT ( ( #163 ) ) GLOBAL_UNIT_ASSIGNED_CONTEXT ( ( #274, #335, #143 ) ) REPRESENTATION_CONTEXT ( 'NONE', 'WORKASPACE' ) );
#49 = UNCERTAINTY_MEASURE_WITH_UNIT (LENGTH_MEASURE( 1.000000000000000100E-005 ), #124, 'distance_accuracy_value', 'NONE');
#50 = ORIENTED_EDGE ( 'NONE', *, *, #293, .F. ) ;
#51 = EDGE_CURVE ( 'NONE', #299, #287, #79, .T. ) ;
#52 = ORIENTED_EDGE ( 'NONE', *, *, #147, .T. ) ;
#53 = DIRECTION ( 'NONE',  ( 0.0000000000000000000, 0.0000000000000000000, 1.000000000000000000 ) ) ;
#54 = DIRECTION ( 'NONE',  ( 1.000000000000000000, -0.0000000000000000000, 1.224646799147353200E-016 ) ) ;
#55 = ORIENTED_EDGE ( 'NONE', *, *, #93, .F. ) ;
#56 = CARTESIAN_POINT ( 'NONE',  ( 1.000000000000000000, 6.999999999999999100, 0.0000000000000000000 ) ) ;
#57 = DIRECTION ( 'NONE',  ( 0.0000000000000000000, 0.0000000000000000000, -1.000000000000000000 ) ) ;
#58 = DIRECTION ( 'NONE',  ( -0.0000000000000000000, -1.000000000000000000, -0.0000000000000000000 ) ) ;
#59 = DIRECTION ( 'NONE',  ( 0.0000000000000000000, 0.0000000000000000000, -1.000000000000000000 ) ) ;
#60 = FACE_OUTER_BOUND ( 'NONE', #363, .T. ) ;
#61 = AXIS2_PLACEMENT_3D ( 'NONE', #283, #177, #57 ) ;
#62 = CARTESIAN_POINT ( 'NONE',  ( 0.0000000000000000000, 13.69999999999999900, -0.9458548115672613700 ) ) ;
#63 = DIRECTION ( 'NONE',  ( -0.0000000000000000000, -1.000000000000000000, -0.0000000000000000000 ) ) ;
#64 = PLANE ( 'NONE',  #88 ) ;
#65 = ORIENTED_EDGE ( 'NONE', *, *, #313, .F. ) ;
#66 = EDGE_CURVE ( 'NONE', #277, #25, #40, .T. ) ;
#67 = LINE ( 'NONE', #134, #359 ) ;
#68 = ADVANCED_FACE ( 'NONE', ( #130, #314 ), #179, .T. ) ;
#69 =( GEOMETRIC_REPRESENTATION_CONTEXT ( 3 ) GLOBAL_UNCERTAINTY_ASSIGNED_CONTEXT ( ( #49 ) ) GLOBAL_UNIT_ASSIGNED_CONTEXT ( ( #124, #257, #92 ) ) REPRESENTATION_CONTEXT ( 'NONE', 'WORKASPACE' ) );
#70 = CIRCLE ( 'NONE', #296, 0.4262395692965994500 ) ;
#71 = ORIENTED_EDGE ( 'NONE', *, *, #254, .T. ) ;
#72 = EDGE_CURVE ( 'NONE', #287, #299, #121, .T. ) ;
#73 = CYLINDRICAL_SURFACE ( 'NONE', #149, 1.350000000000000100 ) ;
#74 = ADVANCED_FACE ( 'NONE', ( #337 ), #350, .T. ) ;
#75 = DIRECTION ( 'NONE',  ( 0.0000000000000000000, 1.000000000000000000, 0.0000000000000000000 ) ) ;
#76 = ORIENTED_EDGE ( 'NONE', *, *, #93, .T. ) ;
#77 = PRODUCT_DEFINITION_CONTEXT ( 'detailed design', #109, 'design' ) ;
#78 =( NAMED_UNIT ( * ) SI_UNIT ( $, .STERADIAN. ) SOLID_ANGLE_UNIT ( ) );
#79 = CIRCLE ( 'NONE', #215, 1.350000000000000100 ) ;
#80 = ORIENTED_EDGE ( 'NONE', *, *, #66, .F. ) ;
#81 = DIRECTION ( 'NONE',  ( 0.0000000000000000000, -1.000000000000000000, -0.0000000000000000000 ) ) ;
#82 = CARTESIAN_POINT ( 'NONE',  ( 0.0000000000000000000, 13.00000000000000200, 0.0000000000000000000 ) ) ;
#83 = AXIS2_PLACEMENT_3D ( 'NONE', #214, #344, #319 ) ;
#84 = ORIENTED_EDGE ( 'NONE', *, *, #103, .T. ) ;
#85 = DIRECTION ( 'NONE',  ( 0.0000000000000000000, 0.0000000000000000000, -1.000000000000000000 ) ) ;
#86 = LINE ( 'NONE', #323, #347 ) ;
#87 = EDGE_CURVE ( 'NONE', #25, #277, #183, .T. ) ;
#88 = AXIS2_PLACEMENT_3D ( 'NONE', #181, #8, #126 ) ;
#89 = FACE_OUTER_BOUND ( 'NONE', #14, .T. ) ;
#90 = EDGE_LOOP ( 'NONE', ( #346, #354 ) ) ;
#91 = FILL_AREA_STYLE ('',( #156 ) ) ;
#92 =( NAMED_UNIT ( * ) SI_UNIT ( $, .STERADIAN. ) SOLID_ANGLE_UNIT ( ) );
#93 = EDGE_CURVE ( 'NONE', #210, #315, #258, .T. ) ;
#94 = CARTESIAN_POINT ( 'NONE',  ( 0.0000000000000000000, 13.00000000000000200, -1.350000000000000100 ) ) ;
#95 = FACE_OUTER_BOUND ( 'NONE', #12, .T. ) ;
#96 = VERTEX_POINT ( 'NONE', #372 ) ;
#97 = CARTESIAN_POINT ( 'NONE',  ( 0.0000000000000000000, 13.99999999999999800, 0.0000000000000000000 ) ) ;
#98 = CYLINDRICAL_SURFACE ( 'NONE', #83, 1.000000000000000000 ) ;
#99 = AXIS2_PLACEMENT_3D ( 'NONE', #101, #195, #298 ) ;
#100 = ORIENTED_EDGE ( 'NONE', *, *, #366, .F. ) ;
#101 = CARTESIAN_POINT ( 'NONE',  ( 0.0000000000000000000, 13.39999999999999900, 0.4262395692965994500 ) ) ;
#102 = DIRECTION ( 'NONE',  ( 0.0000000000000000000, 0.0000000000000000000, 1.000000000000000000 ) ) ;
#103 = EDGE_CURVE ( 'NONE', #172, #371, #329, .T. ) ;
#104 = FILL_AREA_STYLE_COLOUR ( '', #292 ) ;
#105 = VECTOR ( 'NONE', #122, 1000.000000000000000 ) ;
#106 = CARTESIAN_POINT ( 'NONE',  ( 0.0000000000000000000, 13.00000000000000200, 0.0000000000000000000 ) ) ;
#107 = AXIS2_PLACEMENT_3D ( 'NONE', #356, #268, #272 ) ;
#108 = CARTESIAN_POINT ( 'NONE',  ( 0.0000000000000000000, 13.99999999999999800, 0.0000000000000000000 ) ) ;
#109 = APPLICATION_CONTEXT ( 'automotive_design' ) ;
#110 = EDGE_CURVE ( 'NONE', #172, #167, #151, .T. ) ;
#111 = CYLINDRICAL_SURFACE ( 'NONE', #318, 1.350000000000000100 ) ;
#112 = EDGE_LOOP ( 'NONE', ( #80, #266, #55, #50 ) ) ;
#113 = DIRECTION ( 'NONE',  ( -0.0000000000000000000, -1.000000000000000000, -0.0000000000000000000 ) ) ;
#114 = APPLICATION_CONTEXT ( 'automotive_design' ) ;
#115 = DIRECTION ( 'NONE',  ( 0.0000000000000000000, 0.0000000000000000000, -1.000000000000000000 ) ) ;
#116 = AXIS2_PLACEMENT_3D ( 'NONE', #82, #173, #171 ) ;
#117 = CIRCLE ( 'NONE', #207, 0.5999999999999999800 ) ;
#118 = CARTESIAN_POINT ( 'NONE',  ( 0.0000000000000000000, 0.0000000000000000000, 0.0000000000000000000 ) ) ;
#119 = CARTESIAN_POINT ( 'NONE',  ( 0.0000000000000000000, 6.999999999999999100, 0.0000000000000000000 ) ) ;
#120 = PRESENTATION_LAYER_ASSIGNMENT (  '', '', ( #264 ) ) ;
#121 = CIRCLE ( 'NONE', #193, 1.350000000000000100 ) ;
#122 = DIRECTION ( 'NONE',  ( -0.0000000000000000000, -1.000000000000000000, -0.0000000000000000000 ) ) ;
#123 = ORIENTED_EDGE ( 'NONE', *, *, #243, .T. ) ;
#124 =( LENGTH_UNIT ( ) NAMED_UNIT ( * ) SI_UNIT ( .MILLI., .METRE. ) );
#125 = VECTOR ( 'NONE', #286, 999.9999999999998900 ) ;
#126 = DIRECTION ( 'NONE',  ( 0.0000000000000000000, -0.0000000000000000000, 1.000000000000000000 ) ) ;
#127 = DIRECTION ( 'NONE',  ( 0.0000000000000000000, 0.0000000000000000000, 1.000000000000000000 ) ) ;
#128 = CIRCLE ( 'NONE', #136, 1.000000000000000000 ) ;
#129 = AXIS2_PLACEMENT_3D ( 'NONE', #192, #53, #279 ) ;
#130 = FACE_OUTER_BOUND ( 'NONE', #90, .T. ) ;
#131 = VERTEX_POINT ( 'NONE', #253 ) ;
#132 = EDGE_CURVE ( 'NONE', #96, #364, #70, .T. ) ;
#133 = CIRCLE ( 'NONE', #5, 1.000000000000000000 ) ;
#134 = CARTESIAN_POINT ( 'NONE',  ( 1.224646799147353200E-016, 0.0000000000000000000, 1.000000000000000000 ) ) ;
#135 = EDGE_LOOP ( 'NONE', ( #221, #295, #71, #263 ) ) ;
#136 = AXIS2_PLACEMENT_3D ( 'NONE', #119, #146, #282 ) ;
#137 = DIRECTION ( 'NONE',  ( -0.0000000000000000000, -1.000000000000000000, -0.0000000000000000000 ) ) ;
#138 = CARTESIAN_POINT ( 'NONE',  ( 1.653273178848926900E-016, 7.000000000000000000, 1.350000000000000100 ) ) ;
#139 = CARTESIAN_POINT ( 'NONE',  ( 0.0000000000000000000, 0.0000000000000000000, 0.5000000000000004400 ) ) ;
#140 = ORIENTED_EDGE ( 'NONE', *, *, #51, .F. ) ;
#141 = CARTESIAN_POINT ( 'NONE',  ( 0.0000000000000000000, 0.0000000000000000000, 0.0000000000000000000 ) ) ;
#142 = AXIS2_PLACEMENT_3D ( 'NONE', #271, #196, #224 ) ;
#143 =( NAMED_UNIT ( * ) SI_UNIT ( $, .STERADIAN. ) SOLID_ANGLE_UNIT ( ) );
#144 = DIRECTION ( 'NONE',  ( -0.0000000000000000000, -1.000000000000000000, -0.0000000000000000000 ) ) ;
#145 = ORIENTED_EDGE ( 'NONE', *, *, #34, .F. ) ;
#146 = DIRECTION ( 'NONE',  ( -0.0000000000000000000, -1.000000000000000000, -0.0000000000000000000 ) ) ;
#147 = EDGE_CURVE ( 'NONE', #371, #287, #46, .T. ) ;
#148 = CARTESIAN_POINT ( 'NONE',  ( 0.0000000000000000000, 7.000000000000000000, 0.0000000000000000000 ) ) ;
#149 = AXIS2_PLACEMENT_3D ( 'NONE', #331, #166, #358 ) ;
#150 = DIRECTION ( 'NONE',  ( -0.0000000000000000000, -1.000000000000000000, -0.0000000000000000000 ) ) ;
#151 = CIRCLE ( 'NONE', #325, 0.9458548115672613700 ) ;
#152 = CLOSED_SHELL ( 'NONE', ( #324, #38, #187, #327, #16, #241, #165, #161, #68, #42, #13, #74, #328 ) ) ;
#153 = CIRCLE ( 'NONE', #99, 0.5999999999999999800 ) ;
#154 = CARTESIAN_POINT ( 'NONE',  ( 0.0000000000000000000, 13.00000000000000200, -1.350000000000000100 ) ) ;
#155 = EDGE_CURVE ( 'NONE', #277, #315, #340, .T. ) ;
#156 = FILL_AREA_STYLE_COLOUR ( '', #35 ) ;
#157 = CARTESIAN_POINT ( 'NONE',  ( 9.184850993605152100E-017, 0.0000000000000000000, -0.5000000000000004400 ) ) ;
#158 = EDGE_LOOP ( 'NONE', ( #201, #26, #194, #281 ) ) ;
#159 = DIRECTION ( 'NONE',  ( -0.0000000000000000000, -1.000000000000000000, -0.0000000000000000000 ) ) ;
#160 = AXIS2_PLACEMENT_3D ( 'NONE', #297, #220, #102 ) ;
#161 = ADVANCED_FACE ( 'NONE', ( #217 ), #111, .T. ) ;
#162 = ORIENTED_EDGE ( 'NONE', *, *, #231, .T. ) ;
#163 = UNCERTAINTY_MEASURE_WITH_UNIT (LENGTH_MEASURE( 1.000000000000000100E-005 ), #274, 'distance_accuracy_value', 'NONE');
#164 = AXIS2_PLACEMENT_3D ( 'NONE', #106, #137, #362 ) ;
#165 = ADVANCED_FACE ( 'NONE', ( #248 ), #180, .T. ) ;
#166 = DIRECTION ( 'NONE',  ( -0.0000000000000000000, -1.000000000000000000, -0.0000000000000000000 ) ) ;
#167 = VERTEX_POINT ( 'NONE', #62 ) ;
#168 = CARTESIAN_POINT ( 'NONE',  ( 0.0000000000000000000, 7.000000000000000000, -1.350000000000000100 ) ) ;
#169 = VECTOR ( 'NONE', #321, 1000.000000000000000 ) ;
#170 = AXIS2_PLACEMENT_3D ( 'NONE', #108, #198, #369 ) ;
#171 = DIRECTION ( 'NONE',  ( 0.0000000000000000000, 0.0000000000000000000, -1.000000000000000000 ) ) ;
#172 = VERTEX_POINT ( 'NONE', #10 ) ;
#173 = DIRECTION ( 'NONE',  ( -0.0000000000000000000, -1.000000000000000000, -0.0000000000000000000 ) ) ;
#174 = ORIENTED_EDGE ( 'NONE', *, *, #243, .F. ) ;
#175 = APPLICATION_PROTOCOL_DEFINITION ( 'draft international standard', 'automotive_design', 1998, #109 ) ;
#176 = MECHANICAL_DESIGN_GEOMETRIC_PRESENTATION_REPRESENTATION (  '', ( #264 ), #69 ) ;
#177 = DIRECTION ( 'NONE',  ( 0.0000000000000000000, 1.000000000000000000, 0.0000000000000000000 ) ) ;
#178 = AXIS2_PLACEMENT_3D ( 'NONE', #118, #58, #59 ) ;
#179 = PLANE ( 'NONE',  #301 ) ;
#180 = CONICAL_SURFACE ( 'NONE', #353, 1.350000000000000100, 0.5235987755983002600 ) ;
#181 = CARTESIAN_POINT ( 'NONE',  ( 0.7726497308103730300, 13.99999999999999800, 0.0000000000000000000 ) ) ;
#182 = PRODUCT_DEFINITION_FORMATION_WITH_SPECIFIED_SOURCE ( 'ANY', '', #291, .NOT_KNOWN. ) ;
#183 = CIRCLE ( 'NONE', #232, 0.5000000000000004400 ) ;
#184 = EDGE_LOOP ( 'NONE', ( #145, #36 ) ) ;
#185 = DIRECTION ( 'NONE',  ( -0.0000000000000000000, -1.000000000000000000, -0.0000000000000000000 ) ) ;
#186 = CARTESIAN_POINT ( 'NONE',  ( 0.0000000000000000000, 13.00000000000000200, 0.0000000000000000000 ) ) ;
#187 = ADVANCED_FACE ( 'NONE', ( #89 ), #98, .T. ) ;
#188 = ORIENTED_EDGE ( 'NONE', *, *, #211, .F. ) ;
#189 = MANIFOLD_SOLID_BREP ( 'Verrundung1', #152 ) ;
#190 = ORIENTED_EDGE ( 'NONE', *, *, #352, .F. ) ;
#191 = CARTESIAN_POINT ( 'NONE',  ( 0.0000000000000000000, 13.00000000000000200, 0.0000000000000000000 ) ) ;
#192 = CARTESIAN_POINT ( 'NONE',  ( 0.0000000000000000000, 0.0000000000000000000, 0.0000000000000000000 ) ) ;
#193 = AXIS2_PLACEMENT_3D ( 'NONE', #30, #144, #233 ) ;
#194 = ORIENTED_EDGE ( 'NONE', *, *, #293, .T. ) ;
#195 = DIRECTION ( 'NONE',  ( -1.000000000000000000, 0.0000000000000000000, 0.0000000000000000000 ) ) ;
#196 = DIRECTION ( 'NONE',  ( 0.0000000000000000000, 1.000000000000000000, 0.0000000000000000000 ) ) ;
#197 = CARTESIAN_POINT ( 'NONE',  ( 1.653273178848926900E-016, 13.00000000000000200, 1.350000000000000100 ) ) ;
#198 = DIRECTION ( 'NONE',  ( 0.0000000000000000000, 1.000000000000000000, 0.0000000000000000000 ) ) ;
#199 = SURFACE_STYLE_USAGE ( .BOTH. , #308 ) ;
#200 = FACE_OUTER_BOUND ( 'NONE', #112, .T. ) ;
#201 = ORIENTED_EDGE ( 'NONE', *, *, #155, .F. ) ;
#202 = DIRECTION ( 'NONE',  ( 0.0000000000000000000, 0.0000000000000000000, -1.000000000000000000 ) ) ;
#203 = CIRCLE ( 'NONE', #164, 1.350000000000000100 ) ;
#204 = CARTESIAN_POINT ( 'NONE',  ( 6.123233995736772200E-017, 0.0000000000000000000, -0.5000000000000004400 ) ) ;
#205 = FACE_OUTER_BOUND ( 'NONE', #238, .T. ) ;
#206 = CARTESIAN_POINT ( 'NONE',  ( 0.0000000000000000000, 13.69999999999999900, 0.0000000000000000000 ) ) ;
#207 = AXIS2_PLACEMENT_3D ( 'NONE', #228, #54, #360 ) ;
#208 = FACE_OUTER_BOUND ( 'NONE', #135, .T. ) ;
#209 = ORIENTED_EDGE ( 'NONE', *, *, #254, .F. ) ;
#210 = VERTEX_POINT ( 'NONE', #256 ) ;
#211 = EDGE_CURVE ( 'NONE', #131, #315, #229, .T. ) ;
#212 = DIRECTION ( 'NONE',  ( 8.659560562354918100E-017, 0.7071067811865489100, -0.7071067811865462400 ) ) ;
#213 = EDGE_LOOP ( 'NONE', ( #19, #265, #41, #209 ) ) ;
#214 = CARTESIAN_POINT ( 'NONE',  ( 0.0000000000000000000, 0.0000000000000000000, 0.0000000000000000000 ) ) ;
#215 = AXIS2_PLACEMENT_3D ( 'NONE', #148, #113, #115 ) ;
#216 = PRESENTATION_STYLE_ASSIGNMENT (( #199 ) ) ;
#217 = FACE_OUTER_BOUND ( 'NONE', #22, .T. ) ;
#218 = ORIENTED_EDGE ( 'NONE', *, *, #313, .T. ) ;
#219 = PRODUCT_DEFINITION ( 'UNKNOWN', '', #182, #77 ) ;
#220 = DIRECTION ( 'NONE',  ( 0.0000000000000000000, 1.000000000000000000, 0.0000000000000000000 ) ) ;
#221 = ORIENTED_EDGE ( 'NONE', *, *, #15, .F. ) ;
#222 = EDGE_CURVE ( 'NONE', #167, #276, #28, .T. ) ;
#223 = CARTESIAN_POINT ( 'NONE',  ( 0.0000000000000000000, 0.5000000000000014400, 0.0000000000000000000 ) ) ;
#224 = DIRECTION ( 'NONE',  ( 0.0000000000000000000, 0.0000000000000000000, 1.000000000000000000 ) ) ;
#225 = CIRCLE ( 'NONE', #170, 0.4262395692965994500 ) ;
#226 = ORIENTED_EDGE ( 'NONE', *, *, #352, .T. ) ;
#227 = CIRCLE ( 'NONE', #361, 1.350000000000000100 ) ;
#228 = CARTESIAN_POINT ( 'NONE',  ( 5.219929242090269900E-017, 13.39999999999999900, -0.4262395692965994500 ) ) ;
#229 = LINE ( 'NONE', #348, #306 ) ;
#230 = ORIENTED_EDGE ( 'NONE', *, *, #87, .T. ) ;
#231 = EDGE_CURVE ( 'NONE', #167, #172, #311, .T. ) ;
#232 = AXIS2_PLACEMENT_3D ( 'NONE', #370, #150, #255 ) ;
#233 = DIRECTION ( 'NONE',  ( 0.0000000000000000000, 0.0000000000000000000, -1.000000000000000000 ) ) ;
#234 = CONICAL_SURFACE ( 'NONE', #142, 0.5000000000000004400, 0.7853981633974465000 ) ;
#235 = ORIENTED_EDGE ( 'NONE', *, *, #366, .T. ) ;
#236 = DIRECTION ( 'NONE',  ( -0.0000000000000000000, -1.000000000000000000, -0.0000000000000000000 ) ) ;
#237 = PRODUCT_RELATED_PRODUCT_CATEGORY ( 'part', '', ( #291 ) ) ;
#238 = EDGE_LOOP ( 'NONE', ( #65, #250, #355, #304 ) ) ;
#239 = SURFACE_STYLE_USAGE ( .BOTH. , #7 ) ;
#240 = AXIS2_PLACEMENT_3D ( 'NONE', #141, #81, #202 ) ;
#241 = ADVANCED_FACE ( 'NONE', ( #260 ), #64, .T. ) ;
#242 = MECHANICAL_DESIGN_GEOMETRIC_PRESENTATION_REPRESENTATION (  '', ( #17 ), #48 ) ;
#243 = EDGE_CURVE ( 'NONE', #276, #299, #20, .T. ) ;
#244 = ORIENTED_EDGE ( 'NONE', *, *, #103, .F. ) ;
#245 = EDGE_CURVE ( 'NONE', #315, #210, #133, .T. ) ;
#246 = DIRECTION ( 'NONE',  ( -0.0000000000000000000, -1.000000000000000000, -0.0000000000000000000 ) ) ;
#247 = PRESENTATION_LAYER_ASSIGNMENT (  '', '', ( #17 ) ) ;
#248 = FACE_OUTER_BOUND ( 'NONE', #332, .T. ) ;
#249 =( NAMED_UNIT ( * ) PLANE_ANGLE_UNIT ( ) SI_UNIT ( $, .RADIAN. ) );
#250 = ORIENTED_EDGE ( 'NONE', *, *, #45, .T. ) ;
#251 = CARTESIAN_POINT ( 'NONE',  ( 1.653273178848926900E-016, 0.0000000000000000000, 1.350000000000000100 ) ) ;
#252 = SURFACE_STYLE_FILL_AREA ( #91 ) ;
#253 = CARTESIAN_POINT ( 'NONE',  ( 0.0000000000000000000, 6.999999999999999100, -1.000000000000000000 ) ) ;
#254 = EDGE_CURVE ( 'NONE', #172, #96, #153, .T. ) ;
#255 = DIRECTION ( 'NONE',  ( 0.0000000000000000000, 0.0000000000000000000, -1.000000000000000000 ) ) ;
#256 = CARTESIAN_POINT ( 'NONE',  ( 1.224646799147353200E-016, 0.5000000000000014400, 1.000000000000000000 ) ) ;
#257 =( NAMED_UNIT ( * ) PLANE_ANGLE_UNIT ( ) SI_UNIT ( $, .RADIAN. ) );
#258 = CIRCLE ( 'NONE', #61, 1.000000000000000000 ) ;
#259 = ORIENTED_EDGE ( 'NONE', *, *, #110, .T. ) ;
#260 = FACE_OUTER_BOUND ( 'NONE', #330, .T. ) ;
#261 = CARTESIAN_POINT ( 'NONE',  ( 0.0000000000000000000, 13.69999999999999900, 0.0000000000000000000 ) ) ;
#262 = DIRECTION ( 'NONE',  ( 0.0000000000000000000, 1.000000000000000000, 0.0000000000000000000 ) ) ;
#263 = ORIENTED_EDGE ( 'NONE', *, *, #9, .F. ) ;
#264 = STYLED_ITEM ( 'NONE', ( #21 ), #189 ) ;
#265 = ORIENTED_EDGE ( 'NONE', *, *, #15, .T. ) ;
#266 = ORIENTED_EDGE ( 'NONE', *, *, #155, .T. ) ;
#267 = FACE_OUTER_BOUND ( 'NONE', #307, .T. ) ;
#268 = DIRECTION ( 'NONE',  ( 0.0000000000000000000, 1.000000000000000000, 0.0000000000000000000 ) ) ;
#269 = ORIENTED_EDGE ( 'NONE', *, *, #34, .T. ) ;
#270 = CARTESIAN_POINT ( 'NONE',  ( 8.401654958264989600E-017, 13.99999999999999800, -0.4262395692965994500 ) ) ;
#271 = CARTESIAN_POINT ( 'NONE',  ( 0.0000000000000000000, 0.0000000000000000000, 0.0000000000000000000 ) ) ;
#272 = DIRECTION ( 'NONE',  ( 0.0000000000000000000, 0.0000000000000000000, 1.000000000000000000 ) ) ;
#273 = DIRECTION ( 'NONE',  ( -0.0000000000000000000, -1.000000000000000000, -0.0000000000000000000 ) ) ;
#274 =( LENGTH_UNIT ( ) NAMED_UNIT ( * ) SI_UNIT ( .MILLI., .METRE. ) );
#275 = PRODUCT_CONTEXT ( 'NONE', #114, 'mechanical' ) ;
#276 = VERTEX_POINT ( 'NONE', #94 ) ;
#277 = VERTEX_POINT ( 'NONE', #157 ) ;
#278 = CARTESIAN_POINT ( 'NONE',  ( 0.0000000000000000000, 0.0000000000000000000, 0.0000000000000000000 ) ) ;
#279 = DIRECTION ( 'NONE',  ( 1.000000000000000000, 0.0000000000000000000, 0.0000000000000000000 ) ) ;
#280 = DIRECTION ( 'NONE',  ( -0.0000000000000000000, -1.000000000000000000, -0.0000000000000000000 ) ) ;
#281 = ORIENTED_EDGE ( 'NONE', *, *, #245, .F. ) ;
#282 = DIRECTION ( 'NONE',  ( 0.0000000000000000000, 0.0000000000000000000, -1.000000000000000000 ) ) ;
#283 = CARTESIAN_POINT ( 'NONE',  ( 0.0000000000000000000, 0.5000000000000014400, 0.0000000000000000000 ) ) ;
#284 = ADVANCED_BREP_SHAPE_REPRESENTATION ( '38882~0', ( #189, #129 ), #11 ) ;
#285 = ORIENTED_EDGE ( 'NONE', *, *, #72, .F. ) ;
#286 = DIRECTION ( 'NONE',  ( 0.0000000000000000000, -0.8660254037844380400, -0.5000000000000012200 ) ) ;
#287 = VERTEX_POINT ( 'NONE', #138 ) ;
#288 = DIRECTION ( 'NONE',  ( 0.0000000000000000000, 0.0000000000000000000, 1.000000000000000000 ) ) ;
#289 = CARTESIAN_POINT ( 'NONE',  ( 0.0000000000000000000, 0.0000000000000000000, -1.350000000000000100 ) ) ;
#290 = ORIENTED_EDGE ( 'NONE', *, *, #222, .T. ) ;
#291 = PRODUCT ( '38882~0', '38882~0', '', ( #275 ) ) ;
#292 = COLOUR_RGB ( '',0.7529411764705882200, 0.7529411764705882200, 0.7529411764705882200 ) ;
#293 = EDGE_CURVE ( 'NONE', #25, #210, #86, .T. ) ;
#294 = ORIENTED_EDGE ( 'NONE', *, *, #222, .F. ) ;
#295 = ORIENTED_EDGE ( 'NONE', *, *, #110, .F. ) ;
#296 = AXIS2_PLACEMENT_3D ( 'NONE', #97, #262, #33 ) ;
#297 = CARTESIAN_POINT ( 'NONE',  ( 0.0000000000000000000, 13.39999999999999900, 0.0000000000000000000 ) ) ;
#298 = DIRECTION ( 'NONE',  ( 0.0000000000000000000, 0.0000000000000000000, 1.000000000000000000 ) ) ;
#299 = VERTEX_POINT ( 'NONE', #168 ) ;
#300 = DIRECTION ( 'NONE',  ( 0.0000000000000000000, 0.7071067811865489100, 0.7071067811865462400 ) ) ;
#301 = AXIS2_PLACEMENT_3D ( 'NONE', #56, #343, #316 ) ;
#302 = CARTESIAN_POINT ( 'NONE',  ( 0.0000000000000000000, 0.5000000000000014400, -1.000000000000000000 ) ) ;
#303 = CARTESIAN_POINT ( 'NONE',  ( 1.224646799147353200E-016, 6.999999999999999100, 1.000000000000000000 ) ) ;
#304 = ORIENTED_EDGE ( 'NONE', *, *, #245, .T. ) ;
#305 = ORIENTED_EDGE ( 'NONE', *, *, #132, .T. ) ;
#306 = VECTOR ( 'NONE', #185, 1000.000000000000000 ) ;
#307 = EDGE_LOOP ( 'NONE', ( #226, #52, #140, #174 ) ) ;
#308 = SURFACE_SIDE_STYLE ('',( #351 ) ) ;
#309 = SHAPE_DEFINITION_REPRESENTATION ( #317, #284 ) ;
#310 = DIRECTION ( 'NONE',  ( 0.0000000000000000000, 0.0000000000000000000, 1.000000000000000000 ) ) ;
#311 = CIRCLE ( 'NONE', #342, 0.9458548115672613700 ) ;
#312 = UNCERTAINTY_MEASURE_WITH_UNIT (LENGTH_MEASURE( 1.000000000000000100E-005 ), #23, 'distance_accuracy_value', 'NONE');
#313 = EDGE_CURVE ( 'NONE', #4, #210, #67, .T. ) ;
#314 = FACE_BOUND ( 'NONE', #184, .T. ) ;
#315 = VERTEX_POINT ( 'NONE', #302 ) ;
#316 = DIRECTION ( 'NONE',  ( 0.0000000000000000000, 0.0000000000000000000, -1.000000000000000000 ) ) ;
#317 = PRODUCT_DEFINITION_SHAPE ( 'NONE', 'NONE',  #219 ) ;
#318 = AXIS2_PLACEMENT_3D ( 'NONE', #349, #159, #37 ) ;
#319 = DIRECTION ( 'NONE',  ( 0.0000000000000000000, 0.0000000000000000000, -1.000000000000000000 ) ) ;
#320 = CIRCLE ( 'NONE', #24, 1.000000000000000000 ) ;
#321 = DIRECTION ( 'NONE',  ( -0.0000000000000000000, -1.000000000000000000, -0.0000000000000000000 ) ) ;
#322 = ORIENTED_EDGE ( 'NONE', *, *, #66, .T. ) ;
#323 = CARTESIAN_POINT ( 'NONE',  ( 0.0000000000000000000, 0.0000000000000000000, 0.5000000000000004400 ) ) ;
#324 = ADVANCED_FACE ( 'NONE', ( #43 ), #333, .T. ) ;
#325 = AXIS2_PLACEMENT_3D ( 'NONE', #206, #280, #127 ) ;
#326 = VECTOR ( 'NONE', #27, 999.9999999999998900 ) ;
#327 = ADVANCED_FACE ( 'NONE', ( #267 ), #73, .T. ) ;
#328 = ADVANCED_FACE ( 'NONE', ( #208 ), #368, .T. ) ;
#329 = LINE ( 'NONE', #339, #326 ) ;
#330 = EDGE_LOOP ( 'NONE', ( #305, #338 ) ) ;
#331 = CARTESIAN_POINT ( 'NONE',  ( 0.0000000000000000000, 0.0000000000000000000, 0.0000000000000000000 ) ) ;
#332 = EDGE_LOOP ( 'NONE', ( #244, #259, #290, #100 ) ) ;
#333 = TOROIDAL_SURFACE ( 'NONE', #160, 0.4262395692965994500, 0.5999999999999999800 ) ;
#334 = DIRECTION ( 'NONE',  ( 0.0000000000000000000, 0.0000000000000000000, -1.000000000000000000 ) ) ;
#335 =( NAMED_UNIT ( * ) PLANE_ANGLE_UNIT ( ) SI_UNIT ( $, .RADIAN. ) );
#336 = FILL_AREA_STYLE ('',( #104 ) ) ;
#337 = FACE_OUTER_BOUND ( 'NONE', #158, .T. ) ;
#338 = ORIENTED_EDGE ( 'NONE', *, *, #9, .T. ) ;
#339 = CARTESIAN_POINT ( 'NONE',  ( 1.653273178848926900E-016, 13.00000000000000200, 1.350000000000000100 ) ) ;
#340 = LINE ( 'NONE', #204, #2 ) ;
#341 = DIRECTION ( 'NONE',  ( -0.0000000000000000000, -1.000000000000000000, -0.0000000000000000000 ) ) ;
#342 = AXIS2_PLACEMENT_3D ( 'NONE', #261, #236, #288 ) ;
#343 = DIRECTION ( 'NONE',  ( 0.0000000000000000000, -1.000000000000000000, -0.0000000000000000000 ) ) ;
#344 = DIRECTION ( 'NONE',  ( -0.0000000000000000000, -1.000000000000000000, -0.0000000000000000000 ) ) ;
#345 = CONICAL_SURFACE ( 'NONE', #116, 1.350000000000000100, 0.5235987755983002600 ) ;
#346 = ORIENTED_EDGE ( 'NONE', *, *, #51, .T. ) ;
#347 = VECTOR ( 'NONE', #300, 999.9999999999998900 ) ;
#348 = CARTESIAN_POINT ( 'NONE',  ( 0.0000000000000000000, 0.0000000000000000000, -1.000000000000000000 ) ) ;
#349 = CARTESIAN_POINT ( 'NONE',  ( 0.0000000000000000000, 0.0000000000000000000, 0.0000000000000000000 ) ) ;
#350 = CONICAL_SURFACE ( 'NONE', #39, 0.5000000000000004400, 0.7853981633974465000 ) ;
#351 = SURFACE_STYLE_FILL_AREA ( #336 ) ;
#352 = EDGE_CURVE ( 'NONE', #276, #371, #203, .T. ) ;
#353 = AXIS2_PLACEMENT_3D ( 'NONE', #186, #63, #6 ) ;
#354 = ORIENTED_EDGE ( 'NONE', *, *, #72, .T. ) ;
#355 = ORIENTED_EDGE ( 'NONE', *, *, #211, .T. ) ;
#356 = CARTESIAN_POINT ( 'NONE',  ( 0.0000000000000000000, 13.39999999999999900, 0.0000000000000000000 ) ) ;
#357 = ORIENTED_EDGE ( 'NONE', *, *, #147, .F. ) ;
#358 = DIRECTION ( 'NONE',  ( 0.0000000000000000000, 0.0000000000000000000, -1.000000000000000000 ) ) ;
#359 = VECTOR ( 'NONE', #246, 1000.000000000000000 ) ;
#360 = DIRECTION ( 'NONE',  ( 1.224646799147353000E-016, 0.0000000000000000000, -1.000000000000000000 ) ) ;
#361 = AXIS2_PLACEMENT_3D ( 'NONE', #191, #18, #85 ) ;
#362 = DIRECTION ( 'NONE',  ( 0.0000000000000000000, 0.0000000000000000000, -1.000000000000000000 ) ) ;
#363 = EDGE_LOOP ( 'NONE', ( #230, #322 ) ) ;
#364 = VERTEX_POINT ( 'NONE', #270 ) ;
#365 = PLANE ( 'NONE',  #240 ) ;
#366 = EDGE_CURVE ( 'NONE', #371, #276, #227, .T. ) ;
#367 = APPLICATION_PROTOCOL_DEFINITION ( 'draft international standard', 'automotive_design', 1998, #114 ) ;
#368 = TOROIDAL_SURFACE ( 'NONE', #107, 0.4262395692965994500, 0.5999999999999999800 ) ;
#369 = DIRECTION ( 'NONE',  ( 0.0000000000000000000, 0.0000000000000000000, 1.000000000000000000 ) ) ;
#370 = CARTESIAN_POINT ( 'NONE',  ( 0.0000000000000000000, 0.0000000000000000000, 0.0000000000000000000 ) ) ;
#371 = VERTEX_POINT ( 'NONE', #197 ) ;
#372 = CARTESIAN_POINT ( 'NONE',  ( 0.0000000000000000000, 13.99999999999999800, 0.4262395692965994500 ) ) ;
ENDSEC;
END-ISO-10303-21;
