ISO-10303-21;
HEADER;
FILE_DESCRIPTION (( 'STEP AP214' ),
    '1' );
FILE_NAME ('38889~0.STEP',
    '2017-07-04T09:02:24',
    ( '' ),
    ( '' ),
    'SwSTEP 2.0',
    'SolidWorks 2016',
    '' );
FILE_SCHEMA (( 'AUTOMOTIVE_DESIGN' ));
ENDSEC;

DATA;
#1 = CYLINDRICAL_SURFACE ( 'NONE', #13, 1.000000000000000000 ) ;
#2 = EDGE_CURVE ( 'NONE', #204, #221, #41, .T. ) ;
#3 = ORIENTED_EDGE ( 'NONE', *, *, #126, .T. ) ;
#4 = VERTEX_POINT ( 'NONE', #35 ) ;
#5 = DIRECTION ( 'NONE',  ( -0.0000000000000000000, -1.000000000000000000, -0.0000000000000000000 ) ) ;
#6 = ADVANCED_FACE ( 'NONE', ( #176 ), #313, .T. ) ;
#7 = CIRCLE ( 'NONE', #121, 1.295854811567261500 ) ;
#8 = AXIS2_PLACEMENT_3D ( 'NONE', #17, #127, #186 ) ;
#9 = DIRECTION ( 'NONE',  ( -0.0000000000000000000, -1.000000000000000000, -0.0000000000000000000 ) ) ;
#10 = VERTEX_POINT ( 'NONE', #96 ) ;
#11 = EDGE_LOOP ( 'NONE', ( #296, #219, #153, #253 ) ) ;
#12 = DIRECTION ( 'NONE',  ( 0.0000000000000000000, 1.000000000000000000, 0.0000000000000000000 ) ) ;
#13 = AXIS2_PLACEMENT_3D ( 'NONE', #206, #99, #178 ) ;
#14 = CARTESIAN_POINT ( 'NONE',  ( 0.0000000000000000000, 0.0000000000000000000, 0.0000000000000000000 ) ) ;
#15 = DIRECTION ( 'NONE',  ( -0.0000000000000000000, -1.000000000000000000, -0.0000000000000000000 ) ) ;
#16 = SHAPE_DEFINITION_REPRESENTATION ( #315, #227 ) ;
#17 = CARTESIAN_POINT ( 'NONE',  ( 1.122649730810372900, 13.99999999999999800, 0.0000000000000000000 ) ) ;
#18 = VECTOR ( 'NONE', #155, 999.9999999999998900 ) ;
#19 = CARTESIAN_POINT ( 'NONE',  ( 0.0000000000000000000, 0.0000000000000000000, 0.0000000000000000000 ) ) ;
#20 = AXIS2_PLACEMENT_3D ( 'NONE', #220, #134, #110 ) ;
#21 = DIRECTION ( 'NONE',  ( 0.0000000000000000000, 1.000000000000000000, 0.0000000000000000000 ) ) ;
#22 = LINE ( 'NONE', #332, #18 ) ;
#23 = ORIENTED_EDGE ( 'NONE', *, *, #290, .F. ) ;
#24 = DIRECTION ( 'NONE',  ( 0.0000000000000000000, 0.0000000000000000000, 1.000000000000000000 ) ) ;
#25 = EDGE_CURVE ( 'NONE', #198, #318, #182, .T. ) ;
#26 = APPLICATION_CONTEXT ( 'automotive_design' ) ;
#27 = PLANE ( 'NONE',  #100 ) ;
#28 =( LENGTH_UNIT ( ) NAMED_UNIT ( * ) SI_UNIT ( .MILLI., .METRE. ) );
#29 = EDGE_LOOP ( 'NONE', ( #112, #172 ) ) ;
#30 = CIRCLE ( 'NONE', #162, 1.000000000000000000 ) ;
#31 = VERTEX_POINT ( 'NONE', #118 ) ;
#32 = AXIS2_PLACEMENT_3D ( 'NONE', #333, #365, #158 ) ;
#33 = ADVANCED_FACE ( 'NONE', ( #160 ), #60, .T. ) ;
#34 = SURFACE_STYLE_FILL_AREA ( #345 ) ;
#35 = CARTESIAN_POINT ( 'NONE',  ( 0.0000000000000000000, 0.4999999999999995600, -1.000000000000000000 ) ) ;
#36 = VERTEX_POINT ( 'NONE', #250 ) ;
#37 = CARTESIAN_POINT ( 'NONE',  ( 0.0000000000000000000, 0.4999999999999995600, 0.0000000000000000000 ) ) ;
#38 = CARTESIAN_POINT ( 'NONE',  ( 0.0000000000000000000, 7.000000000000000000, -1.700000000000000000 ) ) ;
#39 = TOROIDAL_SURFACE ( 'NONE', #62, 0.7762395692965993200, 0.5999999999999999800 ) ;
#40 = CARTESIAN_POINT ( 'NONE',  ( 0.0000000000000000000, 13.69999999999999900, -1.295854811567261500 ) ) ;
#41 = LINE ( 'NONE', #144, #331 ) ;
#42 = VERTEX_POINT ( 'NONE', #286 ) ;
#43 = PLANE ( 'NONE',  #141 ) ;
#44 = EDGE_CURVE ( 'NONE', #198, #113, #236, .T. ) ;
#45 = DIRECTION ( 'NONE',  ( 0.0000000000000000000, 1.000000000000000000, 0.0000000000000000000 ) ) ;
#46 = CARTESIAN_POINT ( 'NONE',  ( 0.0000000000000000000, 13.00000000000000200, 0.0000000000000000000 ) ) ;
#47 = EDGE_LOOP ( 'NONE', ( #161, #125, #152, #104 ) ) ;
#48 = DIRECTION ( 'NONE',  ( 0.0000000000000000000, 0.0000000000000000000, -1.000000000000000000 ) ) ;
#49 = DIRECTION ( 'NONE',  ( 0.0000000000000000000, 0.0000000000000000000, 1.000000000000000000 ) ) ;
#50 = CIRCLE ( 'NONE', #294, 0.7762395692965993200 ) ;
#51 = ORIENTED_EDGE ( 'NONE', *, *, #116, .F. ) ;
#52 =( NAMED_UNIT ( * ) SI_UNIT ( $, .STERADIAN. ) SOLID_ANGLE_UNIT ( ) );
#53 =( NAMED_UNIT ( * ) PLANE_ANGLE_UNIT ( ) SI_UNIT ( $, .RADIAN. ) );
#54 =( GEOMETRIC_REPRESENTATION_CONTEXT ( 3 ) GLOBAL_UNCERTAINTY_ASSIGNED_CONTEXT ( ( #90 ) ) GLOBAL_UNIT_ASSIGNED_CONTEXT ( ( #28, #163, #86 ) ) REPRESENTATION_CONTEXT ( 'NONE', 'WORKASPACE' ) );
#55 = DIRECTION ( 'NONE',  ( 0.0000000000000000000, 0.0000000000000000000, -1.000000000000000000 ) ) ;
#56 = LINE ( 'NONE', #109, #165 ) ;
#57 = ORIENTED_EDGE ( 'NONE', *, *, #106, .T. ) ;
#58 =( LENGTH_UNIT ( ) NAMED_UNIT ( * ) SI_UNIT ( .MILLI., .METRE. ) );
#59 = UNCERTAINTY_MEASURE_WITH_UNIT (LENGTH_MEASURE( 1.000000000000000100E-005 ), #58, 'distance_accuracy_value', 'NONE');
#60 = CYLINDRICAL_SURFACE ( 'NONE', #102, 1.000000000000000000 ) ;
#61 = EDGE_LOOP ( 'NONE', ( #244, #201, #3, #57 ) ) ;
#62 = AXIS2_PLACEMENT_3D ( 'NONE', #136, #338, #24 ) ;
#63 = ADVANCED_FACE ( 'NONE', ( #252 ), #140, .T. ) ;
#64 = EDGE_CURVE ( 'NONE', #42, #31, #348, .T. ) ;
#65 = ORIENTED_EDGE ( 'NONE', *, *, #166, .T. ) ;
#66 = PRODUCT ( '38889~0', '38889~0', '', ( #284 ) ) ;
#67 = DIRECTION ( 'NONE',  ( -0.0000000000000000000, -1.000000000000000000, -0.0000000000000000000 ) ) ;
#68 = FACE_OUTER_BOUND ( 'NONE', #352, .T. ) ;
#69 = CARTESIAN_POINT ( 'NONE',  ( 0.0000000000000000000, 13.99999999999999800, 0.7762395692965993200 ) ) ;
#70 = EDGE_CURVE ( 'NONE', #336, #89, #88, .T. ) ;
#71 = CARTESIAN_POINT ( 'NONE',  ( 0.0000000000000000000, 13.99999999999999800, 0.0000000000000000000 ) ) ;
#72 = DIRECTION ( 'NONE',  ( 0.0000000000000000000, -1.000000000000000000, -0.0000000000000000000 ) ) ;
#73 = FACE_OUTER_BOUND ( 'NONE', #143, .T. ) ;
#74 = DIRECTION ( 'NONE',  ( -0.0000000000000000000, -1.000000000000000000, -0.0000000000000000000 ) ) ;
#75 = ORIENTED_EDGE ( 'NONE', *, *, #70, .F. ) ;
#76 = CARTESIAN_POINT ( 'NONE',  ( 0.0000000000000000000, 13.39999999999999900, 0.0000000000000000000 ) ) ;
#77 = EDGE_CURVE ( 'NONE', #89, #336, #50, .T. ) ;
#78 = FILL_AREA_STYLE ('',( #269 ) ) ;
#79 = PRODUCT_DEFINITION_CONTEXT ( 'detailed design', #26, 'design' ) ;
#80 = DIRECTION ( 'NONE',  ( 0.0000000000000000000, 0.7071067811865487900, 0.7071067811865463500 ) ) ;
#81 = CARTESIAN_POINT ( 'NONE',  ( 2.081899558550500300E-016, 0.0000000000000000000, 1.700000000000000000 ) ) ;
#82 = FACE_OUTER_BOUND ( 'NONE', #61, .T. ) ;
#83 = ORIENTED_EDGE ( 'NONE', *, *, #323, .F. ) ;
#84 = ORIENTED_EDGE ( 'NONE', *, *, #305, .T. ) ;
#85 = DIRECTION ( 'NONE',  ( -0.0000000000000000000, -1.000000000000000000, -0.0000000000000000000 ) ) ;
#86 =( NAMED_UNIT ( * ) SI_UNIT ( $, .STERADIAN. ) SOLID_ANGLE_UNIT ( ) );
#87 = LINE ( 'NONE', #81, #199 ) ;
#88 = CIRCLE ( 'NONE', #247, 0.7762395692965993200 ) ;
#89 = VERTEX_POINT ( 'NONE', #69 ) ;
#90 = UNCERTAINTY_MEASURE_WITH_UNIT (LENGTH_MEASURE( 1.000000000000000100E-005 ), #28, 'distance_accuracy_value', 'NONE');
#91 = AXIS2_PLACEMENT_3D ( 'NONE', #249, #21, #341 ) ;
#92 = EDGE_CURVE ( 'NONE', #318, #198, #7, .T. ) ;
#93 = FACE_OUTER_BOUND ( 'NONE', #283, .T. ) ;
#94 = ORIENTED_EDGE ( 'NONE', *, *, #154, .F. ) ;
#95 = ADVANCED_FACE ( 'NONE', ( #82 ), #1, .T. ) ;
#96 = CARTESIAN_POINT ( 'NONE',  ( 2.081899558550500300E-016, 13.00000000000000200, 1.700000000000000000 ) ) ;
#97 = DIRECTION ( 'NONE',  ( 0.0000000000000000000, 1.000000000000000000, 0.0000000000000000000 ) ) ;
#98 = DIRECTION ( 'NONE',  ( -0.0000000000000000000, -1.000000000000000000, -0.0000000000000000000 ) ) ;
#99 = DIRECTION ( 'NONE',  ( -0.0000000000000000000, -1.000000000000000000, -0.0000000000000000000 ) ) ;
#100 = AXIS2_PLACEMENT_3D ( 'NONE', #194, #223, #55 ) ;
#101 = ORIENTED_EDGE ( 'NONE', *, *, #70, .T. ) ;
#102 = AXIS2_PLACEMENT_3D ( 'NONE', #254, #67, #195 ) ;
#103 = DIRECTION ( 'NONE',  ( 0.0000000000000000000, 0.0000000000000000000, -1.000000000000000000 ) ) ;
#104 = ORIENTED_EDGE ( 'NONE', *, *, #44, .F. ) ;
#105 = CARTESIAN_POINT ( 'NONE',  ( 0.0000000000000000000, 6.999999999999999100, 0.0000000000000000000 ) ) ;
#106 = EDGE_CURVE ( 'NONE', #4, #221, #312, .T. ) ;
#107 = ORIENTED_EDGE ( 'NONE', *, *, #2, .T. ) ;
#108 = CARTESIAN_POINT ( 'NONE',  ( 0.0000000000000000000, 0.0000000000000000000, 0.0000000000000000000 ) ) ;
#109 = CARTESIAN_POINT ( 'NONE',  ( 0.0000000000000000000, 0.0000000000000000000, -1.700000000000000000 ) ) ;
#110 = DIRECTION ( 'NONE',  ( 0.0000000000000000000, 0.0000000000000000000, -1.000000000000000000 ) ) ;
#111 = COLOUR_RGB ( '',0.7529411764705882200, 0.7529411764705882200, 0.7529411764705882200 ) ;
#112 = ORIENTED_EDGE ( 'NONE', *, *, #319, .T. ) ;
#113 = VERTEX_POINT ( 'NONE', #322 ) ;
#114 = STYLED_ITEM ( 'NONE', ( #355 ), #227 ) ;
#115 = ADVANCED_FACE ( 'NONE', ( #209, #282 ), #43, .T. ) ;
#116 = EDGE_CURVE ( 'NONE', #343, #204, #369, .T. ) ;
#117 = ORIENTED_EDGE ( 'NONE', *, *, #305, .F. ) ;
#118 = CARTESIAN_POINT ( 'NONE',  ( 9.184850993605162000E-017, 0.0000000000000000000, -0.5000000000000022200 ) ) ;
#119 = ADVANCED_FACE ( 'NONE', ( #93 ), #288, .T. ) ;
#120 = CARTESIAN_POINT ( 'NONE',  ( 1.000000000000000000, 6.999999999999999100, 0.0000000000000000000 ) ) ;
#121 = AXIS2_PLACEMENT_3D ( 'NONE', #360, #262, #297 ) ;
#122 = UNCERTAINTY_MEASURE_WITH_UNIT (LENGTH_MEASURE( 1.000000000000000100E-005 ), #272, 'distance_accuracy_value', 'NONE');
#123 = COLOUR_RGB ( '',0.7529411764705882200, 0.7529411764705882200, 0.7529411764705882200 ) ;
#124 = DIRECTION ( 'NONE',  ( 0.0000000000000000000, 0.0000000000000000000, -1.000000000000000000 ) ) ;
#125 = ORIENTED_EDGE ( 'NONE', *, *, #261, .T. ) ;
#126 = EDGE_CURVE ( 'NONE', #343, #4, #239, .T. ) ;
#127 = DIRECTION ( 'NONE',  ( 0.0000000000000000000, 1.000000000000000000, 0.0000000000000000000 ) ) ;
#128 = FACE_OUTER_BOUND ( 'NONE', #372, .T. ) ;
#129 = ORIENTED_EDGE ( 'NONE', *, *, #323, .T. ) ;
#130 = PLANE ( 'NONE',  #8 ) ;
#131 =( NAMED_UNIT ( * ) PLANE_ANGLE_UNIT ( ) SI_UNIT ( $, .RADIAN. ) );
#132 = CIRCLE ( 'NONE', #32, 0.5999999999999999800 ) ;
#133 = APPLICATION_PROTOCOL_DEFINITION ( 'draft international standard', 'automotive_design', 1998, #26 ) ;
#134 = DIRECTION ( 'NONE',  ( -0.0000000000000000000, -1.000000000000000000, -0.0000000000000000000 ) ) ;
#135 = ORIENTED_EDGE ( 'NONE', *, *, #77, .T. ) ;
#136 = CARTESIAN_POINT ( 'NONE',  ( 0.0000000000000000000, 13.39999999999999900, 0.0000000000000000000 ) ) ;
#137 = EDGE_LOOP ( 'NONE', ( #187, #289 ) ) ;
#138 = CARTESIAN_POINT ( 'NONE',  ( 0.0000000000000000000, 0.0000000000000000000, 0.0000000000000000000 ) ) ;
#139 = DIRECTION ( 'NONE',  ( 0.0000000000000000000, 0.0000000000000000000, -1.000000000000000000 ) ) ;
#140 = CONICAL_SURFACE ( 'NONE', #171, 0.5000000000000022200, 0.7853981633974466100 ) ;
#141 = AXIS2_PLACEMENT_3D ( 'NONE', #120, #72, #299 ) ;
#142 = EDGE_CURVE ( 'NONE', #113, #10, #357, .T. ) ;
#143 = EDGE_LOOP ( 'NONE', ( #264, #65, #270, #94 ) ) ;
#144 = CARTESIAN_POINT ( 'NONE',  ( 1.224646799147353200E-016, 0.0000000000000000000, 1.000000000000000000 ) ) ;
#145 = VERTEX_POINT ( 'NONE', #38 ) ;
#146 = DIRECTION ( 'NONE',  ( 0.0000000000000000000, 0.0000000000000000000, 1.000000000000000000 ) ) ;
#147 = EDGE_LOOP ( 'NONE', ( #117, #300, #129, #337 ) ) ;
#148 = CARTESIAN_POINT ( 'NONE',  ( 0.0000000000000000000, 0.0000000000000000000, -1.000000000000000000 ) ) ;
#149 = MECHANICAL_DESIGN_GEOMETRIC_PRESENTATION_REPRESENTATION (  '', ( #114 ), #169 ) ;
#150 = CYLINDRICAL_SURFACE ( 'NONE', #347, 1.700000000000000000 ) ;
#151 = DIRECTION ( 'NONE',  ( 0.0000000000000000000, 1.000000000000000000, 0.0000000000000000000 ) ) ;
#152 = ORIENTED_EDGE ( 'NONE', *, *, #142, .F. ) ;
#153 = ORIENTED_EDGE ( 'NONE', *, *, #154, .T. ) ;
#154 = EDGE_CURVE ( 'NONE', #42, #221, #274, .T. ) ;
#155 = DIRECTION ( 'NONE',  ( 6.123233995736782100E-017, -0.8660254037844380400, 0.5000000000000012200 ) ) ;
#156 = DIRECTION ( 'NONE',  ( 0.0000000000000000000, 0.0000000000000000000, -1.000000000000000000 ) ) ;
#157 = AXIS2_PLACEMENT_3D ( 'NONE', #301, #98, #124 ) ;
#158 = DIRECTION ( 'NONE',  ( 1.224646799147353000E-016, 0.0000000000000000000, -1.000000000000000000 ) ) ;
#159 = AXIS2_PLACEMENT_3D ( 'NONE', #346, #200, #146 ) ;
#160 = FACE_OUTER_BOUND ( 'NONE', #314, .T. ) ;
#161 = ORIENTED_EDGE ( 'NONE', *, *, #25, .T. ) ;
#162 = AXIS2_PLACEMENT_3D ( 'NONE', #105, #241, #48 ) ;
#163 =( NAMED_UNIT ( * ) PLANE_ANGLE_UNIT ( ) SI_UNIT ( $, .RADIAN. ) );
#164 = DIRECTION ( 'NONE',  ( 1.000000000000000000, 0.0000000000000000000, 0.0000000000000000000 ) ) ;
#165 = VECTOR ( 'NONE', #340, 1000.000000000000000 ) ;
#166 = EDGE_CURVE ( 'NONE', #31, #4, #361, .T. ) ;
#167 = FACE_OUTER_BOUND ( 'NONE', #47, .T. ) ;
#168 = EDGE_LOOP ( 'NONE', ( #135, #101 ) ) ;
#169 =( GEOMETRIC_REPRESENTATION_CONTEXT ( 3 ) GLOBAL_UNCERTAINTY_ASSIGNED_CONTEXT ( ( #59 ) ) GLOBAL_UNIT_ASSIGNED_CONTEXT ( ( #58, #53, #52 ) ) REPRESENTATION_CONTEXT ( 'NONE', 'WORKASPACE' ) );
#170 = CARTESIAN_POINT ( 'NONE',  ( 0.0000000000000000000, 13.00000000000000200, 0.0000000000000000000 ) ) ;
#171 = AXIS2_PLACEMENT_3D ( 'NONE', #233, #151, #268 ) ;
#172 = ORIENTED_EDGE ( 'NONE', *, *, #279, .T. ) ;
#173 = ADVANCED_FACE ( 'NONE', ( #73 ), #228, .T. ) ;
#174 = DIRECTION ( 'NONE',  ( 0.0000000000000000000, 0.0000000000000000000, -1.000000000000000000 ) ) ;
#175 = DIRECTION ( 'NONE',  ( 0.0000000000000000000, 0.0000000000000000000, 1.000000000000000000 ) ) ;
#176 = FACE_OUTER_BOUND ( 'NONE', #229, .T. ) ;
#177 = AXIS2_PLACEMENT_3D ( 'NONE', #266, #74, #103 ) ;
#178 = DIRECTION ( 'NONE',  ( 0.0000000000000000000, 0.0000000000000000000, -1.000000000000000000 ) ) ;
#179 = PRESENTATION_LAYER_ASSIGNMENT (  '', '', ( #114 ) ) ;
#180 = CIRCLE ( 'NONE', #267, 0.5999999999999999800 ) ;
#181 = DIRECTION ( 'NONE',  ( 0.0000000000000000000, 1.000000000000000000, 0.0000000000000000000 ) ) ;
#182 = CIRCLE ( 'NONE', #159, 1.295854811567261500 ) ;
#183 = ORIENTED_EDGE ( 'NONE', *, *, #77, .F. ) ;
#184 = DIRECTION ( 'NONE',  ( 0.0000000000000000000, 0.0000000000000000000, 1.000000000000000000 ) ) ;
#185 = DIRECTION ( 'NONE',  ( -0.0000000000000000000, -1.000000000000000000, -0.0000000000000000000 ) ) ;
#186 = DIRECTION ( 'NONE',  ( 0.0000000000000000000, -0.0000000000000000000, 1.000000000000000000 ) ) ;
#187 = ORIENTED_EDGE ( 'NONE', *, *, #64, .T. ) ;
#188 = SURFACE_SIDE_STYLE ('',( #34 ) ) ;
#189 = AXIS2_PLACEMENT_3D ( 'NONE', #108, #311, #164 ) ;
#190 = APPLICATION_CONTEXT ( 'automotive_design' ) ;
#191 = DIRECTION ( 'NONE',  ( 0.0000000000000000000, 0.0000000000000000000, 1.000000000000000000 ) ) ;
#192 = FACE_OUTER_BOUND ( 'NONE', #137, .T. ) ;
#193 = ORIENTED_EDGE ( 'NONE', *, *, #226, .F. ) ;
#194 = CARTESIAN_POINT ( 'NONE',  ( 0.0000000000000000000, 0.0000000000000000000, 0.0000000000000000000 ) ) ;
#195 = DIRECTION ( 'NONE',  ( 0.0000000000000000000, 0.0000000000000000000, -1.000000000000000000 ) ) ;
#196 = DIRECTION ( 'NONE',  ( 0.0000000000000000000, -0.8660254037844380400, -0.5000000000000012200 ) ) ;
#197 = VECTOR ( 'NONE', #80, 1000.000000000000000 ) ;
#198 = VERTEX_POINT ( 'NONE', #40 ) ;
#199 = VECTOR ( 'NONE', #85, 1000.000000000000000 ) ;
#200 = DIRECTION ( 'NONE',  ( -0.0000000000000000000, -1.000000000000000000, -0.0000000000000000000 ) ) ;
#201 = ORIENTED_EDGE ( 'NONE', *, *, #226, .T. ) ;
#202 = PRODUCT_DEFINITION_FORMATION_WITH_SPECIFIED_SOURCE ( 'ANY', '', #66, .NOT_KNOWN. ) ;
#203 = ORIENTED_EDGE ( 'NONE', *, *, #349, .T. ) ;
#204 = VERTEX_POINT ( 'NONE', #213 ) ;
#205 = ADVANCED_FACE ( 'NONE', ( #295 ), #150, .T. ) ;
#206 = CARTESIAN_POINT ( 'NONE',  ( 0.0000000000000000000, 0.0000000000000000000, 0.0000000000000000000 ) ) ;
#207 = DIRECTION ( 'NONE',  ( 8.659560562354918100E-017, 0.7071067811865487900, -0.7071067811865463500 ) ) ;
#208 = CARTESIAN_POINT ( 'NONE',  ( 0.0000000000000000000, 13.00000000000000200, 0.0000000000000000000 ) ) ;
#209 = FACE_OUTER_BOUND ( 'NONE', #29, .T. ) ;
#210 = ORIENTED_EDGE ( 'NONE', *, *, #349, .F. ) ;
#211 = ORIENTED_EDGE ( 'NONE', *, *, #126, .F. ) ;
#212 = DIRECTION ( 'NONE',  ( -0.0000000000000000000, -1.000000000000000000, -0.0000000000000000000 ) ) ;
#213 = CARTESIAN_POINT ( 'NONE',  ( 1.224646799147353200E-016, 6.999999999999999100, 1.000000000000000000 ) ) ;
#214 = MANIFOLD_SOLID_BREP ( 'Verrundung1', #364 ) ;
#215 = AXIS2_PLACEMENT_3D ( 'NONE', #354, #324, #174 ) ;
#216 = DIRECTION ( 'NONE',  ( 0.0000000000000000000, 1.000000000000000000, 0.0000000000000000000 ) ) ;
#217 = CARTESIAN_POINT ( 'NONE',  ( 0.0000000000000000000, 6.999999999999999100, -1.000000000000000000 ) ) ;
#218 = FACE_OUTER_BOUND ( 'NONE', #168, .T. ) ;
#219 = ORIENTED_EDGE ( 'NONE', *, *, #64, .F. ) ;
#220 = CARTESIAN_POINT ( 'NONE',  ( 0.0000000000000000000, 7.000000000000000000, 0.0000000000000000000 ) ) ;
#221 = VERTEX_POINT ( 'NONE', #330 ) ;
#222 = PRODUCT_RELATED_PRODUCT_CATEGORY ( 'part', '', ( #66 ) ) ;
#223 = DIRECTION ( 'NONE',  ( 0.0000000000000000000, -1.000000000000000000, -0.0000000000000000000 ) ) ;
#224 = DIRECTION ( 'NONE',  ( -1.000000000000000000, 0.0000000000000000000, 0.0000000000000000000 ) ) ;
#225 = CARTESIAN_POINT ( 'NONE',  ( 0.0000000000000000000, 13.00000000000000200, -1.700000000000000000 ) ) ;
#226 = EDGE_CURVE ( 'NONE', #204, #343, #30, .T. ) ;
#227 = ADVANCED_BREP_SHAPE_REPRESENTATION ( '38889~0', ( #214, #189 ), #54 ) ;
#228 = CONICAL_SURFACE ( 'NONE', #276, 0.5000000000000022200, 0.7853981633974466100 ) ;
#229 = EDGE_LOOP ( 'NONE', ( #240, #271, #275, #265 ) ) ;
#230 = VECTOR ( 'NONE', #9, 1000.000000000000000 ) ;
#231 = CARTESIAN_POINT ( 'NONE',  ( 6.123233995736791900E-017, 0.0000000000000000000, -0.5000000000000022200 ) ) ;
#232 = AXIS2_PLACEMENT_3D ( 'NONE', #46, #334, #156 ) ;
#233 = CARTESIAN_POINT ( 'NONE',  ( 0.0000000000000000000, 0.0000000000000000000, 0.0000000000000000000 ) ) ;
#234 = CIRCLE ( 'NONE', #303, 1.700000000000000000 ) ;
#235 = DIRECTION ( 'NONE',  ( 0.0000000000000000000, 0.0000000000000000000, -1.000000000000000000 ) ) ;
#236 = LINE ( 'NONE', #225, #307 ) ;
#237 = DIRECTION ( 'NONE',  ( -0.0000000000000000000, -1.000000000000000000, -0.0000000000000000000 ) ) ;
#238 = CONICAL_SURFACE ( 'NONE', #232, 1.700000000000000000, 0.5235987755983002600 ) ;
#239 = LINE ( 'NONE', #148, #230 ) ;
#240 = ORIENTED_EDGE ( 'NONE', *, *, #261, .F. ) ;
#241 = DIRECTION ( 'NONE',  ( -0.0000000000000000000, -1.000000000000000000, -0.0000000000000000000 ) ) ;
#242 = EDGE_CURVE ( 'NONE', #10, #113, #234, .T. ) ;
#243 = TOROIDAL_SURFACE ( 'NONE', #359, 0.7762395692965993200, 0.5999999999999999800 ) ;
#244 = ORIENTED_EDGE ( 'NONE', *, *, #2, .F. ) ;
#245 = AXIS2_PLACEMENT_3D ( 'NONE', #208, #237, #302 ) ;
#246 = DIRECTION ( 'NONE',  ( -0.0000000000000000000, -1.000000000000000000, -0.0000000000000000000 ) ) ;
#247 = AXIS2_PLACEMENT_3D ( 'NONE', #260, #45, #326 ) ;
#248 = EDGE_LOOP ( 'NONE', ( #51, #193 ) ) ;
#249 = CARTESIAN_POINT ( 'NONE',  ( 0.0000000000000000000, 0.4999999999999995600, 0.0000000000000000000 ) ) ;
#250 = CARTESIAN_POINT ( 'NONE',  ( 2.081899558550500300E-016, 7.000000000000000000, 1.700000000000000000 ) ) ;
#251 = CIRCLE ( 'NONE', #367, 1.700000000000000000 ) ;
#252 = FACE_OUTER_BOUND ( 'NONE', #11, .T. ) ;
#253 = ORIENTED_EDGE ( 'NONE', *, *, #106, .F. ) ;
#254 = CARTESIAN_POINT ( 'NONE',  ( 0.0000000000000000000, 0.0000000000000000000, 0.0000000000000000000 ) ) ;
#255 = MECHANICAL_DESIGN_GEOMETRIC_PRESENTATION_REPRESENTATION (  '', ( #344 ), #317 ) ;
#256 = CIRCLE ( 'NONE', #91, 1.000000000000000000 ) ;
#257 = ORIENTED_EDGE ( 'NONE', *, *, #319, .F. ) ;
#258 = ADVANCED_FACE ( 'NONE', ( #167 ), #238, .T. ) ;
#259 = ADVANCED_FACE ( 'NONE', ( #218 ), #130, .T. ) ;
#260 = CARTESIAN_POINT ( 'NONE',  ( 0.0000000000000000000, 13.99999999999999800, 0.0000000000000000000 ) ) ;
#261 = EDGE_CURVE ( 'NONE', #318, #10, #22, .T. ) ;
#262 = DIRECTION ( 'NONE',  ( -0.0000000000000000000, -1.000000000000000000, -0.0000000000000000000 ) ) ;
#263 = PRESENTATION_STYLE_ASSIGNMENT (( #368 ) ) ;
#264 = ORIENTED_EDGE ( 'NONE', *, *, #298, .F. ) ;
#265 = ORIENTED_EDGE ( 'NONE', *, *, #242, .F. ) ;
#266 = CARTESIAN_POINT ( 'NONE',  ( 0.0000000000000000000, 0.0000000000000000000, 0.0000000000000000000 ) ) ;
#267 = AXIS2_PLACEMENT_3D ( 'NONE', #278, #224, #191 ) ;
#268 = DIRECTION ( 'NONE',  ( 0.0000000000000000000, 0.0000000000000000000, 1.000000000000000000 ) ) ;
#269 = FILL_AREA_STYLE_COLOUR ( '', #123 ) ;
#270 = ORIENTED_EDGE ( 'NONE', *, *, #339, .F. ) ;
#271 = ORIENTED_EDGE ( 'NONE', *, *, #92, .T. ) ;
#272 =( LENGTH_UNIT ( ) NAMED_UNIT ( * ) SI_UNIT ( .MILLI., .METRE. ) );
#273 = DIRECTION ( 'NONE',  ( 0.0000000000000000000, 0.0000000000000000000, -1.000000000000000000 ) ) ;
#274 = LINE ( 'NONE', #370, #197 ) ;
#275 = ORIENTED_EDGE ( 'NONE', *, *, #44, .T. ) ;
#276 = AXIS2_PLACEMENT_3D ( 'NONE', #19, #216, #49 ) ;
#277 =( NAMED_UNIT ( * ) SI_UNIT ( $, .STERADIAN. ) SOLID_ANGLE_UNIT ( ) );
#278 = CARTESIAN_POINT ( 'NONE',  ( 0.0000000000000000000, 13.39999999999999900, 0.7762395692965993200 ) ) ;
#279 = EDGE_CURVE ( 'NONE', #36, #145, #251, .T. ) ;
#280 = DIRECTION ( 'NONE',  ( 0.0000000000000000000, 0.0000000000000000000, -1.000000000000000000 ) ) ;
#281 = CARTESIAN_POINT ( 'NONE',  ( 1.268791875528072100E-016, 13.99999999999999800, -0.7762395692965993200 ) ) ;
#282 = FACE_BOUND ( 'NONE', #248, .T. ) ;
#283 = EDGE_LOOP ( 'NONE', ( #350, #84, #257, #83 ) ) ;
#284 = PRODUCT_CONTEXT ( 'NONE', #190, 'mechanical' ) ;
#285 = SURFACE_STYLE_USAGE ( .BOTH. , #188 ) ;
#286 = CARTESIAN_POINT ( 'NONE',  ( 0.0000000000000000000, 0.0000000000000000000, 0.5000000000000022200 ) ) ;
#287 = CIRCLE ( 'NONE', #20, 1.700000000000000000 ) ;
#288 = CYLINDRICAL_SURFACE ( 'NONE', #157, 1.700000000000000000 ) ;
#289 = ORIENTED_EDGE ( 'NONE', *, *, #298, .T. ) ;
#290 = EDGE_CURVE ( 'NONE', #198, #336, #132, .T. ) ;
#291 = PRESENTATION_LAYER_ASSIGNMENT (  '', '', ( #344 ) ) ;
#292 = ORIENTED_EDGE ( 'NONE', *, *, #92, .F. ) ;
#293 = ADVANCED_FACE ( 'NONE', ( #128 ), #243, .T. ) ;
#294 = AXIS2_PLACEMENT_3D ( 'NONE', #71, #97, #175 ) ;
#295 = FACE_OUTER_BOUND ( 'NONE', #147, .T. ) ;
#296 = ORIENTED_EDGE ( 'NONE', *, *, #166, .F. ) ;
#297 = DIRECTION ( 'NONE',  ( 0.0000000000000000000, 0.0000000000000000000, 1.000000000000000000 ) ) ;
#298 = EDGE_CURVE ( 'NONE', #31, #42, #342, .T. ) ;
#299 = DIRECTION ( 'NONE',  ( 0.0000000000000000000, 0.0000000000000000000, -1.000000000000000000 ) ) ;
#300 = ORIENTED_EDGE ( 'NONE', *, *, #242, .T. ) ;
#301 = CARTESIAN_POINT ( 'NONE',  ( 0.0000000000000000000, 0.0000000000000000000, 0.0000000000000000000 ) ) ;
#302 = DIRECTION ( 'NONE',  ( 0.0000000000000000000, 0.0000000000000000000, -1.000000000000000000 ) ) ;
#303 = AXIS2_PLACEMENT_3D ( 'NONE', #304, #15, #273 ) ;
#304 = CARTESIAN_POINT ( 'NONE',  ( 0.0000000000000000000, 13.00000000000000200, 0.0000000000000000000 ) ) ;
#305 = EDGE_CURVE ( 'NONE', #10, #36, #87, .T. ) ;
#306 = DIRECTION ( 'NONE',  ( 0.0000000000000000000, 0.0000000000000000000, -1.000000000000000000 ) ) ;
#307 = VECTOR ( 'NONE', #196, 999.9999999999998900 ) ;
#308 = SURFACE_SIDE_STYLE ('',( #325 ) ) ;
#309 = AXIS2_PLACEMENT_3D ( 'NONE', #170, #5, #139 ) ;
#310 = APPLICATION_PROTOCOL_DEFINITION ( 'draft international standard', 'automotive_design', 1998, #190 ) ;
#311 = DIRECTION ( 'NONE',  ( 0.0000000000000000000, 0.0000000000000000000, 1.000000000000000000 ) ) ;
#312 = CIRCLE ( 'NONE', #320, 1.000000000000000000 ) ;
#313 = CONICAL_SURFACE ( 'NONE', #309, 1.700000000000000000, 0.5235987755983002600 ) ;
#314 = EDGE_LOOP ( 'NONE', ( #321, #107, #358, #211 ) ) ;
#315 = PRODUCT_DEFINITION_SHAPE ( 'NONE', 'NONE',  #328 ) ;
#316 = FILL_AREA_STYLE_COLOUR ( '', #111 ) ;
#317 =( GEOMETRIC_REPRESENTATION_CONTEXT ( 3 ) GLOBAL_UNCERTAINTY_ASSIGNED_CONTEXT ( ( #122 ) ) GLOBAL_UNIT_ASSIGNED_CONTEXT ( ( #272, #131, #277 ) ) REPRESENTATION_CONTEXT ( 'NONE', 'WORKASPACE' ) );
#318 = VERTEX_POINT ( 'NONE', #329 ) ;
#319 = EDGE_CURVE ( 'NONE', #145, #36, #287, .T. ) ;
#320 = AXIS2_PLACEMENT_3D ( 'NONE', #37, #12, #235 ) ;
#321 = ORIENTED_EDGE ( 'NONE', *, *, #116, .T. ) ;
#322 = CARTESIAN_POINT ( 'NONE',  ( 0.0000000000000000000, 13.00000000000000200, -1.700000000000000000 ) ) ;
#323 = EDGE_CURVE ( 'NONE', #113, #145, #56, .T. ) ;
#324 = DIRECTION ( 'NONE',  ( -0.0000000000000000000, -1.000000000000000000, -0.0000000000000000000 ) ) ;
#325 = SURFACE_STYLE_FILL_AREA ( #78 ) ;
#326 = DIRECTION ( 'NONE',  ( 0.0000000000000000000, 0.0000000000000000000, 1.000000000000000000 ) ) ;
#327 = ORIENTED_EDGE ( 'NONE', *, *, #290, .T. ) ;
#328 = PRODUCT_DEFINITION ( 'UNKNOWN', '', #202, #79 ) ;
#329 = CARTESIAN_POINT ( 'NONE',  ( 1.834432002848021800E-016, 13.69999999999999900, 1.295854811567261500 ) ) ;
#330 = CARTESIAN_POINT ( 'NONE',  ( 1.224646799147353200E-016, 0.4999999999999995600, 1.000000000000000000 ) ) ;
#331 = VECTOR ( 'NONE', #351, 1000.000000000000000 ) ;
#332 = CARTESIAN_POINT ( 'NONE',  ( 2.081899558550500300E-016, 13.00000000000000200, 1.700000000000000000 ) ) ;
#333 = CARTESIAN_POINT ( 'NONE',  ( 9.506193039106004000E-017, 13.39999999999999900, -0.7762395692965993200 ) ) ;
#334 = DIRECTION ( 'NONE',  ( -0.0000000000000000000, -1.000000000000000000, -0.0000000000000000000 ) ) ;
#335 = AXIS2_PLACEMENT_3D ( 'NONE', #138, #246, #280 ) ;
#336 = VERTEX_POINT ( 'NONE', #281 ) ;
#337 = ORIENTED_EDGE ( 'NONE', *, *, #279, .F. ) ;
#338 = DIRECTION ( 'NONE',  ( 0.0000000000000000000, 1.000000000000000000, 0.0000000000000000000 ) ) ;
#339 = EDGE_CURVE ( 'NONE', #221, #4, #256, .T. ) ;
#340 = DIRECTION ( 'NONE',  ( -0.0000000000000000000, -1.000000000000000000, -0.0000000000000000000 ) ) ;
#341 = DIRECTION ( 'NONE',  ( 0.0000000000000000000, 0.0000000000000000000, -1.000000000000000000 ) ) ;
#342 = CIRCLE ( 'NONE', #335, 0.5000000000000022200 ) ;
#343 = VERTEX_POINT ( 'NONE', #217 ) ;
#344 = STYLED_ITEM ( 'NONE', ( #263 ), #214 ) ;
#345 = FILL_AREA_STYLE ('',( #316 ) ) ;
#346 = CARTESIAN_POINT ( 'NONE',  ( 0.0000000000000000000, 13.69999999999999900, 0.0000000000000000000 ) ) ;
#347 = AXIS2_PLACEMENT_3D ( 'NONE', #14, #185, #306 ) ;
#348 = CIRCLE ( 'NONE', #177, 0.5000000000000022200 ) ;
#349 = EDGE_CURVE ( 'NONE', #318, #89, #180, .T. ) ;
#350 = ORIENTED_EDGE ( 'NONE', *, *, #142, .T. ) ;
#351 = DIRECTION ( 'NONE',  ( -0.0000000000000000000, -1.000000000000000000, -0.0000000000000000000 ) ) ;
#352 = EDGE_LOOP ( 'NONE', ( #363, #327, #183, #210 ) ) ;
#353 = ADVANCED_FACE ( 'NONE', ( #68 ), #39, .T. ) ;
#354 = CARTESIAN_POINT ( 'NONE',  ( 0.0000000000000000000, 6.999999999999999100, 0.0000000000000000000 ) ) ;
#355 = PRESENTATION_STYLE_ASSIGNMENT (( #285 ) ) ;
#356 = ADVANCED_FACE ( 'NONE', ( #192 ), #27, .T. ) ;
#357 = CIRCLE ( 'NONE', #245, 1.700000000000000000 ) ;
#358 = ORIENTED_EDGE ( 'NONE', *, *, #339, .T. ) ;
#359 = AXIS2_PLACEMENT_3D ( 'NONE', #76, #181, #184 ) ;
#360 = CARTESIAN_POINT ( 'NONE',  ( 0.0000000000000000000, 13.69999999999999900, 0.0000000000000000000 ) ) ;
#361 = LINE ( 'NONE', #231, #371 ) ;
#362 = CARTESIAN_POINT ( 'NONE',  ( 0.0000000000000000000, 7.000000000000000000, 0.0000000000000000000 ) ) ;
#363 = ORIENTED_EDGE ( 'NONE', *, *, #25, .F. ) ;
#364 = CLOSED_SHELL ( 'NONE', ( #353, #173, #33, #119, #258, #259, #6, #205, #115, #95, #356, #63, #293 ) ) ;
#365 = DIRECTION ( 'NONE',  ( 1.000000000000000000, -0.0000000000000000000, 1.224646799147353200E-016 ) ) ;
#366 = DIRECTION ( 'NONE',  ( 0.0000000000000000000, 0.0000000000000000000, -1.000000000000000000 ) ) ;
#367 = AXIS2_PLACEMENT_3D ( 'NONE', #362, #212, #366 ) ;
#368 = SURFACE_STYLE_USAGE ( .BOTH. , #308 ) ;
#369 = CIRCLE ( 'NONE', #215, 1.000000000000000000 ) ;
#370 = CARTESIAN_POINT ( 'NONE',  ( 0.0000000000000000000, 0.0000000000000000000, 0.5000000000000022200 ) ) ;
#371 = VECTOR ( 'NONE', #207, 1000.000000000000000 ) ;
#372 = EDGE_LOOP ( 'NONE', ( #23, #292, #203, #75 ) ) ;
ENDSEC;
END-ISO-10303-21;
