ISO-10303-21;
HEADER;
FILE_DESCRIPTION (( 'STEP AP214' ),
    '1' );
FILE_NAME ('38877~0.STEP',
    '2017-07-04T08:55:09',
    ( '' ),
    ( '' ),
    'SwSTEP 2.0',
    'SolidWorks 2016',
    '' );
FILE_SCHEMA (( 'AUTOMOTIVE_DESIGN' ));
ENDSEC;

DATA;
#1 = APPLICATION_CONTEXT ( 'automotive_design' ) ;
#2 = DIRECTION ( 'NONE',  ( 0.0000000000000000000, 0.0000000000000000000, -1.000000000000000000 ) ) ;
#3 = MECHANICAL_DESIGN_GEOMETRIC_PRESENTATION_REPRESENTATION (  '', ( #362 ), #9 ) ;
#4 = ORIENTED_EDGE ( 'NONE', *, *, #167, .F. ) ;
#5 = CARTESIAN_POINT ( 'NONE',  ( 0.0000000000000000000, 13.00000000000000200, -1.100000000000000100 ) ) ;
#6 = CARTESIAN_POINT ( 'NONE',  ( 0.0000000000000000000, 13.39999999999999900, 0.0000000000000000000 ) ) ;
#7 = VERTEX_POINT ( 'NONE', #35 ) ;
#8 = DIRECTION ( 'NONE',  ( -0.0000000000000000000, -1.000000000000000000, -0.0000000000000000000 ) ) ;
#9 =( GEOMETRIC_REPRESENTATION_CONTEXT ( 3 ) GLOBAL_UNCERTAINTY_ASSIGNED_CONTEXT ( ( #213 ) ) GLOBAL_UNIT_ASSIGNED_CONTEXT ( ( #179, #211, #329 ) ) REPRESENTATION_CONTEXT ( 'NONE', 'WORKASPACE' ) );
#10 = CIRCLE ( 'NONE', #190, 0.4999999999999952300 ) ;
#11 = CARTESIAN_POINT ( 'NONE',  ( 0.0000000000000000000, 13.00000000000000200, -1.100000000000000100 ) ) ;
#12 = EDGE_CURVE ( 'NONE', #136, #7, #220, .T. ) ;
#13 = ORIENTED_EDGE ( 'NONE', *, *, #91, .T. ) ;
#14 = PRODUCT_DEFINITION_CONTEXT ( 'detailed design', #1, 'design' ) ;
#15 = DIRECTION ( 'NONE',  ( -0.0000000000000000000, -1.000000000000000000, -0.0000000000000000000 ) ) ;
#16 = EDGE_CURVE ( 'NONE', #300, #252, #68, .T. ) ;
#17 = ORIENTED_EDGE ( 'NONE', *, *, #328, .T. ) ;
#18 = LINE ( 'NONE', #223, #330 ) ;
#19 = EDGE_CURVE ( 'NONE', #357, #85, #337, .T. ) ;
#20 = ADVANCED_FACE ( 'NONE', ( #327 ), #86, .T. ) ;
#21 = CARTESIAN_POINT ( 'NONE',  ( 0.0000000000000000000, 13.99999999999999800, 0.0000000000000000000 ) ) ;
#22 = AXIS2_PLACEMENT_3D ( 'NONE', #340, #281, #285 ) ;
#23 = CARTESIAN_POINT ( 'NONE',  ( 0.0000000000000000000, 13.00000000000000200, 0.0000000000000000000 ) ) ;
#24 = FACE_OUTER_BOUND ( 'NONE', #279, .T. ) ;
#25 = FACE_OUTER_BOUND ( 'NONE', #308, .T. ) ;
#26 = DIRECTION ( 'NONE',  ( 0.0000000000000000000, 0.0000000000000000000, -1.000000000000000000 ) ) ;
#27 = ORIENTED_EDGE ( 'NONE', *, *, #262, .F. ) ;
#28 =( NAMED_UNIT ( * ) PLANE_ANGLE_UNIT ( ) SI_UNIT ( $, .RADIAN. ) );
#29 = AXIS2_PLACEMENT_3D ( 'NONE', #298, #94, #324 ) ;
#30 = SURFACE_SIDE_STYLE ('',( #131 ) ) ;
#31 = CYLINDRICAL_SURFACE ( 'NONE', #161, 1.000000000000000000 ) ;
#32 = AXIS2_PLACEMENT_3D ( 'NONE', #39, #42, #245 ) ;
#33 = CARTESIAN_POINT ( 'NONE',  ( 6.123233995736708100E-017, 0.0000000000000000000, -0.4999999999999952300 ) ) ;
#34 = VERTEX_POINT ( 'NONE', #318 ) ;
#35 = CARTESIAN_POINT ( 'NONE',  ( 1.347111479062088500E-016, 7.000000000000000000, 1.100000000000000100 ) ) ;
#36 = CARTESIAN_POINT ( 'NONE',  ( 1.224646799147353200E-016, 6.999999999999999100, 1.000000000000000000 ) ) ;
#37 = DIRECTION ( 'NONE',  ( 0.0000000000000000000, 0.0000000000000000000, 1.000000000000000000 ) ) ;
#38 = UNCERTAINTY_MEASURE_WITH_UNIT (LENGTH_MEASURE( 1.000000000000000100E-005 ), #260, 'distance_accuracy_value', 'NONE');
#39 = CARTESIAN_POINT ( 'NONE',  ( 0.0000000000000000000, 13.00000000000000200, 0.0000000000000000000 ) ) ;
#40 = AXIS2_PLACEMENT_3D ( 'NONE', #132, #311, #196 ) ;
#41 = CIRCLE ( 'NONE', #257, 0.1762395692965994500 ) ;
#42 = DIRECTION ( 'NONE',  ( -0.0000000000000000000, -1.000000000000000000, -0.0000000000000000000 ) ) ;
#43 = DIRECTION ( 'NONE',  ( -0.0000000000000000000, -1.000000000000000000, -0.0000000000000000000 ) ) ;
#44 = AXIS2_PLACEMENT_3D ( 'NONE', #162, #356, #63 ) ;
#45 = VERTEX_POINT ( 'NONE', #147 ) ;
#46 = DIRECTION ( 'NONE',  ( 6.123233995736782100E-017, -0.8660254037844380400, 0.5000000000000012200 ) ) ;
#47 = FACE_OUTER_BOUND ( 'NONE', #64, .T. ) ;
#48 = DIRECTION ( 'NONE',  ( 1.000000000000000000, -0.0000000000000000000, 1.224646799147353200E-016 ) ) ;
#49 = CARTESIAN_POINT ( 'NONE',  ( 0.0000000000000000000, 0.0000000000000000000, -1.100000000000000100 ) ) ;
#50 = VERTEX_POINT ( 'NONE', #202 ) ;
#51 = PRESENTATION_LAYER_ASSIGNMENT (  '', '', ( #59 ) ) ;
#52 = DIRECTION ( 'NONE',  ( 0.0000000000000000000, 1.000000000000000000, 0.0000000000000000000 ) ) ;
#53 = DIRECTION ( 'NONE',  ( 0.0000000000000000000, 0.0000000000000000000, 1.000000000000000000 ) ) ;
#54 = CARTESIAN_POINT ( 'NONE',  ( 9.184850993605118900E-017, 0.0000000000000000000, -0.4999999999999952300 ) ) ;
#55 = ORIENTED_EDGE ( 'NONE', *, *, #243, .F. ) ;
#56 = CARTESIAN_POINT ( 'NONE',  ( 0.0000000000000000000, 0.0000000000000000000, 0.0000000000000000000 ) ) ;
#57 = PRESENTATION_STYLE_ASSIGNMENT (( #171 ) ) ;
#58 = DIRECTION ( 'NONE',  ( 0.0000000000000000000, 0.0000000000000000000, 1.000000000000000000 ) ) ;
#59 = STYLED_ITEM ( 'NONE', ( #57 ), #352 ) ;
#60 = DIRECTION ( 'NONE',  ( -0.0000000000000000000, -1.000000000000000000, -0.0000000000000000000 ) ) ;
#61 = VERTEX_POINT ( 'NONE', #5 ) ;
#62 = ORIENTED_EDGE ( 'NONE', *, *, #91, .F. ) ;
#63 = DIRECTION ( 'NONE',  ( 0.0000000000000000000, 0.0000000000000000000, 1.000000000000000000 ) ) ;
#64 = EDGE_LOOP ( 'NONE', ( #235, #69, #170, #55 ) ) ;
#65 = AXIS2_PLACEMENT_3D ( 'NONE', #181, #301, #118 ) ;
#66 = DIRECTION ( 'NONE',  ( 0.0000000000000000000, 1.000000000000000000, 0.0000000000000000000 ) ) ;
#67 = DIRECTION ( 'NONE',  ( -0.0000000000000000000, -1.000000000000000000, -0.0000000000000000000 ) ) ;
#68 = CIRCLE ( 'NONE', #115, 0.6958548115672617000 ) ;
#69 = ORIENTED_EDGE ( 'NONE', *, *, #16, .T. ) ;
#70 = DIRECTION ( 'NONE',  ( 0.0000000000000000000, 0.0000000000000000000, -1.000000000000000000 ) ) ;
#71 = EDGE_CURVE ( 'NONE', #300, #34, #267, .T. ) ;
#72 = FACE_OUTER_BOUND ( 'NONE', #248, .T. ) ;
#73 = MANIFOLD_SOLID_BREP ( 'Verrundung1', #323 ) ;
#74 = ADVANCED_FACE ( 'NONE', ( #145 ), #173, .T. ) ;
#75 = CIRCLE ( 'NONE', #209, 0.4999999999999952300 ) ;
#76 = CARTESIAN_POINT ( 'NONE',  ( 1.099643923359609900E-016, 13.69999999999999900, 0.6958548115672617000 ) ) ;
#77 = EDGE_CURVE ( 'NONE', #359, #85, #336, .T. ) ;
#78 = DIRECTION ( 'NONE',  ( -0.0000000000000000000, -1.000000000000000000, -0.0000000000000000000 ) ) ;
#79 = FACE_OUTER_BOUND ( 'NONE', #259, .T. ) ;
#80 = DIRECTION ( 'NONE',  ( 0.0000000000000000000, 0.0000000000000000000, 1.000000000000000000 ) ) ;
#81 = EDGE_LOOP ( 'NONE', ( #206, #27 ) ) ;
#82 = CIRCLE ( 'NONE', #133, 0.6958548115672617000 ) ;
#83 = FILL_AREA_STYLE ('',( #200 ) ) ;
#84 = CARTESIAN_POINT ( 'NONE',  ( 0.0000000000000000000, 0.0000000000000000000, 0.0000000000000000000 ) ) ;
#85 = VERTEX_POINT ( 'NONE', #353 ) ;
#86 = PLANE ( 'NONE',  #325 ) ;
#87 = CIRCLE ( 'NONE', #142, 1.000000000000000000 ) ;
#88 = FACE_BOUND ( 'NONE', #81, .T. ) ;
#89 = AXIS2_PLACEMENT_3D ( 'NONE', #290, #113, #174 ) ;
#90 = ORIENTED_EDGE ( 'NONE', *, *, #109, .F. ) ;
#91 = EDGE_CURVE ( 'NONE', #7, #136, #321, .T. ) ;
#92 = CARTESIAN_POINT ( 'NONE',  ( 1.224646799147353200E-016, 0.0000000000000000000, 1.000000000000000000 ) ) ;
#93 = CIRCLE ( 'NONE', #120, 1.000000000000000000 ) ;
#94 = DIRECTION ( 'NONE',  ( 0.0000000000000000000, -1.000000000000000000, -0.0000000000000000000 ) ) ;
#95 = CARTESIAN_POINT ( 'NONE',  ( 0.0000000000000000000, 7.000000000000000000, -1.100000000000000100 ) ) ;
#96 = AXIS2_PLACEMENT_3D ( 'NONE', #322, #238, #203 ) ;
#97 = CIRCLE ( 'NONE', #201, 0.1762395692965994500 ) ;
#98 = ADVANCED_FACE ( 'NONE', ( #79 ), #289, .T. ) ;
#99 = ORIENTED_EDGE ( 'NONE', *, *, #292, .T. ) ;
#100 = ADVANCED_FACE ( 'NONE', ( #25, #88 ), #266, .T. ) ;
#101 = AXIS2_PLACEMENT_3D ( 'NONE', #274, #208, #240 ) ;
#102 = DIRECTION ( 'NONE',  ( 0.0000000000000000000, 0.0000000000000000000, -1.000000000000000000 ) ) ;
#103 = EDGE_LOOP ( 'NONE', ( #135, #199 ) ) ;
#104 = EDGE_CURVE ( 'NONE', #252, #61, #256, .T. ) ;
#105 = DIRECTION ( 'NONE',  ( -0.0000000000000000000, -1.000000000000000000, -0.0000000000000000000 ) ) ;
#106 = EDGE_CURVE ( 'NONE', #303, #359, #293, .T. ) ;
#107 = CARTESIAN_POINT ( 'NONE',  ( 0.0000000000000000000, 0.0000000000000000000, 0.0000000000000000000 ) ) ;
#108 = DIRECTION ( 'NONE',  ( -0.0000000000000000000, -1.000000000000000000, -0.0000000000000000000 ) ) ;
#109 = EDGE_CURVE ( 'NONE', #252, #300, #82, .T. ) ;
#110 = CARTESIAN_POINT ( 'NONE',  ( 1.224646799147353200E-016, 0.5000000000000065500, 1.000000000000000000 ) ) ;
#111 = PRESENTATION_STYLE_ASSIGNMENT (( #187 ) ) ;
#112 = DIRECTION ( 'NONE',  ( 1.000000000000000000, 0.0000000000000000000, 0.0000000000000000000 ) ) ;
#113 = DIRECTION ( 'NONE',  ( -0.0000000000000000000, -1.000000000000000000, -0.0000000000000000000 ) ) ;
#114 = CONICAL_SURFACE ( 'NONE', #40, 1.100000000000000100, 0.5235987755983002600 ) ;
#115 = AXIS2_PLACEMENT_3D ( 'NONE', #351, #60, #234 ) ;
#116 = DIRECTION ( 'NONE',  ( 0.0000000000000000000, 1.000000000000000000, 0.0000000000000000000 ) ) ;
#117 = ORIENTED_EDGE ( 'NONE', *, *, #268, .T. ) ;
#118 = DIRECTION ( 'NONE',  ( 0.0000000000000000000, 0.0000000000000000000, -1.000000000000000000 ) ) ;
#119 = ORIENTED_EDGE ( 'NONE', *, *, #149, .F. ) ;
#120 = AXIS2_PLACEMENT_3D ( 'NONE', #345, #369, #70 ) ;
#121 = CIRCLE ( 'NONE', #332, 1.100000000000000100 ) ;
#122 = EDGE_CURVE ( 'NONE', #357, #303, #10, .T. ) ;
#123 = CARTESIAN_POINT ( 'NONE',  ( 0.0000000000000000000, 0.0000000000000000000, 0.0000000000000000000 ) ) ;
#124 = CARTESIAN_POINT ( 'NONE',  ( 0.0000000000000000000, 0.0000000000000000000, 0.4999999999999952300 ) ) ;
#125 = ORIENTED_EDGE ( 'NONE', *, *, #233, .F. ) ;
#126 = ORIENTED_EDGE ( 'NONE', *, *, #275, .T. ) ;
#127 = PRESENTATION_LAYER_ASSIGNMENT (  '', '', ( #362 ) ) ;
#128 = ADVANCED_FACE ( 'NONE', ( #280 ), #172, .T. ) ;
#129 = EDGE_CURVE ( 'NONE', #61, #215, #255, .T. ) ;
#130 = ORIENTED_EDGE ( 'NONE', *, *, #129, .F. ) ;
#131 = SURFACE_STYLE_FILL_AREA ( #83 ) ;
#132 = CARTESIAN_POINT ( 'NONE',  ( 0.0000000000000000000, 13.00000000000000200, 0.0000000000000000000 ) ) ;
#133 = AXIS2_PLACEMENT_3D ( 'NONE', #326, #67, #185 ) ;
#134 = CARTESIAN_POINT ( 'NONE',  ( 0.0000000000000000000, 6.999999999999999100, 0.0000000000000000000 ) ) ;
#135 = ORIENTED_EDGE ( 'NONE', *, *, #348, .T. ) ;
#136 = VERTEX_POINT ( 'NONE', #95 ) ;
#137 = DIRECTION ( 'NONE',  ( 0.0000000000000000000, 1.000000000000000000, 0.0000000000000000000 ) ) ;
#138 = DIRECTION ( 'NONE',  ( 0.0000000000000000000, 0.0000000000000000000, -1.000000000000000000 ) ) ;
#139 = VECTOR ( 'NONE', #159, 1000.000000000000000 ) ;
#140 = APPLICATION_CONTEXT ( 'automotive_design' ) ;
#141 = EDGE_LOOP ( 'NONE', ( #99, #126 ) ) ;
#142 = AXIS2_PLACEMENT_3D ( 'NONE', #134, #43, #102 ) ;
#143 = VECTOR ( 'NONE', #242, 999.9999999999998900 ) ;
#144 = CARTESIAN_POINT ( 'NONE',  ( 0.0000000000000000000, 0.0000000000000000000, 0.0000000000000000000 ) ) ;
#145 = FACE_OUTER_BOUND ( 'NONE', #146, .T. ) ;
#146 = EDGE_LOOP ( 'NONE', ( #4, #191, #349, #333 ) ) ;
#147 = CARTESIAN_POINT ( 'NONE',  ( 0.0000000000000000000, 6.999999999999999100, -1.000000000000000000 ) ) ;
#148 = COLOUR_RGB ( '',0.7529411764705882200, 0.7529411764705882200, 0.7529411764705882200 ) ;
#149 = EDGE_CURVE ( 'NONE', #85, #359, #302, .T. ) ;
#150 = DIRECTION ( 'NONE',  ( -1.000000000000000000, 0.0000000000000000000, 0.0000000000000000000 ) ) ;
#151 = CARTESIAN_POINT ( 'NONE',  ( 0.0000000000000000000, 0.0000000000000000000, 0.0000000000000000000 ) ) ;
#152 = MECHANICAL_DESIGN_GEOMETRIC_PRESENTATION_REPRESENTATION (  '', ( #59 ), #339 ) ;
#153 = EDGE_LOOP ( 'NONE', ( #317, #343, #287, #225 ) ) ;
#154 = PRODUCT_DEFINITION_SHAPE ( 'NONE', 'NONE',  #286 ) ;
#155 = DIRECTION ( 'NONE',  ( -0.0000000000000000000, -1.000000000000000000, -0.0000000000000000000 ) ) ;
#156 = FACE_OUTER_BOUND ( 'NONE', #244, .T. ) ;
#157 = DIRECTION ( 'NONE',  ( 0.0000000000000000000, 0.0000000000000000000, -1.000000000000000000 ) ) ;
#158 = ORIENTED_EDGE ( 'NONE', *, *, #175, .F. ) ;
#159 = DIRECTION ( 'NONE',  ( 0.0000000000000000000, 0.7071067811865487900, 0.7071067811865463500 ) ) ;
#160 = ORIENTED_EDGE ( 'NONE', *, *, #122, .F. ) ;
#161 = AXIS2_PLACEMENT_3D ( 'NONE', #107, #15, #26 ) ;
#162 = CARTESIAN_POINT ( 'NONE',  ( 0.0000000000000000000, 13.39999999999999900, 0.0000000000000000000 ) ) ;
#163 = VERTEX_POINT ( 'NONE', #36 ) ;
#164 = AXIS2_PLACEMENT_3D ( 'NONE', #123, #8, #269 ) ;
#165 = DIRECTION ( 'NONE',  ( 0.0000000000000000000, 0.0000000000000000000, -1.000000000000000000 ) ) ;
#166 = CARTESIAN_POINT ( 'NONE',  ( 2.158312244221886900E-017, 13.39999999999999900, -0.1762395692965994500 ) ) ;
#167 = EDGE_CURVE ( 'NONE', #252, #50, #341, .T. ) ;
#168 = DIRECTION ( 'NONE',  ( 0.0000000000000000000, -0.0000000000000000000, 1.000000000000000000 ) ) ;
#169 = PRODUCT_CONTEXT ( 'NONE', #140, 'mechanical' ) ;
#170 = ORIENTED_EDGE ( 'NONE', *, *, #104, .T. ) ;
#171 = SURFACE_STYLE_USAGE ( .BOTH. , #30 ) ;
#172 = TOROIDAL_SURFACE ( 'NONE', #44, 0.1762395692965994500, 0.5999999999999999800 ) ;
#173 = TOROIDAL_SURFACE ( 'NONE', #222, 0.1762395692965994500, 0.5999999999999999800 ) ;
#174 = DIRECTION ( 'NONE',  ( 0.0000000000000000000, 0.0000000000000000000, -1.000000000000000000 ) ) ;
#175 = EDGE_CURVE ( 'NONE', #163, #359, #271, .T. ) ;
#176 = CONICAL_SURFACE ( 'NONE', #22, 1.100000000000000100, 0.5235987755983002600 ) ;
#177 = CARTESIAN_POINT ( 'NONE',  ( 0.0000000000000000000, 13.39999999999999900, 0.1762395692965994500 ) ) ;
#178 = ORIENTED_EDGE ( 'NONE', *, *, #262, .T. ) ;
#179 =( LENGTH_UNIT ( ) NAMED_UNIT ( * ) SI_UNIT ( .MILLI., .METRE. ) );
#180 = FACE_OUTER_BOUND ( 'NONE', #153, .T. ) ;
#181 = CARTESIAN_POINT ( 'NONE',  ( 0.0000000000000000000, 7.000000000000000000, 0.0000000000000000000 ) ) ;
#182 = CARTESIAN_POINT ( 'NONE',  ( 0.0000000000000000000, 0.5000000000000065500, 0.0000000000000000000 ) ) ;
#183 = AXIS2_PLACEMENT_3D ( 'NONE', #177, #150, #205 ) ;
#184 = ORIENTED_EDGE ( 'NONE', *, *, #348, .F. ) ;
#185 = DIRECTION ( 'NONE',  ( 0.0000000000000000000, 0.0000000000000000000, 1.000000000000000000 ) ) ;
#186 = FACE_OUTER_BOUND ( 'NONE', #265, .T. ) ;
#187 = SURFACE_STYLE_USAGE ( .BOTH. , #272 ) ;
#188 = DIRECTION ( 'NONE',  ( 0.0000000000000000000, 0.0000000000000000000, 1.000000000000000000 ) ) ;
#189 = ORIENTED_EDGE ( 'NONE', *, *, #346, .F. ) ;
#190 = AXIS2_PLACEMENT_3D ( 'NONE', #331, #155, #212 ) ;
#191 = ORIENTED_EDGE ( 'NONE', *, *, #16, .F. ) ;
#192 = CYLINDRICAL_SURFACE ( 'NONE', #194, 1.100000000000000100 ) ;
#193 = DIRECTION ( 'NONE',  ( -0.0000000000000000000, -1.000000000000000000, -0.0000000000000000000 ) ) ;
#194 = AXIS2_PLACEMENT_3D ( 'NONE', #307, #105, #138 ) ;
#195 = EDGE_LOOP ( 'NONE', ( #90, #299, #239, #361 ) ) ;
#196 = DIRECTION ( 'NONE',  ( 0.0000000000000000000, 0.0000000000000000000, -1.000000000000000000 ) ) ;
#197 = DIRECTION ( 'NONE',  ( -0.0000000000000000000, -1.000000000000000000, -0.0000000000000000000 ) ) ;
#198 = DIRECTION ( 'NONE',  ( 0.0000000000000000000, 0.0000000000000000000, -1.000000000000000000 ) ) ;
#199 = ORIENTED_EDGE ( 'NONE', *, *, #122, .T. ) ;
#200 = FILL_AREA_STYLE_COLOUR ( '', #148 ) ;
#201 = AXIS2_PLACEMENT_3D ( 'NONE', #306, #137, #253 ) ;
#202 = CARTESIAN_POINT ( 'NONE',  ( 5.340037960396606600E-017, 13.99999999999999800, -0.1762395692965994500 ) ) ;
#203 = DIRECTION ( 'NONE',  ( 0.0000000000000000000, 0.0000000000000000000, -1.000000000000000000 ) ) ;
#204 = ORIENTED_EDGE ( 'NONE', *, *, #346, .T. ) ;
#205 = DIRECTION ( 'NONE',  ( 0.0000000000000000000, 0.0000000000000000000, 1.000000000000000000 ) ) ;
#206 = ORIENTED_EDGE ( 'NONE', *, *, #251, .F. ) ;
#207 = FILL_AREA_STYLE ('',( #320 ) ) ;
#208 = DIRECTION ( 'NONE',  ( 0.0000000000000000000, 1.000000000000000000, 0.0000000000000000000 ) ) ;
#209 = AXIS2_PLACEMENT_3D ( 'NONE', #84, #108, #198 ) ;
#210 = ORIENTED_EDGE ( 'NONE', *, *, #12, .T. ) ;
#211 =( NAMED_UNIT ( * ) PLANE_ANGLE_UNIT ( ) SI_UNIT ( $, .RADIAN. ) );
#212 = DIRECTION ( 'NONE',  ( 0.0000000000000000000, 0.0000000000000000000, -1.000000000000000000 ) ) ;
#213 = UNCERTAINTY_MEASURE_WITH_UNIT (LENGTH_MEASURE( 1.000000000000000100E-005 ), #179, 'distance_accuracy_value', 'NONE');
#214 = AXIS2_PLACEMENT_3D ( 'NONE', #182, #66, #157 ) ;
#215 = VERTEX_POINT ( 'NONE', #277 ) ;
#216 = ORIENTED_EDGE ( 'NONE', *, *, #19, .F. ) ;
#217 = VECTOR ( 'NONE', #193, 1000.000000000000000 ) ;
#218 = ADVANCED_FACE ( 'NONE', ( #364 ), #282, .T. ) ;
#219 = ADVANCED_FACE ( 'NONE', ( #226 ), #231, .T. ) ;
#220 = CIRCLE ( 'NONE', #96, 1.100000000000000100 ) ;
#221 = ADVANCED_FACE ( 'NONE', ( #156 ), #176, .T. ) ;
#222 = AXIS2_PLACEMENT_3D ( 'NONE', #6, #116, #37 ) ;
#223 = CARTESIAN_POINT ( 'NONE',  ( 1.347111479062088500E-016, 13.00000000000000200, 1.100000000000000100 ) ) ;
#224 = VECTOR ( 'NONE', #264, 1000.000000000000000 ) ;
#225 = ORIENTED_EDGE ( 'NONE', *, *, #328, .F. ) ;
#226 = FACE_OUTER_BOUND ( 'NONE', #229, .T. ) ;
#227 = CARTESIAN_POINT ( 'NONE',  ( 0.0000000000000000000, 0.0000000000000000000, 0.4999999999999952300 ) ) ;
#228 = DIRECTION ( 'NONE',  ( 0.0000000000000000000, 1.000000000000000000, 0.0000000000000000000 ) ) ;
#229 = EDGE_LOOP ( 'NONE', ( #216, #184, #372, #119 ) ) ;
#230 =( LENGTH_UNIT ( ) NAMED_UNIT ( * ) SI_UNIT ( .MILLI., .METRE. ) );
#231 = CONICAL_SURFACE ( 'NONE', #355, 0.4999999999999952300, 0.7853981633974466100 ) ;
#232 =( NAMED_UNIT ( * ) PLANE_ANGLE_UNIT ( ) SI_UNIT ( $, .RADIAN. ) );
#233 = EDGE_CURVE ( 'NONE', #61, #136, #296, .T. ) ;
#234 = DIRECTION ( 'NONE',  ( 0.0000000000000000000, 0.0000000000000000000, 1.000000000000000000 ) ) ;
#235 = ORIENTED_EDGE ( 'NONE', *, *, #268, .F. ) ;
#236 = AXIS2_PLACEMENT_3D ( 'NONE', #166, #48, #342 ) ;
#237 = CYLINDRICAL_SURFACE ( 'NONE', #89, 1.000000000000000000 ) ;
#238 = DIRECTION ( 'NONE',  ( -0.0000000000000000000, -1.000000000000000000, -0.0000000000000000000 ) ) ;
#239 = ORIENTED_EDGE ( 'NONE', *, *, #292, .F. ) ;
#240 = DIRECTION ( 'NONE',  ( 0.0000000000000000000, 0.0000000000000000000, -1.000000000000000000 ) ) ;
#241 = LINE ( 'NONE', #370, #319 ) ;
#242 = DIRECTION ( 'NONE',  ( 0.0000000000000000000, -0.8660254037844380400, -0.5000000000000012200 ) ) ;
#243 = EDGE_CURVE ( 'NONE', #215, #61, #121, .T. ) ;
#244 = EDGE_LOOP ( 'NONE', ( #284, #117, #130, #344 ) ) ;
#245 = DIRECTION ( 'NONE',  ( 0.0000000000000000000, 0.0000000000000000000, -1.000000000000000000 ) ) ;
#246 = CARTESIAN_POINT ( 'NONE',  ( 0.5226497308103729100, 13.99999999999999800, 0.0000000000000000000 ) ) ;
#247 = ADVANCED_FACE ( 'NONE', ( #72 ), #192, .T. ) ;
#248 = EDGE_LOOP ( 'NONE', ( #189, #283, #295, #62 ) ) ;
#249 = AXIS2_PLACEMENT_3D ( 'NONE', #56, #58, #112 ) ;
#250 = PRODUCT ( '38877~0', '38877~0', '', ( #169 ) ) ;
#251 = EDGE_CURVE ( 'NONE', #45, #163, #93, .T. ) ;
#252 = VERTEX_POINT ( 'NONE', #367 ) ;
#253 = DIRECTION ( 'NONE',  ( 0.0000000000000000000, 0.0000000000000000000, 1.000000000000000000 ) ) ;
#254 = DIRECTION ( 'NONE',  ( -0.0000000000000000000, -1.000000000000000000, -0.0000000000000000000 ) ) ;
#255 = CIRCLE ( 'NONE', #32, 1.100000000000000100 ) ;
#256 = LINE ( 'NONE', #11, #143 ) ;
#257 = AXIS2_PLACEMENT_3D ( 'NONE', #21, #52, #80 ) ;
#258 = CARTESIAN_POINT ( 'NONE',  ( 0.0000000000000000000, 0.0000000000000000000, -1.000000000000000000 ) ) ;
#259 = EDGE_LOOP ( 'NONE', ( #354, #204, #276, #125 ) ) ;
#260 =( LENGTH_UNIT ( ) NAMED_UNIT ( * ) SI_UNIT ( .MILLI., .METRE. ) );
#261 = COLOUR_RGB ( '',0.7529411764705882200, 0.7529411764705882200, 0.7529411764705882200 ) ;
#262 = EDGE_CURVE ( 'NONE', #163, #45, #87, .T. ) ;
#263 = VECTOR ( 'NONE', #78, 1000.000000000000000 ) ;
#264 = DIRECTION ( 'NONE',  ( 8.659560562354919300E-017, 0.7071067811865487900, -0.7071067811865463500 ) ) ;
#265 = EDGE_LOOP ( 'NONE', ( #158, #178, #17, #291 ) ) ;
#266 = PLANE ( 'NONE',  #29 ) ;
#267 = CIRCLE ( 'NONE', #183, 0.5999999999999999800 ) ;
#268 = EDGE_CURVE ( 'NONE', #300, #215, #18, .T. ) ;
#269 = DIRECTION ( 'NONE',  ( 0.0000000000000000000, 0.0000000000000000000, -1.000000000000000000 ) ) ;
#270 = SHAPE_DEFINITION_REPRESENTATION ( #154, #352 ) ;
#271 = LINE ( 'NONE', #92, #263 ) ;
#272 = SURFACE_SIDE_STYLE ('',( #366 ) ) ;
#273 = PRODUCT_RELATED_PRODUCT_CATEGORY ( 'part', '', ( #250 ) ) ;
#274 = CARTESIAN_POINT ( 'NONE',  ( 0.0000000000000000000, 0.5000000000000065500, 0.0000000000000000000 ) ) ;
#275 = EDGE_CURVE ( 'NONE', #50, #34, #97, .T. ) ;
#276 = ORIENTED_EDGE ( 'NONE', *, *, #12, .F. ) ;
#277 = CARTESIAN_POINT ( 'NONE',  ( 1.347111479062088500E-016, 13.00000000000000200, 1.100000000000000100 ) ) ;
#278 = ADVANCED_FACE ( 'NONE', ( #47 ), #114, .T. ) ;
#279 = EDGE_LOOP ( 'NONE', ( #160, #314, #350, #309 ) ) ;
#280 = FACE_OUTER_BOUND ( 'NONE', #195, .T. ) ;
#281 = DIRECTION ( 'NONE',  ( -0.0000000000000000000, -1.000000000000000000, -0.0000000000000000000 ) ) ;
#282 = PLANE ( 'NONE',  #304 ) ;
#283 = ORIENTED_EDGE ( 'NONE', *, *, #243, .T. ) ;
#284 = ORIENTED_EDGE ( 'NONE', *, *, #109, .T. ) ;
#285 = DIRECTION ( 'NONE',  ( 0.0000000000000000000, 0.0000000000000000000, -1.000000000000000000 ) ) ;
#286 = PRODUCT_DEFINITION ( 'UNKNOWN', '', #316, #14 ) ;
#287 = ORIENTED_EDGE ( 'NONE', *, *, #77, .T. ) ;
#288 = APPLICATION_PROTOCOL_DEFINITION ( 'draft international standard', 'automotive_design', 1998, #1 ) ;
#289 = CYLINDRICAL_SURFACE ( 'NONE', #164, 1.100000000000000100 ) ;
#290 = CARTESIAN_POINT ( 'NONE',  ( 0.0000000000000000000, 0.0000000000000000000, 0.0000000000000000000 ) ) ;
#291 = ORIENTED_EDGE ( 'NONE', *, *, #149, .T. ) ;
#292 = EDGE_CURVE ( 'NONE', #34, #50, #41, .T. ) ;
#293 = LINE ( 'NONE', #124, #139 ) ;
#294 = DIRECTION ( 'NONE',  ( 0.0000000000000000000, -1.000000000000000000, -0.0000000000000000000 ) ) ;
#295 = ORIENTED_EDGE ( 'NONE', *, *, #233, .T. ) ;
#296 = LINE ( 'NONE', #49, #217 ) ;
#297 =( GEOMETRIC_REPRESENTATION_CONTEXT ( 3 ) GLOBAL_UNCERTAINTY_ASSIGNED_CONTEXT ( ( #38 ) ) GLOBAL_UNIT_ASSIGNED_CONTEXT ( ( #260, #28, #315 ) ) REPRESENTATION_CONTEXT ( 'NONE', 'WORKASPACE' ) );
#298 = CARTESIAN_POINT ( 'NONE',  ( 1.000000000000000000, 6.999999999999999100, 0.0000000000000000000 ) ) ;
#299 = ORIENTED_EDGE ( 'NONE', *, *, #167, .T. ) ;
#300 = VERTEX_POINT ( 'NONE', #76 ) ;
#301 = DIRECTION ( 'NONE',  ( -0.0000000000000000000, -1.000000000000000000, -0.0000000000000000000 ) ) ;
#302 = CIRCLE ( 'NONE', #101, 1.000000000000000000 ) ;
#303 = VERTEX_POINT ( 'NONE', #227 ) ;
#304 = AXIS2_PLACEMENT_3D ( 'NONE', #246, #312, #168 ) ;
#305 = LINE ( 'NONE', #258, #347 ) ;
#306 = CARTESIAN_POINT ( 'NONE',  ( 0.0000000000000000000, 13.99999999999999800, 0.0000000000000000000 ) ) ;
#307 = CARTESIAN_POINT ( 'NONE',  ( 0.0000000000000000000, 0.0000000000000000000, 0.0000000000000000000 ) ) ;
#308 = EDGE_LOOP ( 'NONE', ( #210, #13 ) ) ;
#309 = ORIENTED_EDGE ( 'NONE', *, *, #106, .F. ) ;
#310 = CONICAL_SURFACE ( 'NONE', #368, 0.4999999999999952300, 0.7853981633974466100 ) ;
#311 = DIRECTION ( 'NONE',  ( -0.0000000000000000000, -1.000000000000000000, -0.0000000000000000000 ) ) ;
#312 = DIRECTION ( 'NONE',  ( 0.0000000000000000000, 1.000000000000000000, 0.0000000000000000000 ) ) ;
#313 = APPLICATION_PROTOCOL_DEFINITION ( 'draft international standard', 'automotive_design', 1998, #140 ) ;
#314 = ORIENTED_EDGE ( 'NONE', *, *, #19, .T. ) ;
#315 =( NAMED_UNIT ( * ) SI_UNIT ( $, .STERADIAN. ) SOLID_ANGLE_UNIT ( ) );
#316 = PRODUCT_DEFINITION_FORMATION_WITH_SPECIFIED_SOURCE ( 'ANY', '', #250, .NOT_KNOWN. ) ;
#317 = ORIENTED_EDGE ( 'NONE', *, *, #251, .T. ) ;
#318 = CARTESIAN_POINT ( 'NONE',  ( 0.0000000000000000000, 13.99999999999999800, 0.1762395692965994500 ) ) ;
#319 = VECTOR ( 'NONE', #197, 1000.000000000000000 ) ;
#320 = FILL_AREA_STYLE_COLOUR ( '', #261 ) ;
#321 = CIRCLE ( 'NONE', #65, 1.100000000000000100 ) ;
#322 = CARTESIAN_POINT ( 'NONE',  ( 0.0000000000000000000, 7.000000000000000000, 0.0000000000000000000 ) ) ;
#323 = CLOSED_SHELL ( 'NONE', ( #128, #335, #363, #98, #221, #218, #278, #247, #100, #334, #20, #219, #74 ) ) ;
#324 = DIRECTION ( 'NONE',  ( 0.0000000000000000000, 0.0000000000000000000, -1.000000000000000000 ) ) ;
#325 = AXIS2_PLACEMENT_3D ( 'NONE', #151, #294, #2 ) ;
#326 = CARTESIAN_POINT ( 'NONE',  ( 0.0000000000000000000, 13.69999999999999900, 0.0000000000000000000 ) ) ;
#327 = FACE_OUTER_BOUND ( 'NONE', #103, .T. ) ;
#328 = EDGE_CURVE ( 'NONE', #45, #85, #305, .T. ) ;
#329 =( NAMED_UNIT ( * ) SI_UNIT ( $, .STERADIAN. ) SOLID_ANGLE_UNIT ( ) );
#330 = VECTOR ( 'NONE', #46, 999.9999999999998900 ) ;
#331 = CARTESIAN_POINT ( 'NONE',  ( 0.0000000000000000000, 0.0000000000000000000, 0.0000000000000000000 ) ) ;
#332 = AXIS2_PLACEMENT_3D ( 'NONE', #23, #254, #165 ) ;
#333 = ORIENTED_EDGE ( 'NONE', *, *, #275, .F. ) ;
#334 = ADVANCED_FACE ( 'NONE', ( #186 ), #31, .T. ) ;
#335 = ADVANCED_FACE ( 'NONE', ( #24 ), #310, .T. ) ;
#336 = CIRCLE ( 'NONE', #214, 1.000000000000000000 ) ;
#337 = LINE ( 'NONE', #33, #224 ) ;
#338 = CARTESIAN_POINT ( 'NONE',  ( 0.0000000000000000000, 0.0000000000000000000, 0.0000000000000000000 ) ) ;
#339 =( GEOMETRIC_REPRESENTATION_CONTEXT ( 3 ) GLOBAL_UNCERTAINTY_ASSIGNED_CONTEXT ( ( #360 ) ) GLOBAL_UNIT_ASSIGNED_CONTEXT ( ( #230, #232, #371 ) ) REPRESENTATION_CONTEXT ( 'NONE', 'WORKASPACE' ) );
#340 = CARTESIAN_POINT ( 'NONE',  ( 0.0000000000000000000, 13.00000000000000200, 0.0000000000000000000 ) ) ;
#341 = CIRCLE ( 'NONE', #236, 0.5999999999999999800 ) ;
#342 = DIRECTION ( 'NONE',  ( 1.224646799147353000E-016, 0.0000000000000000000, -1.000000000000000000 ) ) ;
#343 = ORIENTED_EDGE ( 'NONE', *, *, #175, .T. ) ;
#344 = ORIENTED_EDGE ( 'NONE', *, *, #104, .F. ) ;
#345 = CARTESIAN_POINT ( 'NONE',  ( 0.0000000000000000000, 6.999999999999999100, 0.0000000000000000000 ) ) ;
#346 = EDGE_CURVE ( 'NONE', #215, #7, #241, .T. ) ;
#347 = VECTOR ( 'NONE', #358, 1000.000000000000000 ) ;
#348 = EDGE_CURVE ( 'NONE', #303, #357, #75, .T. ) ;
#349 = ORIENTED_EDGE ( 'NONE', *, *, #71, .T. ) ;
#350 = ORIENTED_EDGE ( 'NONE', *, *, #77, .F. ) ;
#351 = CARTESIAN_POINT ( 'NONE',  ( 0.0000000000000000000, 13.69999999999999900, 0.0000000000000000000 ) ) ;
#352 = ADVANCED_BREP_SHAPE_REPRESENTATION ( '38877~0', ( #73, #249 ), #297 ) ;
#353 = CARTESIAN_POINT ( 'NONE',  ( 0.0000000000000000000, 0.5000000000000065500, -1.000000000000000000 ) ) ;
#354 = ORIENTED_EDGE ( 'NONE', *, *, #129, .T. ) ;
#355 = AXIS2_PLACEMENT_3D ( 'NONE', #338, #365, #188 ) ;
#356 = DIRECTION ( 'NONE',  ( 0.0000000000000000000, 1.000000000000000000, 0.0000000000000000000 ) ) ;
#357 = VERTEX_POINT ( 'NONE', #54 ) ;
#358 = DIRECTION ( 'NONE',  ( -0.0000000000000000000, -1.000000000000000000, -0.0000000000000000000 ) ) ;
#359 = VERTEX_POINT ( 'NONE', #110 ) ;
#360 = UNCERTAINTY_MEASURE_WITH_UNIT (LENGTH_MEASURE( 1.000000000000000100E-005 ), #230, 'distance_accuracy_value', 'NONE');
#361 = ORIENTED_EDGE ( 'NONE', *, *, #71, .F. ) ;
#362 = STYLED_ITEM ( 'NONE', ( #111 ), #73 ) ;
#363 = ADVANCED_FACE ( 'NONE', ( #180 ), #237, .T. ) ;
#364 = FACE_OUTER_BOUND ( 'NONE', #141, .T. ) ;
#365 = DIRECTION ( 'NONE',  ( 0.0000000000000000000, 1.000000000000000000, 0.0000000000000000000 ) ) ;
#366 = SURFACE_STYLE_FILL_AREA ( #207 ) ;
#367 = CARTESIAN_POINT ( 'NONE',  ( 0.0000000000000000000, 13.69999999999999900, -0.6958548115672617000 ) ) ;
#368 = AXIS2_PLACEMENT_3D ( 'NONE', #144, #228, #53 ) ;
#369 = DIRECTION ( 'NONE',  ( -0.0000000000000000000, -1.000000000000000000, -0.0000000000000000000 ) ) ;
#370 = CARTESIAN_POINT ( 'NONE',  ( 1.347111479062088500E-016, 0.0000000000000000000, 1.100000000000000100 ) ) ;
#371 =( NAMED_UNIT ( * ) SI_UNIT ( $, .STERADIAN. ) SOLID_ANGLE_UNIT ( ) );
#372 = ORIENTED_EDGE ( 'NONE', *, *, #106, .T. ) ;
ENDSEC;
END-ISO-10303-21;
