ISO-10303-21;
HEADER;
FILE_DESCRIPTION (( 'STEP AP214' ),
    '1' );
FILE_NAME ('42756~1.STEP',
    '2019-12-03T10:55:03',
    ( '' ),
    ( '' ),
    'SwSTEP 2.0',
    'SolidWorks 2018',
    '' );
FILE_SCHEMA (( 'AUTOMOTIVE_DESIGN' ));
ENDSEC;

DATA;
#1 = LINE ( 'NONE', #254, #209 ) ;
#2 = ORIENTED_EDGE ( 'NONE', *, *, #208, .T. ) ;
#3 = AXIS2_PLACEMENT_3D ( 'NONE', #42, #17, #229 ) ;
#4 = ADVANCED_FACE ( 'NONE', ( #195 ), #237, .T. ) ;
#5 = CARTESIAN_POINT ( 'NONE',  ( 0.0000000000000000000, 0.0000000000000000000, 0.0000000000000000000 ) ) ;
#6 = CARTESIAN_POINT ( 'NONE',  ( 1.224646799147353207E-16, 0.5000000000000029976, 1.000000000000000000 ) ) ;
#7 = CYLINDRICAL_SURFACE ( 'NONE', #369, 1.000000000000000000 ) ;
#8 = CARTESIAN_POINT ( 'NONE',  ( 0.0000000000000000000, 0.0000000000000000000, 0.0000000000000000000 ) ) ;
#9 = ADVANCED_BREP_SHAPE_REPRESENTATION ( '42756~1', ( #263, #276 ), #71 ) ;
#10 = DIRECTION ( 'NONE',  ( 0.0000000000000000000, -1.000000000000000000, -0.0000000000000000000 ) ) ;
#11 = AXIS2_PLACEMENT_3D ( 'NONE', #361, #256, #257 ) ;
#12 = DIRECTION ( 'NONE',  ( 0.0000000000000000000, 1.000000000000000000, 0.0000000000000000000 ) ) ;
#13 = CARTESIAN_POINT ( 'NONE',  ( 0.0000000000000000000, 13.70000000000000107, 0.0000000000000000000 ) ) ;
#14 = EDGE_CURVE ( 'NONE', #141, #47, #345, .T. ) ;
#15 = DIRECTION ( 'NONE',  ( 6.123233995736782060E-17, -0.8660254037844380415, 0.5000000000000012212 ) ) ;
#16 = VECTOR ( 'NONE', #56, 999.9999999999998863 ) ;
#17 = DIRECTION ( 'NONE',  ( 0.0000000000000000000, 1.000000000000000000, 0.0000000000000000000 ) ) ;
#18 = ORIENTED_EDGE ( 'NONE', *, *, #59, .F. ) ;
#19 = ORIENTED_EDGE ( 'NONE', *, *, #67, .F. ) ;
#20 = CARTESIAN_POINT ( 'NONE',  ( 0.0000000000000000000, 0.5000000000000029976, 0.0000000000000000000 ) ) ;
#21 = DIRECTION ( 'NONE',  ( 0.0000000000000000000, 0.0000000000000000000, -1.000000000000000000 ) ) ;
#22 = EDGE_CURVE ( 'NONE', #47, #220, #60, .T. ) ;
#23 = FILL_AREA_STYLE ('',( #144 ) ) ;
#24 = CARTESIAN_POINT ( 'NONE',  ( 0.0000000000000000000, 0.0000000000000000000, 0.0000000000000000000 ) ) ;
#25 = FILL_AREA_STYLE ('',( #55 ) ) ;
#26 = VECTOR ( 'NONE', #169, 1000.000000000000000 ) ;
#27 = ORIENTED_EDGE ( 'NONE', *, *, #54, .T. ) ;
#28 = AXIS2_PLACEMENT_3D ( 'NONE', #13, #247, #320 ) ;
#29 = ADVANCED_FACE ( 'NONE', ( #84 ), #7, .T. ) ;
#30 = SURFACE_STYLE_FILL_AREA ( #23 ) ;
#31 = ORIENTED_EDGE ( 'NONE', *, *, #63, .T. ) ;
#32 = ADVANCED_FACE ( 'NONE', ( #279 ), #243, .T. ) ;
#33 = CIRCLE ( 'NONE', #178, 2.750000000000000000 ) ;
#34 = LINE ( 'NONE', #230, #240 ) ;
#35 = UNCERTAINTY_MEASURE_WITH_UNIT (LENGTH_MEASURE( 1.000000000000000082E-05 ), #113, 'distance_accuracy_value', 'NONE');
#36 = LINE ( 'NONE', #236, #26 ) ;
#37 = EDGE_LOOP ( 'NONE', ( #124, #272, #306, #226 ) ) ;
#38 = CARTESIAN_POINT ( 'NONE',  ( 0.0000000000000000000, 6.999999999999999112, 0.0000000000000000000 ) ) ;
#39 = AXIS2_PLACEMENT_3D ( 'NONE', #329, #358, #278 ) ;
#40 = DIRECTION ( 'NONE',  ( -0.0000000000000000000, -1.000000000000000000, -0.0000000000000000000 ) ) ;
#41 = DIRECTION ( 'NONE',  ( 0.0000000000000000000, 0.0000000000000000000, 1.000000000000000000 ) ) ;
#42 = CARTESIAN_POINT ( 'NONE',  ( 0.0000000000000000000, 13.99999999999999822, 0.0000000000000000000 ) ) ;
#43 = PRESENTATION_STYLE_ASSIGNMENT (( #362 ) ) ;
#44 = DIRECTION ( 'NONE',  ( -0.0000000000000000000, -1.000000000000000000, -0.0000000000000000000 ) ) ;
#45 = CIRCLE ( 'NONE', #98, 1.000000000000000000 ) ;
#46 = CARTESIAN_POINT ( 'NONE',  ( 0.0000000000000000000, 13.00000000000000178, 0.0000000000000000000 ) ) ;
#47 = VERTEX_POINT ( 'NONE', #197 ) ;
#48 = DIRECTION ( 'NONE',  ( 0.0000000000000000000, 1.000000000000000000, 0.0000000000000000000 ) ) ;
#49 = DIRECTION ( 'NONE',  ( 0.0000000000000000000, 0.0000000000000000000, 1.000000000000000000 ) ) ;
#50 = AXIS2_PLACEMENT_3D ( 'NONE', #355, #129, #188 ) ;
#51 = CARTESIAN_POINT ( 'NONE',  ( 0.0000000000000000000, 0.0000000000000000000, 0.0000000000000000000 ) ) ;
#52 = ORIENTED_EDGE ( 'NONE', *, *, #151, .T. ) ;
#53 = DIRECTION ( 'NONE',  ( 0.0000000000000000000, 1.000000000000000000, 0.0000000000000000000 ) ) ;
#54 = EDGE_CURVE ( 'NONE', #69, #281, #79, .T. ) ;
#55 = FILL_AREA_STYLE_COLOUR ( '', #312 ) ;
#56 = DIRECTION ( 'NONE',  ( 0.0000000000000000000, -0.8660254037844380415, -0.5000000000000012212 ) ) ;
#57 = AXIS2_PLACEMENT_3D ( 'NONE', #82, #260, #282 ) ;
#58 = APPLICATION_PROTOCOL_DEFINITION ( 'draft international standard', 'automotive_design', 1998, #179 ) ;
#59 = EDGE_CURVE ( 'NONE', #346, #210, #1, .T. ) ;
#60 = CIRCLE ( 'NONE', #3, 1.826239569296598919 ) ;
#61 = EDGE_LOOP ( 'NONE', ( #104, #351, #217, #128 ) ) ;
#62 = VECTOR ( 'NONE', #228, 1000.000000000000114 ) ;
#63 = EDGE_CURVE ( 'NONE', #184, #338, #123, .T. ) ;
#64 = FACE_OUTER_BOUND ( 'NONE', #149, .T. ) ;
#65 = ORIENTED_EDGE ( 'NONE', *, *, #63, .F. ) ;
#66 = AXIS2_PLACEMENT_3D ( 'NONE', #196, #186, #322 ) ;
#67 = EDGE_CURVE ( 'NONE', #210, #156, #45, .T. ) ;
#68 = CARTESIAN_POINT ( 'NONE',  ( 2.236498443015320763E-16, 13.39999999999999858, -1.826239569296598919 ) ) ;
#69 = VERTEX_POINT ( 'NONE', #274 ) ;
#70 = CARTESIAN_POINT ( 'NONE',  ( 3.367778697655221012E-16, 13.00000000000000178, 2.750000000000000000 ) ) ;
#71 =( GEOMETRIC_REPRESENTATION_CONTEXT ( 3 ) GLOBAL_UNCERTAINTY_ASSIGNED_CONTEXT ( ( #203 ) ) GLOBAL_UNIT_ASSIGNED_CONTEXT ( ( #207, #311, #212 ) ) REPRESENTATION_CONTEXT ( 'NONE', 'WORKASPACE' ) );
#72 = DIRECTION ( 'NONE',  ( 0.0000000000000000000, 0.0000000000000000000, 1.000000000000000000 ) ) ;
#73 = CARTESIAN_POINT ( 'NONE',  ( 0.0000000000000000000, 0.0000000000000000000, 0.0000000000000000000 ) ) ;
#74 = EDGE_CURVE ( 'NONE', #141, #285, #253, .T. ) ;
#75 =( NAMED_UNIT ( * ) PLANE_ANGLE_UNIT ( ) SI_UNIT ( $, .RADIAN. ) );
#76 = TOROIDAL_SURFACE ( 'NONE', #154, 1.826239569296598919, 0.5999999999999999778 ) ;
#77 = EDGE_LOOP ( 'NONE', ( #267, #52, #244, #341 ) ) ;
#78 = DIRECTION ( 'NONE',  ( -0.0000000000000000000, -1.000000000000000000, -0.0000000000000000000 ) ) ;
#79 = CIRCLE ( 'NONE', #150, 0.5000000000000004441 ) ;
#80 = EDGE_CURVE ( 'NONE', #93, #183, #286, .T. ) ;
#81 = APPLICATION_CONTEXT ( 'automotive_design' ) ;
#82 = CARTESIAN_POINT ( 'NONE',  ( 0.0000000000000000000, 13.39999999999999858, 1.826239569296598919 ) ) ;
#83 = FACE_OUTER_BOUND ( 'NONE', #168, .T. ) ;
#84 = FACE_OUTER_BOUND ( 'NONE', #112, .T. ) ;
#85 = AXIS2_PLACEMENT_3D ( 'NONE', #354, #268, #136 ) ;
#86 = EDGE_CURVE ( 'NONE', #285, #141, #194, .T. ) ;
#87 = CYLINDRICAL_SURFACE ( 'NONE', #39, 2.750000000000000000 ) ;
#88 = EDGE_LOOP ( 'NONE', ( #309, #2, #233, #97 ) ) ;
#89 = AXIS2_PLACEMENT_3D ( 'NONE', #95, #10, #223 ) ;
#90 = LINE ( 'NONE', #317, #62 ) ;
#91 = PRESENTATION_LAYER_ASSIGNMENT (  '', '', ( #290 ) ) ;
#92 = FACE_BOUND ( 'NONE', #120, .T. ) ;
#93 = VERTEX_POINT ( 'NONE', #273 ) ;
#94 = ADVANCED_FACE ( 'NONE', ( #64 ), #284, .T. ) ;
#95 = CARTESIAN_POINT ( 'NONE',  ( 1.000000000000000000, 6.999999999999999112, 0.0000000000000000000 ) ) ;
#96 = CARTESIAN_POINT ( 'NONE',  ( 0.0000000000000000000, 13.70000000000000107, -2.345854811567261500 ) ) ;
#97 = ORIENTED_EDGE ( 'NONE', *, *, #200, .F. ) ;
#98 = AXIS2_PLACEMENT_3D ( 'NONE', #296, #137, #167 ) ;
#99 = CARTESIAN_POINT ( 'NONE',  ( 0.0000000000000000000, 13.00000000000000178, 0.0000000000000000000 ) ) ;
#100 = CARTESIAN_POINT ( 'NONE',  ( 0.0000000000000000000, 0.0000000000000000000, 0.0000000000000000000 ) ) ;
#101 = CARTESIAN_POINT ( 'NONE',  ( 0.0000000000000000000, 7.000000000000000000, 0.0000000000000000000 ) ) ;
#102 = DIRECTION ( 'NONE',  ( -0.0000000000000000000, -1.000000000000000000, -0.0000000000000000000 ) ) ;
#103 = FACE_OUTER_BOUND ( 'NONE', #242, .T. ) ;
#104 = ORIENTED_EDGE ( 'NONE', *, *, #360, .F. ) ;
#105 = ORIENTED_EDGE ( 'NONE', *, *, #200, .T. ) ;
#106 = DIRECTION ( 'NONE',  ( 0.0000000000000000000, 1.000000000000000000, 0.0000000000000000000 ) ) ;
#107 = CARTESIAN_POINT ( 'NONE',  ( 0.0000000000000000000, 7.000000000000000000, 0.0000000000000000000 ) ) ;
#108 = AXIS2_PLACEMENT_3D ( 'NONE', #99, #102, #294 ) ;
#109 = CARTESIAN_POINT ( 'NONE',  ( 0.0000000000000000000, 0.0000000000000000000, 0.0000000000000000000 ) ) ;
#110 = CARTESIAN_POINT ( 'NONE',  ( 0.0000000000000000000, 13.39999999999999858, 0.0000000000000000000 ) ) ;
#111 = COLOUR_RGB ( '',0.7529411764705882248, 0.7529411764705882248, 0.7529411764705882248 ) ;
#112 = EDGE_LOOP ( 'NONE', ( #266, #300, #301, #18 ) ) ;
#113 =( LENGTH_UNIT ( ) NAMED_UNIT ( * ) SI_UNIT ( .MILLI., .METRE. ) );
#114 = DIRECTION ( 'NONE',  ( 0.0000000000000000000, 0.0000000000000000000, 1.000000000000000000 ) ) ;
#115 = LINE ( 'NONE', #297, #181 ) ;
#116 = FACE_OUTER_BOUND ( 'NONE', #177, .T. ) ;
#117 =( GEOMETRIC_REPRESENTATION_CONTEXT ( 3 ) GLOBAL_UNCERTAINTY_ASSIGNED_CONTEXT ( ( #363 ) ) GLOBAL_UNIT_ASSIGNED_CONTEXT ( ( #239, #238, #213 ) ) REPRESENTATION_CONTEXT ( 'NONE', 'WORKASPACE' ) );
#118 = PRODUCT ( '42756~1', '42756~1', '', ( #147 ) ) ;
#119 = EDGE_CURVE ( 'NONE', #346, #187, #371, .T. ) ;
#120 = EDGE_LOOP ( 'NONE', ( #262, #271 ) ) ;
#121 = FACE_OUTER_BOUND ( 'NONE', #142, .T. ) ;
#122 = ADVANCED_FACE ( 'NONE', ( #116, #92 ), #352, .T. ) ;
#123 = LINE ( 'NONE', #356, #314 ) ;
#124 = ORIENTED_EDGE ( 'NONE', *, *, #151, .F. ) ;
#125 = DIRECTION ( 'NONE',  ( 1.224646799147353207E-16, 0.0000000000000000000, -1.000000000000000000 ) ) ;
#126 = EDGE_CURVE ( 'NONE', #93, #184, #165, .T. ) ;
#127 = ORIENTED_EDGE ( 'NONE', *, *, #205, .F. ) ;
#128 = ORIENTED_EDGE ( 'NONE', *, *, #67, .T. ) ;
#129 = DIRECTION ( 'NONE',  ( -0.0000000000000000000, -1.000000000000000000, -0.0000000000000000000 ) ) ;
#130 = CARTESIAN_POINT ( 'NONE',  ( 0.0000000000000000000, 7.000000000000000000, -2.750000000000000000 ) ) ;
#131 = DIRECTION ( 'NONE',  ( -0.0000000000000000000, -1.000000000000000000, -0.0000000000000000000 ) ) ;
#132 = ORIENTED_EDGE ( 'NONE', *, *, #146, .T. ) ;
#133 = AXIS2_PLACEMENT_3D ( 'NONE', #68, #292, #125 ) ;
#134 = CARTESIAN_POINT ( 'NONE',  ( 0.0000000000000000000, 0.0000000000000000000, 0.0000000000000000000 ) ) ;
#135 = ORIENTED_EDGE ( 'NONE', *, *, #173, .F. ) ;
#136 = DIRECTION ( 'NONE',  ( 0.0000000000000000000, 0.0000000000000000000, -1.000000000000000000 ) ) ;
#137 = DIRECTION ( 'NONE',  ( 0.0000000000000000000, 1.000000000000000000, 0.0000000000000000000 ) ) ;
#138 =( GEOMETRIC_REPRESENTATION_CONTEXT ( 3 ) GLOBAL_UNCERTAINTY_ASSIGNED_CONTEXT ( ( #35 ) ) GLOBAL_UNIT_ASSIGNED_CONTEXT ( ( #113, #75, #331 ) ) REPRESENTATION_CONTEXT ( 'NONE', 'WORKASPACE' ) );
#139 = CARTESIAN_POINT ( 'NONE',  ( 0.0000000000000000000, 0.0000000000000000000, 0.0000000000000000000 ) ) ;
#140 = PLANE ( 'NONE',  #365 ) ;
#141 = VERTEX_POINT ( 'NONE', #96 ) ;
#142 = EDGE_LOOP ( 'NONE', ( #132, #215 ) ) ;
#143 = AXIS2_PLACEMENT_3D ( 'NONE', #5, #131, #206 ) ;
#144 = FILL_AREA_STYLE_COLOUR ( '', #111 ) ;
#145 = EDGE_LOOP ( 'NONE', ( #248, #333, #319, #315 ) ) ;
#146 = EDGE_CURVE ( 'NONE', #220, #47, #155, .T. ) ;
#147 = PRODUCT_CONTEXT ( 'NONE', #81, 'mechanical' ) ;
#148 = ORIENTED_EDGE ( 'NONE', *, *, #86, .F. ) ;
#149 = EDGE_LOOP ( 'NONE', ( #339, #135, #105, #19 ) ) ;
#150 = AXIS2_PLACEMENT_3D ( 'NONE', #134, #298, #162 ) ;
#151 = EDGE_CURVE ( 'NONE', #285, #184, #34, .T. ) ;
#152 = ADVANCED_FACE ( 'NONE', ( #366 ), #350, .T. ) ;
#153 = ORIENTED_EDGE ( 'NONE', *, *, #372, .T. ) ;
#154 = AXIS2_PLACEMENT_3D ( 'NONE', #189, #48, #41 ) ;
#155 = CIRCLE ( 'NONE', #66, 1.826239569296598919 ) ;
#156 = VERTEX_POINT ( 'NONE', #6 ) ;
#157 = DIRECTION ( 'NONE',  ( 0.0000000000000000000, 0.7071067811865500152, 0.7071067811865451302 ) ) ;
#158 = AXIS2_PLACEMENT_3D ( 'NONE', #327, #190, #323 ) ;
#159 = FACE_OUTER_BOUND ( 'NONE', #368, .T. ) ;
#160 = EDGE_CURVE ( 'NONE', #184, #93, #287, .T. ) ;
#161 = DIRECTION ( 'NONE',  ( 0.0000000000000000000, 0.0000000000000000000, -1.000000000000000000 ) ) ;
#162 = DIRECTION ( 'NONE',  ( 0.0000000000000000000, 0.0000000000000000000, -1.000000000000000000 ) ) ;
#163 = CARTESIAN_POINT ( 'NONE',  ( 0.0000000000000000000, 0.5000000000000029976, -1.000000000000000000 ) ) ;
#164 = CARTESIAN_POINT ( 'NONE',  ( 0.0000000000000000000, 6.999999999999999112, -1.000000000000000000 ) ) ;
#165 = CIRCLE ( 'NONE', #50, 2.750000000000000000 ) ;
#166 = PRODUCT_DEFINITION ( 'UNKNOWN', '', #249, #277 ) ;
#167 = DIRECTION ( 'NONE',  ( 0.0000000000000000000, 0.0000000000000000000, -1.000000000000000000 ) ) ;
#168 = EDGE_LOOP ( 'NONE', ( #328, #27 ) ) ;
#169 = DIRECTION ( 'NONE',  ( -0.0000000000000000000, -1.000000000000000000, -0.0000000000000000000 ) ) ;
#170 = AXIS2_PLACEMENT_3D ( 'NONE', #107, #78, #304 ) ;
#171 = DIRECTION ( 'NONE',  ( 0.0000000000000000000, 1.000000000000000000, 0.0000000000000000000 ) ) ;
#172 = SURFACE_STYLE_FILL_AREA ( #25 ) ;
#173 = EDGE_CURVE ( 'NONE', #281, #69, #295, .T. ) ;
#174 = ORIENTED_EDGE ( 'NONE', *, *, #126, .T. ) ;
#175 = PLANE ( 'NONE',  #218 ) ;
#176 = SURFACE_SIDE_STYLE ('',( #172 ) ) ;
#177 = EDGE_LOOP ( 'NONE', ( #180, #310 ) ) ;
#178 = AXIS2_PLACEMENT_3D ( 'NONE', #101, #44, #251 ) ;
#179 = APPLICATION_CONTEXT ( 'automotive_design' ) ;
#180 = ORIENTED_EDGE ( 'NONE', *, *, #227, .T. ) ;
#181 = VECTOR ( 'NONE', #157, 1000.000000000000114 ) ;
#182 = ADVANCED_FACE ( 'NONE', ( #232 ), #76, .T. ) ;
#183 = VERTEX_POINT ( 'NONE', #130 ) ;
#184 = VERTEX_POINT ( 'NONE', #70 ) ;
#185 = STYLED_ITEM ( 'NONE', ( #43 ), #263 ) ;
#186 = DIRECTION ( 'NONE',  ( 0.0000000000000000000, 1.000000000000000000, 0.0000000000000000000 ) ) ;
#187 = VERTEX_POINT ( 'NONE', #270 ) ;
#188 = DIRECTION ( 'NONE',  ( 0.0000000000000000000, 0.0000000000000000000, -1.000000000000000000 ) ) ;
#189 = CARTESIAN_POINT ( 'NONE',  ( 0.0000000000000000000, 13.39999999999999858, 0.0000000000000000000 ) ) ;
#190 = DIRECTION ( 'NONE',  ( -0.0000000000000000000, -1.000000000000000000, -0.0000000000000000000 ) ) ;
#191 = DIRECTION ( 'NONE',  ( -0.0000000000000000000, -1.000000000000000000, -0.0000000000000000000 ) ) ;
#192 = AXIS2_PLACEMENT_3D ( 'NONE', #20, #53, #330 ) ;
#193 = DIRECTION ( 'NONE',  ( -0.0000000000000000000, -1.000000000000000000, -0.0000000000000000000 ) ) ;
#194 = CIRCLE ( 'NONE', #28, 2.345854811567261500 ) ;
#195 = FACE_OUTER_BOUND ( 'NONE', #261, .T. ) ;
#196 = CARTESIAN_POINT ( 'NONE',  ( 0.0000000000000000000, 13.99999999999999822, 0.0000000000000000000 ) ) ;
#197 = CARTESIAN_POINT ( 'NONE',  ( 2.554671014632792122E-16, 13.99999999999999822, -1.826239569296598919 ) ) ;
#198 = DIRECTION ( 'NONE',  ( -0.0000000000000000000, -1.000000000000000000, -0.0000000000000000000 ) ) ;
#199 = DIRECTION ( 'NONE',  ( 0.0000000000000000000, 1.000000000000000000, 0.0000000000000000000 ) ) ;
#200 = EDGE_CURVE ( 'NONE', #281, #156, #115, .T. ) ;
#201 = PRESENTATION_STYLE_ASSIGNMENT (( #308 ) ) ;
#202 = ORIENTED_EDGE ( 'NONE', *, *, #80, .T. ) ;
#203 = UNCERTAINTY_MEASURE_WITH_UNIT (LENGTH_MEASURE( 1.000000000000000082E-05 ), #207, 'distance_accuracy_value', 'NONE');
#204 = CARTESIAN_POINT ( 'NONE',  ( 3.120311141952742740E-16, 13.70000000000000107, 2.345854811567261500 ) ) ;
#205 = EDGE_CURVE ( 'NONE', #338, #183, #33, .T. ) ;
#206 = DIRECTION ( 'NONE',  ( 0.0000000000000000000, 0.0000000000000000000, -1.000000000000000000 ) ) ;
#207 =( LENGTH_UNIT ( ) NAMED_UNIT ( * ) SI_UNIT ( .MILLI., .METRE. ) );
#208 = EDGE_CURVE ( 'NONE', #69, #210, #90, .T. ) ;
#209 = VECTOR ( 'NONE', #250, 1000.000000000000000 ) ;
#210 = VERTEX_POINT ( 'NONE', #163 ) ;
#211 = APPLICATION_PROTOCOL_DEFINITION ( 'draft international standard', 'automotive_design', 1998, #81 ) ;
#212 =( NAMED_UNIT ( * ) SI_UNIT ( $, .STERADIAN. ) SOLID_ANGLE_UNIT ( ) );
#213 =( NAMED_UNIT ( * ) SI_UNIT ( $, .STERADIAN. ) SOLID_ANGLE_UNIT ( ) );
#214 = ORIENTED_EDGE ( 'NONE', *, *, #14, .F. ) ;
#215 = ORIENTED_EDGE ( 'NONE', *, *, #22, .T. ) ;
#216 = PRESENTATION_LAYER_ASSIGNMENT (  '', '', ( #185 ) ) ;
#217 = ORIENTED_EDGE ( 'NONE', *, *, #59, .T. ) ;
#218 = AXIS2_PLACEMENT_3D ( 'NONE', #24, #302, #364 ) ;
#219 = ORIENTED_EDGE ( 'NONE', *, *, #227, .F. ) ;
#220 = VERTEX_POINT ( 'NONE', #325 ) ;
#221 = ADVANCED_FACE ( 'NONE', ( #241 ), #225, .T. ) ;
#222 = EDGE_CURVE ( 'NONE', #141, #93, #337, .T. ) ;
#223 = DIRECTION ( 'NONE',  ( 0.0000000000000000000, 0.0000000000000000000, -1.000000000000000000 ) ) ;
#224 = DIRECTION ( 'NONE',  ( -0.0000000000000000000, -1.000000000000000000, -0.0000000000000000000 ) ) ;
#225 = CYLINDRICAL_SURFACE ( 'NONE', #143, 1.000000000000000000 ) ;
#226 = ORIENTED_EDGE ( 'NONE', *, *, #160, .F. ) ;
#227 = EDGE_CURVE ( 'NONE', #183, #338, #344, .T. ) ;
#228 = DIRECTION ( 'NONE',  ( 8.659560562354903276E-17, 0.7071067811865500152, -0.7071067811865451302 ) ) ;
#229 = DIRECTION ( 'NONE',  ( 0.0000000000000000000, 0.0000000000000000000, 1.000000000000000000 ) ) ;
#230 = CARTESIAN_POINT ( 'NONE',  ( 3.367778697655221012E-16, 13.00000000000000178, 2.750000000000000000 ) ) ;
#231 = CARTESIAN_POINT ( 'NONE',  ( 3.367778697655221012E-16, 7.000000000000000000, 2.750000000000000000 ) ) ;
#232 = FACE_OUTER_BOUND ( 'NONE', #145, .T. ) ;
#233 = ORIENTED_EDGE ( 'NONE', *, *, #348, .F. ) ;
#234 = MECHANICAL_DESIGN_GEOMETRIC_PRESENTATION_REPRESENTATION (  '', ( #185 ), #138 ) ;
#235 = DIRECTION ( 'NONE',  ( 0.0000000000000000000, 0.0000000000000000000, 1.000000000000000000 ) ) ;
#236 = CARTESIAN_POINT ( 'NONE',  ( 1.224646799147353207E-16, 0.0000000000000000000, 1.000000000000000000 ) ) ;
#237 = CYLINDRICAL_SURFACE ( 'NONE', #283, 2.750000000000000000 ) ;
#238 =( NAMED_UNIT ( * ) PLANE_ANGLE_UNIT ( ) SI_UNIT ( $, .RADIAN. ) );
#239 =( LENGTH_UNIT ( ) NAMED_UNIT ( * ) SI_UNIT ( .MILLI., .METRE. ) );
#240 = VECTOR ( 'NONE', #15, 999.9999999999998863 ) ;
#241 = FACE_OUTER_BOUND ( 'NONE', #61, .T. ) ;
#242 = EDGE_LOOP ( 'NONE', ( #214, #148, #153, #288 ) ) ;
#243 = CONICAL_SURFACE ( 'NONE', #334, 2.750000000000000000, 0.5235987755983002589 ) ;
#244 = ORIENTED_EDGE ( 'NONE', *, *, #126, .F. ) ;
#245 = DIRECTION ( 'NONE',  ( 0.0000000000000000000, 0.0000000000000000000, -1.000000000000000000 ) ) ;
#246 = AXIS2_PLACEMENT_3D ( 'NONE', #51, #171, #49 ) ;
#247 = DIRECTION ( 'NONE',  ( -0.0000000000000000000, -1.000000000000000000, -0.0000000000000000000 ) ) ;
#248 = ORIENTED_EDGE ( 'NONE', *, *, #74, .F. ) ;
#249 = PRODUCT_DEFINITION_FORMATION_WITH_SPECIFIED_SOURCE ( 'ANY', '', #118, .NOT_KNOWN. ) ;
#250 = DIRECTION ( 'NONE',  ( -0.0000000000000000000, -1.000000000000000000, -0.0000000000000000000 ) ) ;
#251 = DIRECTION ( 'NONE',  ( 0.0000000000000000000, 0.0000000000000000000, -1.000000000000000000 ) ) ;
#252 = CIRCLE ( 'NONE', #11, 1.000000000000000000 ) ;
#253 = CIRCLE ( 'NONE', #158, 2.345854811567261500 ) ;
#254 = CARTESIAN_POINT ( 'NONE',  ( 0.0000000000000000000, 0.0000000000000000000, -1.000000000000000000 ) ) ;
#255 = MECHANICAL_DESIGN_GEOMETRIC_PRESENTATION_REPRESENTATION (  '', ( #290 ), #117 ) ;
#256 = DIRECTION ( 'NONE',  ( -0.0000000000000000000, -1.000000000000000000, -0.0000000000000000000 ) ) ;
#257 = DIRECTION ( 'NONE',  ( 0.0000000000000000000, 0.0000000000000000000, -1.000000000000000000 ) ) ;
#258 = ORIENTED_EDGE ( 'NONE', *, *, #80, .F. ) ;
#259 = DIRECTION ( 'NONE',  ( 1.000000000000000000, 0.0000000000000000000, 0.0000000000000000000 ) ) ;
#260 = DIRECTION ( 'NONE',  ( -1.000000000000000000, 0.0000000000000000000, 0.0000000000000000000 ) ) ;
#261 = EDGE_LOOP ( 'NONE', ( #65, #280, #202, #127 ) ) ;
#262 = ORIENTED_EDGE ( 'NONE', *, *, #119, .F. ) ;
#263 = MANIFOLD_SOLID_BREP ( 'Verrundung1', #265 ) ;
#264 = ADVANCED_FACE ( 'NONE', ( #318 ), #324, .T. ) ;
#265 = CLOSED_SHELL ( 'NONE', ( #182, #264, #29, #370, #32, #347, #152, #4, #122, #221, #342, #94, #316 ) ) ;
#266 = ORIENTED_EDGE ( 'NONE', *, *, #119, .T. ) ;
#267 = ORIENTED_EDGE ( 'NONE', *, *, #74, .T. ) ;
#268 = DIRECTION ( 'NONE',  ( -0.0000000000000000000, -1.000000000000000000, -0.0000000000000000000 ) ) ;
#269 = PRODUCT_DEFINITION_SHAPE ( 'NONE', 'NONE',  #166 ) ;
#270 = CARTESIAN_POINT ( 'NONE',  ( 1.224646799147353207E-16, 6.999999999999999112, 1.000000000000000000 ) ) ;
#271 = ORIENTED_EDGE ( 'NONE', *, *, #367, .F. ) ;
#272 = ORIENTED_EDGE ( 'NONE', *, *, #86, .T. ) ;
#273 = CARTESIAN_POINT ( 'NONE',  ( 0.0000000000000000000, 13.00000000000000178, -2.750000000000000000 ) ) ;
#274 = CARTESIAN_POINT ( 'NONE',  ( 9.184850993605152135E-17, 0.0000000000000000000, -0.5000000000000004441 ) ) ;
#275 = SURFACE_SIDE_STYLE ('',( #30 ) ) ;
#276 = AXIS2_PLACEMENT_3D ( 'NONE', #109, #114, #259 ) ;
#277 = PRODUCT_DEFINITION_CONTEXT ( 'detailed design', #179, 'design' ) ;
#278 = DIRECTION ( 'NONE',  ( 0.0000000000000000000, 0.0000000000000000000, -1.000000000000000000 ) ) ;
#279 = FACE_OUTER_BOUND ( 'NONE', #77, .T. ) ;
#280 = ORIENTED_EDGE ( 'NONE', *, *, #160, .T. ) ;
#281 = VERTEX_POINT ( 'NONE', #336 ) ;
#282 = DIRECTION ( 'NONE',  ( 0.0000000000000000000, 0.0000000000000000000, 1.000000000000000000 ) ) ;
#283 = AXIS2_PLACEMENT_3D ( 'NONE', #8, #40, #245 ) ;
#284 = CONICAL_SURFACE ( 'NONE', #307, 0.5000000000000004441, 0.7853981633974447263 ) ;
#285 = VERTEX_POINT ( 'NONE', #204 ) ;
#286 = LINE ( 'NONE', #359, #326 ) ;
#287 = CIRCLE ( 'NONE', #108, 2.750000000000000000 ) ;
#288 = ORIENTED_EDGE ( 'NONE', *, *, #22, .F. ) ;
#289 = DIRECTION ( 'NONE',  ( 0.0000000000000000000, 0.0000000000000000000, -1.000000000000000000 ) ) ;
#290 = STYLED_ITEM ( 'NONE', ( #201 ), #9 ) ;
#291 = DIRECTION ( 'NONE',  ( 0.0000000000000000000, 0.0000000000000000000, -1.000000000000000000 ) ) ;
#292 = DIRECTION ( 'NONE',  ( 1.000000000000000000, -0.0000000000000000000, 1.224646799147353207E-16 ) ) ;
#293 = TOROIDAL_SURFACE ( 'NONE', #353, 1.826239569296598919, 0.5999999999999999778 ) ;
#294 = DIRECTION ( 'NONE',  ( 0.0000000000000000000, 0.0000000000000000000, -1.000000000000000000 ) ) ;
#295 = CIRCLE ( 'NONE', #343, 0.5000000000000004441 ) ;
#296 = CARTESIAN_POINT ( 'NONE',  ( 0.0000000000000000000, 0.5000000000000029976, 0.0000000000000000000 ) ) ;
#297 = CARTESIAN_POINT ( 'NONE',  ( 0.0000000000000000000, 0.0000000000000000000, 0.5000000000000004441 ) ) ;
#298 = DIRECTION ( 'NONE',  ( -0.0000000000000000000, -1.000000000000000000, -0.0000000000000000000 ) ) ;
#299 = DIRECTION ( 'NONE',  ( 0.0000000000000000000, -0.0000000000000000000, 1.000000000000000000 ) ) ;
#300 = ORIENTED_EDGE ( 'NONE', *, *, #360, .T. ) ;
#301 = ORIENTED_EDGE ( 'NONE', *, *, #348, .T. ) ;
#302 = DIRECTION ( 'NONE',  ( 0.0000000000000000000, -1.000000000000000000, -0.0000000000000000000 ) ) ;
#303 = CARTESIAN_POINT ( 'NONE',  ( 0.0000000000000000000, 13.00000000000000178, -2.750000000000000000 ) ) ;
#304 = DIRECTION ( 'NONE',  ( 0.0000000000000000000, 0.0000000000000000000, -1.000000000000000000 ) ) ;
#305 = CIRCLE ( 'NONE', #57, 0.5999999999999998668 ) ;
#306 = ORIENTED_EDGE ( 'NONE', *, *, #222, .T. ) ;
#307 = AXIS2_PLACEMENT_3D ( 'NONE', #139, #12, #72 ) ;
#308 = SURFACE_STYLE_USAGE ( .BOTH. , #176 ) ;
#309 = ORIENTED_EDGE ( 'NONE', *, *, #54, .F. ) ;
#310 = ORIENTED_EDGE ( 'NONE', *, *, #205, .T. ) ;
#311 =( NAMED_UNIT ( * ) PLANE_ANGLE_UNIT ( ) SI_UNIT ( $, .RADIAN. ) );
#312 = COLOUR_RGB ( '',0.7529411764705882248, 0.7529411764705882248, 0.7529411764705882248 ) ;
#313 = PRODUCT_RELATED_PRODUCT_CATEGORY ( 'part', '', ( #118 ) ) ;
#314 = VECTOR ( 'NONE', #193, 1000.000000000000000 ) ;
#315 = ORIENTED_EDGE ( 'NONE', *, *, #372, .F. ) ;
#316 = ADVANCED_FACE ( 'NONE', ( #103 ), #293, .T. ) ;
#317 = CARTESIAN_POINT ( 'NONE',  ( 6.123233995736772199E-17, 0.0000000000000000000, -0.5000000000000004441 ) ) ;
#318 = FACE_OUTER_BOUND ( 'NONE', #88, .T. ) ;
#319 = ORIENTED_EDGE ( 'NONE', *, *, #146, .F. ) ;
#320 = DIRECTION ( 'NONE',  ( 0.0000000000000000000, 0.0000000000000000000, 1.000000000000000000 ) ) ;
#321 = AXIS2_PLACEMENT_3D ( 'NONE', #38, #191, #291 ) ;
#322 = DIRECTION ( 'NONE',  ( 0.0000000000000000000, 0.0000000000000000000, 1.000000000000000000 ) ) ;
#323 = DIRECTION ( 'NONE',  ( 0.0000000000000000000, 0.0000000000000000000, 1.000000000000000000 ) ) ;
#324 = CONICAL_SURFACE ( 'NONE', #246, 0.5000000000000004441, 0.7853981633974447263 ) ;
#325 = CARTESIAN_POINT ( 'NONE',  ( 0.0000000000000000000, 13.99999999999999822, 1.826239569296598919 ) ) ;
#326 = VECTOR ( 'NONE', #198, 1000.000000000000000 ) ;
#327 = CARTESIAN_POINT ( 'NONE',  ( 0.0000000000000000000, 13.70000000000000107, 0.0000000000000000000 ) ) ;
#328 = ORIENTED_EDGE ( 'NONE', *, *, #173, .T. ) ;
#329 = CARTESIAN_POINT ( 'NONE',  ( 0.0000000000000000000, 0.0000000000000000000, 0.0000000000000000000 ) ) ;
#330 = DIRECTION ( 'NONE',  ( 0.0000000000000000000, 0.0000000000000000000, -1.000000000000000000 ) ) ;
#331 =( NAMED_UNIT ( * ) SI_UNIT ( $, .STERADIAN. ) SOLID_ANGLE_UNIT ( ) );
#332 = CIRCLE ( 'NONE', #192, 1.000000000000000000 ) ;
#333 = ORIENTED_EDGE ( 'NONE', *, *, #14, .T. ) ;
#334 = AXIS2_PLACEMENT_3D ( 'NONE', #46, #357, #21 ) ;
#335 = CARTESIAN_POINT ( 'NONE',  ( 2.172649730810372937, 13.99999999999999822, 0.0000000000000000000 ) ) ;
#336 = CARTESIAN_POINT ( 'NONE',  ( 0.0000000000000000000, 0.0000000000000000000, 0.5000000000000004441 ) ) ;
#337 = LINE ( 'NONE', #303, #16 ) ;
#338 = VERTEX_POINT ( 'NONE', #231 ) ;
#339 = ORIENTED_EDGE ( 'NONE', *, *, #208, .F. ) ;
#340 = SHAPE_DEFINITION_REPRESENTATION ( #269, #9 ) ;
#341 = ORIENTED_EDGE ( 'NONE', *, *, #222, .F. ) ;
#342 = ADVANCED_FACE ( 'NONE', ( #83 ), #175, .T. ) ;
#343 = AXIS2_PLACEMENT_3D ( 'NONE', #73, #224, #161 ) ;
#344 = CIRCLE ( 'NONE', #170, 2.750000000000000000 ) ;
#345 = CIRCLE ( 'NONE', #133, 0.5999999999999998668 ) ;
#346 = VERTEX_POINT ( 'NONE', #164 ) ;
#347 = ADVANCED_FACE ( 'NONE', ( #121 ), #140, .T. ) ;
#348 = EDGE_CURVE ( 'NONE', #156, #210, #332, .T. ) ;
#349 = DIRECTION ( 'NONE',  ( -0.0000000000000000000, -1.000000000000000000, -0.0000000000000000000 ) ) ;
#350 = CONICAL_SURFACE ( 'NONE', #85, 2.750000000000000000, 0.5235987755983002589 ) ;
#351 = ORIENTED_EDGE ( 'NONE', *, *, #367, .T. ) ;
#352 = PLANE ( 'NONE',  #89 ) ;
#353 = AXIS2_PLACEMENT_3D ( 'NONE', #110, #106, #235 ) ;
#354 = CARTESIAN_POINT ( 'NONE',  ( 0.0000000000000000000, 13.00000000000000178, 0.0000000000000000000 ) ) ;
#355 = CARTESIAN_POINT ( 'NONE',  ( 0.0000000000000000000, 13.00000000000000178, 0.0000000000000000000 ) ) ;
#356 = CARTESIAN_POINT ( 'NONE',  ( 3.367778697655221012E-16, 0.0000000000000000000, 2.750000000000000000 ) ) ;
#357 = DIRECTION ( 'NONE',  ( -0.0000000000000000000, -1.000000000000000000, -0.0000000000000000000 ) ) ;
#358 = DIRECTION ( 'NONE',  ( -0.0000000000000000000, -1.000000000000000000, -0.0000000000000000000 ) ) ;
#359 = CARTESIAN_POINT ( 'NONE',  ( 0.0000000000000000000, 0.0000000000000000000, -2.750000000000000000 ) ) ;
#360 = EDGE_CURVE ( 'NONE', #187, #156, #36, .T. ) ;
#361 = CARTESIAN_POINT ( 'NONE',  ( 0.0000000000000000000, 6.999999999999999112, 0.0000000000000000000 ) ) ;
#362 = SURFACE_STYLE_USAGE ( .BOTH. , #275 ) ;
#363 = UNCERTAINTY_MEASURE_WITH_UNIT (LENGTH_MEASURE( 1.000000000000000082E-05 ), #239, 'distance_accuracy_value', 'NONE');
#364 = DIRECTION ( 'NONE',  ( 0.0000000000000000000, 0.0000000000000000000, -1.000000000000000000 ) ) ;
#365 = AXIS2_PLACEMENT_3D ( 'NONE', #335, #199, #299 ) ;
#366 = FACE_OUTER_BOUND ( 'NONE', #37, .T. ) ;
#367 = EDGE_CURVE ( 'NONE', #187, #346, #252, .T. ) ;
#368 = EDGE_LOOP ( 'NONE', ( #174, #31, #219, #258 ) ) ;
#369 = AXIS2_PLACEMENT_3D ( 'NONE', #100, #349, #289 ) ;
#370 = ADVANCED_FACE ( 'NONE', ( #159 ), #87, .T. ) ;
#371 = CIRCLE ( 'NONE', #321, 1.000000000000000000 ) ;
#372 = EDGE_CURVE ( 'NONE', #285, #220, #305, .T. ) ;
ENDSEC;
END-ISO-10303-21;
