ISO-10303-21;
HEADER;
FILE_DESCRIPTION (( 'STEP AP203' ),
    '1' );
FILE_NAME ('62773~0.STEP',
    '2022-01-19T12:45:49',
    ( '' ),
    ( '' ),
    'SwSTEP 2.0',
    'SolidWorks 2018',
    '' );
FILE_SCHEMA (( 'CONFIG_CONTROL_DESIGN' ));
ENDSEC;

DATA;
#1 = CC_DESIGN_SECURITY_CLASSIFICATION ( #58, ( #204 ) ) ;
#2 = CARTESIAN_POINT ( 'NONE',  ( 0.000000000000000000, 0.000000000000000000, 0.000000000000000000 ) ) ;
#3 = DESIGN_CONTEXT ( 'detailed design', #293, 'design' ) ;
#4 = ORIENTED_EDGE ( 'NONE', *, *, #32, .F. ) ;
#5 = APPROVAL ( #125, 'UNSPECIFIED' ) ;
#6 = APPLICATION_PROTOCOL_DEFINITION ( 'international standard', 'config_control_design', 1994, #31 ) ;
#7 = CLOSED_SHELL ( 'NONE', ( #137, #140, #131, #236, #20, #114 ) ) ;
#8 = EDGE_CURVE ( 'NONE', #15, #69, #311, .T. ) ;
#9 = CALENDAR_DATE ( 2022, 19, 1 ) ;
#10 = DATE_TIME_ROLE ( 'classification_date' ) ;
#11 = DATE_AND_TIME ( #187, #172 ) ;
#12 = FACE_OUTER_BOUND ( 'NONE', #215, .T. ) ;
#13 = APPLICATION_PROTOCOL_DEFINITION ( 'international standard', 'config_control_design', 1994, #174 ) ;
#14 = APPROVAL_PERSON_ORGANIZATION ( #80, #102, #97 ) ;
#15 = VERTEX_POINT ( 'NONE', #17 ) ;
#16 = CC_DESIGN_APPROVAL ( #5, ( #245 ) ) ;
#17 = CARTESIAN_POINT ( 'NONE',  ( 275.0000000000000000, 0.5000000000000000000, 225.0000000000000000 ) ) ;
#18 = APPROVAL_ROLE ( '' ) ;
#19 = DATE_AND_TIME ( #170, #145 ) ;
#20 = ADVANCED_FACE ( 'NONE', ( #86 ), #110, .F. ) ;
#21 = DATE_AND_TIME ( #117, #161 ) ;
#22 = ORGANIZATION ( 'UNSPECIFIED', 'UNSPECIFIED', '' ) ;
#23 = CARTESIAN_POINT ( 'NONE',  ( 275.0000000000000000, -0.5000000000000000000, -225.0000000000000000 ) ) ;
#24 = EDGE_CURVE ( 'NONE', #56, #262, #178, .T. ) ;
#25 = CARTESIAN_POINT ( 'NONE',  ( 0.000000000000000000, 0.000000000000000000, 0.000000000000000000 ) ) ;
#26 = PERSON ( 'UNSPECIFIED', 'UNSPECIFIED', 'UNSPECIFIED', ('UNSPECIFIED'), ('UNSPECIFIED'), ('UNSPECIFIED') ) ;
#27 = APPROVAL_DATE_TIME ( #144, #217 ) ;
#28 = CARTESIAN_POINT ( 'NONE',  ( 275.0000000000000000, -0.5000000000000000000, -225.0000000000000000 ) ) ;
#29 = LINE ( 'NONE', #92, #162 ) ;
#30 = CC_DESIGN_PERSON_AND_ORGANIZATION_ASSIGNMENT ( #101, #209, ( #74 ) ) ;
#31 = APPLICATION_CONTEXT ( 'configuration controlled 3d designs of mechanical parts and assemblies' ) ;
#32 = EDGE_CURVE ( 'NONE', #51, #15, #284, .T. ) ;
#33 = MECHANICAL_CONTEXT ( 'NONE', #31, 'mechanical' ) ;
#34 = VECTOR ( 'NONE', #89, 1000.000000000000000 ) ;
#35 = ORIENTED_EDGE ( 'NONE', *, *, #247, .T. ) ;
#36 = DIRECTION ( 'NONE',  ( 1.000000000000000000, 0.000000000000000000, 0.000000000000000000 ) ) ;
#37 = EDGE_CURVE ( 'NONE', #62, #184, #240, .T. ) ;
#38 = CC_DESIGN_APPROVAL ( #217, ( #183 ) ) ;
#39 = APPROVAL_PERSON_ORGANIZATION ( #90, #5, #154 ) ;
#40 = ORIENTED_EDGE ( 'NONE', *, *, #44, .T. ) ;
#41 = PERSON_AND_ORGANIZATION_ROLE ( 'design_owner' ) ;
#42 = APPROVAL ( #43, 'UNSPECIFIED' ) ;
#43 = APPROVAL_STATUS ( 'not_yet_approved' ) ;
#44 = EDGE_CURVE ( 'NONE', #69, #118, #124, .T. ) ;
#45 = CALENDAR_DATE ( 2022, 19, 1 ) ;
#46 = CARTESIAN_POINT ( 'NONE',  ( -275.0000000000000000, 0.5000000000000000000, 225.0000000000000000 ) ) ;
#47 = CC_DESIGN_PERSON_AND_ORGANIZATION_ASSIGNMENT ( #75, #41, ( #196 ) ) ;
#48 = CALENDAR_DATE ( 2022, 19, 1 ) ;
#49 = LOCAL_TIME ( 13, 45, 49.00000000000000000, #273 ) ;
#50 = DIRECTION ( 'NONE',  ( 1.000000000000000000, 0.000000000000000000, 5.046468293750711379E-17 ) ) ;
#51 = VERTEX_POINT ( 'NONE', #251 ) ;
#52 = DIRECTION ( 'NONE',  ( 0.000000000000000000, 0.000000000000000000, 1.000000000000000000 ) ) ;
#53 = VECTOR ( 'NONE', #289, 1000.000000000000000 ) ;
#54 = ORIENTED_EDGE ( 'NONE', *, *, #247, .F. ) ;
#55 = CC_DESIGN_PERSON_AND_ORGANIZATION_ASSIGNMENT ( #180, #228, ( #245 ) ) ;
#56 = VERTEX_POINT ( 'NONE', #136 ) ;
#57 = EDGE_CURVE ( 'NONE', #62, #118, #270, .T. ) ;
#58 = SECURITY_CLASSIFICATION ( '', '', #132 ) ;
#59 = PERSON_AND_ORGANIZATION ( #26, #22 ) ;
#60 = PERSON_AND_ORGANIZATION ( #26, #22 ) ;
#61 = EDGE_LOOP ( 'NONE', ( #65, #181, #98, #159 ) ) ;
#62 = VERTEX_POINT ( 'NONE', #305 ) ;
#63 = APPROVAL_STATUS ( 'not_yet_approved' ) ;
#64 = CARTESIAN_POINT ( 'NONE',  ( 275.0000000000000000, -0.5000000000000000000, 225.0000000000000000 ) ) ;
#65 = ORIENTED_EDGE ( 'NONE', *, *, #44, .F. ) ;
#66 = DIRECTION ( 'NONE',  ( -0.000000000000000000, -1.000000000000000000, -0.000000000000000000 ) ) ;
#67 = DATE_AND_TIME ( #152, #93 ) ;
#68 = PLANE ( 'NONE',  #151 ) ;
#69 = VERTEX_POINT ( 'NONE', #64 ) ;
#70 = DIRECTION ( 'NONE',  ( 0.000000000000000000, -1.000000000000000000, 0.000000000000000000 ) ) ;
#71 = CARTESIAN_POINT ( 'NONE',  ( -275.0000000000000000, 0.5000000000000000000, -225.0000000000000284 ) ) ;
#72 = PRODUCT_DEFINITION_SHAPE ( 'NONE', 'NONE',  #207 ) ;
#73 = APPROVAL_DATE_TIME ( #21, #42 ) ;
#74 = PRODUCT_DEFINITION ( 'UNKNOWN', '', #204, #300 ) ;
#75 = PERSON_AND_ORGANIZATION ( #26, #22 ) ;
#76 = ORIENTED_EDGE ( 'NONE', *, *, #242, .F. ) ;
#77 = APPLICATION_PROTOCOL_DEFINITION ( 'international standard', 'config_control_design', 1994, #293 ) ;
#78 = APPROVAL_PERSON_ORGANIZATION ( #155, #219, #18 ) ;
#79 = COORDINATED_UNIVERSAL_TIME_OFFSET ( 1, 0, .AHEAD. ) ;
#80 = PERSON_AND_ORGANIZATION ( #26, #22 ) ;
#81 = ORIENTED_EDGE ( 'NONE', *, *, #32, .T. ) ;
#82 = DATE_AND_TIME ( #9, #208 ) ;
#83 = CC_DESIGN_DATE_AND_TIME_ASSIGNMENT ( #67, #10, ( #183 ) ) ;
#84 = SECURITY_CLASSIFICATION_LEVEL ( 'unclassified' ) ;
#85 = PERSON_AND_ORGANIZATION ( #26, #22 ) ;
#86 = FACE_OUTER_BOUND ( 'NONE', #198, .T. ) ;
#87 = DIRECTION ( 'NONE',  ( 0.000000000000000000, -1.000000000000000000, 0.000000000000000000 ) ) ;
#88 = CARTESIAN_POINT ( 'NONE',  ( 275.0000000000000000, 0.5000000000000000000, 225.0000000000000000 ) ) ;
#89 = DIRECTION ( 'NONE',  ( -0.000000000000000000, -0.000000000000000000, 1.000000000000000000 ) ) ;
#90 = PERSON_AND_ORGANIZATION ( #26, #22 ) ;
#91 = ORIENTED_EDGE ( 'NONE', *, *, #37, .F. ) ;
#92 = CARTESIAN_POINT ( 'NONE',  ( -275.0000000000000000, -0.5000000000000000000, -225.0000000000000284 ) ) ;
#93 = LOCAL_TIME ( 13, 45, 49.00000000000000000, #222 ) ;
#94 = DIRECTION ( 'NONE',  ( -1.000000000000000000, 0.000000000000000000, 0.000000000000000000 ) ) ;
#95 = CALENDAR_DATE ( 2022, 19, 1 ) ;
#96 = VECTOR ( 'NONE', #66, 1000.000000000000000 ) ;
#97 = APPROVAL_ROLE ( '' ) ;
#98 = ORIENTED_EDGE ( 'NONE', *, *, #24, .F. ) ;
#99 =( NAMED_UNIT ( * ) SI_UNIT ( $, .STERADIAN. ) SOLID_ANGLE_UNIT ( ) );
#100 = CC_DESIGN_DATE_AND_TIME_ASSIGNMENT ( #291, #301, ( #207 ) ) ;
#101 = PERSON_AND_ORGANIZATION ( #26, #22 ) ;
#102 = APPROVAL ( #244, 'UNSPECIFIED' ) ;
#103 = LOCAL_TIME ( 13, 45, 49.00000000000000000, #299 ) ;
#104 = FACE_OUTER_BOUND ( 'NONE', #126, .T. ) ;
#105 = PERSON_AND_ORGANIZATION_ROLE ( 'classification_officer' ) ;
#106 = PERSON_AND_ORGANIZATION_ROLE ( 'creator' ) ;
#107 = VECTOR ( 'NONE', #281, 1000.000000000000000 ) ;
#108 = DIRECTION ( 'NONE',  ( 1.000000000000000000, 0.000000000000000000, 0.000000000000000000 ) ) ;
#109 = DATE_TIME_ROLE ( 'creation_date' ) ;
#110 = PLANE ( 'NONE',  #119 ) ;
#111 = APPROVAL_DATE_TIME ( #19, #5 ) ;
#112 = PERSON_AND_ORGANIZATION ( #26, #22 ) ;
#113 = ORIENTED_EDGE ( 'NONE', *, *, #290, .F. ) ;
#114 = ADVANCED_FACE ( 'NONE', ( #203 ), #237, .T. ) ;
#115 = PRODUCT_RELATED_PRODUCT_CATEGORY ( 'detail', '', ( #176 ) ) ;
#116 = DIRECTION ( 'NONE',  ( 0.000000000000000000, 0.000000000000000000, 1.000000000000000000 ) ) ;
#117 = CALENDAR_DATE ( 2022, 19, 1 ) ;
#118 = VERTEX_POINT ( 'NONE', #28 ) ;
#119 = AXIS2_PLACEMENT_3D ( 'NONE', #188, #87, #312 ) ;
#120 = PLANE ( 'NONE',  #225 ) ;
#121 = PERSON_AND_ORGANIZATION ( #26, #22 ) ;
#122 = DIRECTION ( 'NONE',  ( 1.000000000000000000, 0.000000000000000000, 0.000000000000000000 ) ) ;
#123 = ORIENTED_EDGE ( 'NONE', *, *, #242, .T. ) ;
#124 = LINE ( 'NONE', #212, #315 ) ;
#125 = APPROVAL_STATUS ( 'not_yet_approved' ) ;
#126 = EDGE_LOOP ( 'NONE', ( #40, #229, #54, #141 ) ) ;
#127 = ADVANCED_BREP_SHAPE_REPRESENTATION ( '62773~0', ( #189, #310 ), #297 ) ;
#128 = CC_DESIGN_APPROVAL ( #135, ( #204 ) ) ;
#129 = ORIENTED_EDGE ( 'NONE', *, *, #146, .T. ) ;
#130 = APPROVAL_ROLE ( '' ) ;
#131 = ADVANCED_FACE ( 'NONE', ( #12 ), #314, .F. ) ;
#132 = SECURITY_CLASSIFICATION_LEVEL ( 'unclassified' ) ;
#133 = AXIS2_PLACEMENT_3D ( 'NONE', #23, #70, #238 ) ;
#134 = ORIENTED_EDGE ( 'NONE', *, *, #280, .T. ) ;
#135 = APPROVAL ( #63, 'UNSPECIFIED' ) ;
#136 = CARTESIAN_POINT ( 'NONE',  ( -275.0000000000000000, -0.5000000000000000000, -225.0000000000000284 ) ) ;
#137 = ADVANCED_FACE ( 'NONE', ( #104 ), #166, .F. ) ;
#138 = LOCAL_TIME ( 13, 45, 49.00000000000000000, #205 ) ;
#139 = LINE ( 'NONE', #213, #96 ) ;
#140 = ADVANCED_FACE ( 'NONE', ( #243 ), #68, .F. ) ;
#141 = ORIENTED_EDGE ( 'NONE', *, *, #8, .T. ) ;
#142 = CARTESIAN_POINT ( 'NONE',  ( -275.0000000000000000, -0.5000000000000000000, 225.0000000000000000 ) ) ;
#143 = CC_DESIGN_PERSON_AND_ORGANIZATION_ASSIGNMENT ( #121, #249, ( #245 ) ) ;
#144 = DATE_AND_TIME ( #45, #272 ) ;
#145 = LOCAL_TIME ( 13, 45, 49.00000000000000000, #282 ) ;
#146 = EDGE_CURVE ( 'NONE', #262, #69, #190, .T. ) ;
#147 = PERSON_AND_ORGANIZATION ( #26, #22 ) ;
#148 = SHAPE_DEFINITION_REPRESENTATION ( #277, #127 ) ;
#149 = ORIENTED_EDGE ( 'NONE', *, *, #37, .T. ) ;
#150 = CC_DESIGN_PERSON_AND_ORGANIZATION_ASSIGNMENT ( #85, #278, ( #204 ) ) ;
#151 = AXIS2_PLACEMENT_3D ( 'NONE', #286, #193, #50 ) ;
#152 = CALENDAR_DATE ( 2022, 19, 1 ) ;
#153 = CC_DESIGN_APPROVAL ( #42, ( #74 ) ) ;
#154 = APPROVAL_ROLE ( '' ) ;
#155 = PERSON_AND_ORGANIZATION ( #26, #22 ) ;
#156 = CALENDAR_DATE ( 2022, 19, 1 ) ;
#157 = LINE ( 'NONE', #266, #53 ) ;
#158 = APPROVAL_STATUS ( 'not_yet_approved' ) ;
#159 = ORIENTED_EDGE ( 'NONE', *, *, #302, .F. ) ;
#160 = DATE_TIME_ROLE ( 'classification_date' ) ;
#161 = LOCAL_TIME ( 13, 45, 49.00000000000000000, #279 ) ;
#162 = VECTOR ( 'NONE', #259, 1000.000000000000000 ) ;
#163 = APPLICATION_PROTOCOL_DEFINITION ( 'international standard', 'config_control_design', 1994, #296 ) ;
#164 = ORIENTED_EDGE ( 'NONE', *, *, #290, .T. ) ;
#165 =( NAMED_UNIT ( * ) PLANE_ANGLE_UNIT ( ) SI_UNIT ( $, .RADIAN. ) );
#166 = PLANE ( 'NONE',  #211 ) ;
#167 = CC_DESIGN_PERSON_AND_ORGANIZATION_ASSIGNMENT ( #267, #105, ( #183 ) ) ;
#168 = DATE_AND_TIME ( #95, #49 ) ;
#169 = APPROVAL_PERSON_ORGANIZATION ( #233, #42, #130 ) ;
#170 = CALENDAR_DATE ( 2022, 19, 1 ) ;
#171 = DIRECTION ( 'NONE',  ( 0.000000000000000000, 0.000000000000000000, 1.000000000000000000 ) ) ;
#172 = LOCAL_TIME ( 13, 45, 49.00000000000000000, #227 ) ;
#173 = CARTESIAN_POINT ( 'NONE',  ( -275.0000000000000000, 0.5000000000000000000, 225.0000000000000000 ) ) ;
#174 = APPLICATION_CONTEXT ( 'configuration controlled 3d designs of mechanical parts and assemblies' ) ;
#175 = VECTOR ( 'NONE', #263, 1000.000000000000000 ) ;
#176 = PRODUCT ( '62773~0', '62773~0', '', ( #33 ) ) ;
#177 = DATE_AND_TIME ( #260, #138 ) ;
#178 = LINE ( 'NONE', #307, #192 ) ;
#179 = AXIS2_PLACEMENT_3D ( 'NONE', #194, #241, #218 ) ;
#180 = PERSON_AND_ORGANIZATION ( #26, #22 ) ;
#181 = ORIENTED_EDGE ( 'NONE', *, *, #146, .F. ) ;
#182 = MECHANICAL_CONTEXT ( 'NONE', #174, 'mechanical' ) ;
#183 = SECURITY_CLASSIFICATION ( '', '', #84 ) ;
#184 = VERTEX_POINT ( 'NONE', #71 ) ;
#185 = DIRECTION ( 'NONE',  ( -0.000000000000000000, -0.000000000000000000, 1.000000000000000000 ) ) ;
#186 = CC_DESIGN_PERSON_AND_ORGANIZATION_ASSIGNMENT ( #112, #271, ( #207 ) ) ;
#187 = CALENDAR_DATE ( 2022, 19, 1 ) ;
#188 = CARTESIAN_POINT ( 'NONE',  ( 275.0000000000000000, 0.5000000000000000000, -225.0000000000000000 ) ) ;
#189 = MANIFOLD_SOLID_BREP ( 'Aufsatz-Linear austragen1', #7 ) ;
#190 = LINE ( 'NONE', #191, #235 ) ;
#191 = CARTESIAN_POINT ( 'NONE',  ( -275.0000000000000000, -0.5000000000000000000, 225.0000000000000000 ) ) ;
#192 = VECTOR ( 'NONE', #185, 1000.000000000000000 ) ;
#193 = DIRECTION ( 'NONE',  ( -5.046468293750711379E-17, 0.000000000000000000, 1.000000000000000000 ) ) ;
#194 = CARTESIAN_POINT ( 'NONE',  ( -275.0000000000000000, 0.5000000000000000000, 225.0000000000000000 ) ) ;
#195 = CC_DESIGN_DATE_AND_TIME_ASSIGNMENT ( #82, #109, ( #74 ) ) ;
#196 = PRODUCT ( '62773~0', '62773~0', '', ( #182 ) ) ;
#197 = APPROVAL_PERSON_ORGANIZATION ( #254, #135, #252 ) ;
#198 = EDGE_LOOP ( 'NONE', ( #35, #149, #134, #81 ) ) ;
#199 = VECTOR ( 'NONE', #265, 1000.000000000000000 ) ;
#200 = EDGE_LOOP ( 'NONE', ( #129, #295, #4, #123 ) ) ;
#201 = CC_DESIGN_SECURITY_CLASSIFICATION ( #183, ( #245 ) ) ;
#202 = COORDINATED_UNIVERSAL_TIME_OFFSET ( 1, 0, .AHEAD. ) ;
#203 = FACE_OUTER_BOUND ( 'NONE', #61, .T. ) ;
#204 = PRODUCT_DEFINITION_FORMATION_WITH_SPECIFIED_SOURCE ( 'ANY', '', #196, .NOT_KNOWN. ) ;
#205 = COORDINATED_UNIVERSAL_TIME_OFFSET ( 1, 0, .AHEAD. ) ;
#206 = DIRECTION ( 'NONE',  ( -0.000000000000000000, -1.000000000000000000, -0.000000000000000000 ) ) ;
#207 = PRODUCT_DEFINITION ( 'UNKNOWN', '', #245, #3 ) ;
#208 = LOCAL_TIME ( 13, 45, 49.00000000000000000, #288 ) ;
#209 = PERSON_AND_ORGANIZATION_ROLE ( 'creator' ) ;
#210 = CARTESIAN_POINT ( 'NONE',  ( -275.0000000000000000, 0.5000000000000000000, -225.0000000000000284 ) ) ;
#211 = AXIS2_PLACEMENT_3D ( 'NONE', #216, #94, #116 ) ;
#212 = CARTESIAN_POINT ( 'NONE',  ( 275.0000000000000000, -0.5000000000000000000, 225.0000000000000000 ) ) ;
#213 = CARTESIAN_POINT ( 'NONE',  ( -275.0000000000000000, 0.5000000000000000000, 225.0000000000000000 ) ) ;
#214 = APPROVAL_DATE_TIME ( #274, #135 ) ;
#215 = EDGE_LOOP ( 'NONE', ( #256, #76, #292, #164 ) ) ;
#216 = CARTESIAN_POINT ( 'NONE',  ( 275.0000000000000000, 0.5000000000000000000, 225.0000000000000000 ) ) ;
#217 = APPROVAL ( #158, 'UNSPECIFIED' ) ;
#218 = DIRECTION ( 'NONE',  ( 0.000000000000000000, 0.000000000000000000, -1.000000000000000000 ) ) ;
#219 = APPROVAL ( #306, 'UNSPECIFIED' ) ;
#220 = LOCAL_TIME ( 13, 45, 49.00000000000000000, #79 ) ;
#221 = PERSON_AND_ORGANIZATION_ROLE ( 'design_owner' ) ;
#222 = COORDINATED_UNIVERSAL_TIME_OFFSET ( 1, 0, .AHEAD. ) ;
#223 = FACE_OUTER_BOUND ( 'NONE', #200, .T. ) ;
#224 = PRODUCT_RELATED_PRODUCT_CATEGORY ( 'detail', '', ( #196 ) ) ;
#225 = AXIS2_PLACEMENT_3D ( 'NONE', #239, #313, #287 ) ;
#226 = UNCERTAINTY_MEASURE_WITH_UNIT (LENGTH_MEASURE( 1.000000000000000082E-05 ), #285, 'distance_accuracy_value', 'NONE');
#227 = COORDINATED_UNIVERSAL_TIME_OFFSET ( 1, 0, .AHEAD. ) ;
#228 = PERSON_AND_ORGANIZATION_ROLE ( 'design_supplier' ) ;
#229 = ORIENTED_EDGE ( 'NONE', *, *, #57, .F. ) ;
#230 = APPROVAL_ROLE ( '' ) ;
#231 = CC_DESIGN_PERSON_AND_ORGANIZATION_ASSIGNMENT ( #60, #221, ( #176 ) ) ;
#232 = CARTESIAN_POINT ( 'NONE',  ( 275.0000000000000000, 0.5000000000000000000, -225.0000000000000000 ) ) ;
#233 = PERSON_AND_ORGANIZATION ( #26, #22 ) ;
#234 = CC_DESIGN_PERSON_AND_ORGANIZATION_ASSIGNMENT ( #147, #106, ( #204 ) ) ;
#235 = VECTOR ( 'NONE', #258, 1000.000000000000000 ) ;
#236 = ADVANCED_FACE ( 'NONE', ( #223 ), #120, .F. ) ;
#237 = PLANE ( 'NONE',  #133 ) ;
#238 = DIRECTION ( 'NONE',  ( 0.000000000000000000, -0.000000000000000000, -1.000000000000000000 ) ) ;
#239 = CARTESIAN_POINT ( 'NONE',  ( -275.0000000000000000, 0.5000000000000000000, 225.0000000000000000 ) ) ;
#240 = LINE ( 'NONE', #210, #107 ) ;
#241 = DIRECTION ( 'NONE',  ( 1.000000000000000000, -0.000000000000000000, 0.000000000000000000 ) ) ;
#242 = EDGE_CURVE ( 'NONE', #51, #262, #139, .T. ) ;
#243 = FACE_OUTER_BOUND ( 'NONE', #275, .T. ) ;
#244 = APPROVAL_STATUS ( 'not_yet_approved' ) ;
#245 = PRODUCT_DEFINITION_FORMATION_WITH_SPECIFIED_SOURCE ( 'ANY', '', #176, .NOT_KNOWN. ) ;
#246 = VECTOR ( 'NONE', #108, 1000.000000000000000 ) ;
#247 = EDGE_CURVE ( 'NONE', #15, #62, #157, .T. ) ;
#248 = VECTOR ( 'NONE', #206, 1000.000000000000000 ) ;
#249 = PERSON_AND_ORGANIZATION_ROLE ( 'creator' ) ;
#250 = ORIENTED_EDGE ( 'NONE', *, *, #302, .T. ) ;
#251 = CARTESIAN_POINT ( 'NONE',  ( -275.0000000000000000, 0.5000000000000000000, 225.0000000000000000 ) ) ;
#252 = APPROVAL_ROLE ( '' ) ;
#253 = CC_DESIGN_PERSON_AND_ORGANIZATION_ASSIGNMENT ( #268, #304, ( #58 ) ) ;
#254 = PERSON_AND_ORGANIZATION ( #26, #22 ) ;
#255 = DIRECTION ( 'NONE',  ( 0.000000000000000000, 0.000000000000000000, -1.000000000000000000 ) ) ;
#256 = ORIENTED_EDGE ( 'NONE', *, *, #24, .T. ) ;
#257 = AXIS2_PLACEMENT_3D ( 'NONE', #25, #52, #122 ) ;
#258 = DIRECTION ( 'NONE',  ( 1.000000000000000000, 0.000000000000000000, 0.000000000000000000 ) ) ;
#259 = DIRECTION ( 'NONE',  ( -1.000000000000000000, -0.000000000000000000, -5.046468293750711379E-17 ) ) ;
#260 = CALENDAR_DATE ( 2022, 19, 1 ) ;
#261 = LINE ( 'NONE', #173, #34 ) ;
#262 = VERTEX_POINT ( 'NONE', #142 ) ;
#263 = DIRECTION ( 'NONE',  ( -0.000000000000000000, -1.000000000000000000, -0.000000000000000000 ) ) ;
#264 = CC_DESIGN_DATE_AND_TIME_ASSIGNMENT ( #177, #160, ( #58 ) ) ;
#265 = DIRECTION ( 'NONE',  ( -0.000000000000000000, -1.000000000000000000, -0.000000000000000000 ) ) ;
#266 = CARTESIAN_POINT ( 'NONE',  ( 275.0000000000000000, 0.5000000000000000000, 225.0000000000000000 ) ) ;
#267 = PERSON_AND_ORGANIZATION ( #26, #22 ) ;
#268 = PERSON_AND_ORGANIZATION ( #26, #22 ) ;
#269 = LINE ( 'NONE', #283, #199 ) ;
#270 = LINE ( 'NONE', #232, #175 ) ;
#271 = PERSON_AND_ORGANIZATION_ROLE ( 'creator' ) ;
#272 = LOCAL_TIME ( 13, 45, 49.00000000000000000, #202 ) ;
#273 = COORDINATED_UNIVERSAL_TIME_OFFSET ( 1, 0, .AHEAD. ) ;
#274 = DATE_AND_TIME ( #156, #220 ) ;
#275 = EDGE_LOOP ( 'NONE', ( #250, #113, #91, #303 ) ) ;
#276 = CC_DESIGN_APPROVAL ( #219, ( #58 ) ) ;
#277 = PRODUCT_DEFINITION_SHAPE ( 'NONE', 'NONE',  #74 ) ;
#278 = PERSON_AND_ORGANIZATION_ROLE ( 'design_supplier' ) ;
#279 = COORDINATED_UNIVERSAL_TIME_OFFSET ( 1, 0, .AHEAD. ) ;
#280 = EDGE_CURVE ( 'NONE', #184, #51, #261, .T. ) ;
#281 = DIRECTION ( 'NONE',  ( -1.000000000000000000, -0.000000000000000000, -5.046468293750711379E-17 ) ) ;
#282 = COORDINATED_UNIVERSAL_TIME_OFFSET ( 1, 0, .AHEAD. ) ;
#283 = CARTESIAN_POINT ( 'NONE',  ( -275.0000000000000000, 0.5000000000000000000, -225.0000000000000284 ) ) ;
#284 = LINE ( 'NONE', #46, #246 ) ;
#285 =( LENGTH_UNIT ( ) NAMED_UNIT ( * ) SI_UNIT ( .MILLI., .METRE. ) );
#286 = CARTESIAN_POINT ( 'NONE',  ( -275.0000000000000000, 0.5000000000000000000, -225.0000000000000284 ) ) ;
#287 = DIRECTION ( 'NONE',  ( -1.000000000000000000, 0.000000000000000000, -0.000000000000000000 ) ) ;
#288 = COORDINATED_UNIVERSAL_TIME_OFFSET ( 1, 0, .AHEAD. ) ;
#289 = DIRECTION ( 'NONE',  ( 0.000000000000000000, 0.000000000000000000, -1.000000000000000000 ) ) ;
#290 = EDGE_CURVE ( 'NONE', #184, #56, #269, .T. ) ;
#291 = DATE_AND_TIME ( #48, #103 ) ;
#292 = ORIENTED_EDGE ( 'NONE', *, *, #280, .F. ) ;
#293 = APPLICATION_CONTEXT ( 'configuration controlled 3d designs of mechanical parts and assemblies' ) ;
#294 = APPROVAL_DATE_TIME ( #168, #219 ) ;
#295 = ORIENTED_EDGE ( 'NONE', *, *, #8, .F. ) ;
#296 = APPLICATION_CONTEXT ( 'configuration controlled 3d designs of mechanical parts and assemblies' ) ;
#297 =( GEOMETRIC_REPRESENTATION_CONTEXT ( 3 ) GLOBAL_UNCERTAINTY_ASSIGNED_CONTEXT ( ( #226 ) ) GLOBAL_UNIT_ASSIGNED_CONTEXT ( ( #285, #165, #99 ) ) REPRESENTATION_CONTEXT ( 'NONE', 'WORKASPACE' ) );
#298 = CC_DESIGN_APPROVAL ( #102, ( #207 ) ) ;
#299 = COORDINATED_UNIVERSAL_TIME_OFFSET ( 1, 0, .AHEAD. ) ;
#300 = DESIGN_CONTEXT ( 'detailed design', #296, 'design' ) ;
#301 = DATE_TIME_ROLE ( 'creation_date' ) ;
#302 = EDGE_CURVE ( 'NONE', #118, #56, #29, .T. ) ;
#303 = ORIENTED_EDGE ( 'NONE', *, *, #57, .T. ) ;
#304 = PERSON_AND_ORGANIZATION_ROLE ( 'classification_officer' ) ;
#305 = CARTESIAN_POINT ( 'NONE',  ( 275.0000000000000000, 0.5000000000000000000, -225.0000000000000000 ) ) ;
#306 = APPROVAL_STATUS ( 'not_yet_approved' ) ;
#307 = CARTESIAN_POINT ( 'NONE',  ( -275.0000000000000000, -0.5000000000000000000, 225.0000000000000000 ) ) ;
#308 = APPROVAL_PERSON_ORGANIZATION ( #59, #217, #230 ) ;
#309 = APPROVAL_DATE_TIME ( #11, #102 ) ;
#310 = AXIS2_PLACEMENT_3D ( 'NONE', #2, #171, #36 ) ;
#311 = LINE ( 'NONE', #88, #248 ) ;
#312 = DIRECTION ( 'NONE',  ( 0.000000000000000000, -0.000000000000000000, -1.000000000000000000 ) ) ;
#313 = DIRECTION ( 'NONE',  ( 0.000000000000000000, 0.000000000000000000, -1.000000000000000000 ) ) ;
#314 = PLANE ( 'NONE',  #179 ) ;
#315 = VECTOR ( 'NONE', #255, 1000.000000000000000 ) ;
ENDSEC;
END-ISO-10303-21;
