ISO-10303-21;
HEADER;
FILE_DESCRIPTION (( 'STEP AP203' ),
    '1' );
FILE_NAME ('62766~0.STEP',
    '2022-01-19T13:07:44',
    ( '' ),
    ( '' ),
    'SwSTEP 2.0',
    'SolidWorks 2018',
    '' );
FILE_SCHEMA (( 'CONFIG_CONTROL_DESIGN' ));
ENDSEC;

DATA;
#1 = CALENDAR_DATE ( 2022, 19, 1 ) ;
#2 = ORIENTED_EDGE ( 'NONE', *, *, #225, .F. ) ;
#3 = FACE_OUTER_BOUND ( 'NONE', #73, .T. ) ;
#4 = CC_DESIGN_APPROVAL ( #304, ( #76 ) ) ;
#5 = CARTESIAN_POINT ( 'NONE',  ( -275.0000000000000000, 0.7500000000000000000, 225.0000000000000000 ) ) ;
#6 = CALENDAR_DATE ( 2022, 19, 1 ) ;
#7 = DIRECTION ( 'NONE',  ( 1.000000000000000000, 0.000000000000000000, 0.000000000000000000 ) ) ;
#8 = CARTESIAN_POINT ( 'NONE',  ( -275.0000000000000000, 0.7500000000000000000, -225.0000000000000284 ) ) ;
#9 = CC_DESIGN_PERSON_AND_ORGANIZATION_ASSIGNMENT ( #111, #235, ( #63 ) ) ;
#10 = DIRECTION ( 'NONE',  ( -1.000000000000000000, 0.000000000000000000, 0.000000000000000000 ) ) ;
#11 = PRODUCT ( '62766~0', '62766~0', '', ( #89 ) ) ;
#12 =( GEOMETRIC_REPRESENTATION_CONTEXT ( 3 ) GLOBAL_UNCERTAINTY_ASSIGNED_CONTEXT ( ( #182 ) ) GLOBAL_UNIT_ASSIGNED_CONTEXT ( ( #303, #21, #236 ) ) REPRESENTATION_CONTEXT ( 'NONE', 'WORKASPACE' ) );
#13 = ORIENTED_EDGE ( 'NONE', *, *, #36, .T. ) ;
#14 = DATE_TIME_ROLE ( 'creation_date' ) ;
#15 = APPROVAL_ROLE ( '' ) ;
#16 = PERSON_AND_ORGANIZATION ( #87, #222 ) ;
#17 = SECURITY_CLASSIFICATION ( '', '', #232 ) ;
#18 = LINE ( 'NONE', #301, #276 ) ;
#19 = DATE_AND_TIME ( #43, #138 ) ;
#20 = CARTESIAN_POINT ( 'NONE',  ( 0.000000000000000000, 0.000000000000000000, 0.000000000000000000 ) ) ;
#21 =( NAMED_UNIT ( * ) PLANE_ANGLE_UNIT ( ) SI_UNIT ( $, .RADIAN. ) );
#22 = ORIENTED_EDGE ( 'NONE', *, *, #36, .F. ) ;
#23 = CC_DESIGN_PERSON_AND_ORGANIZATION_ASSIGNMENT ( #144, #285, ( #76 ) ) ;
#24 = PRODUCT_DEFINITION_SHAPE ( 'NONE', 'NONE',  #95 ) ;
#25 = SHAPE_DEFINITION_REPRESENTATION ( #24, #53 ) ;
#26 = CALENDAR_DATE ( 2022, 19, 1 ) ;
#27 = ORIENTED_EDGE ( 'NONE', *, *, #280, .F. ) ;
#28 = AXIS2_PLACEMENT_3D ( 'NONE', #20, #183, #311 ) ;
#29 = APPROVAL_DATE_TIME ( #289, #66 ) ;
#30 = COORDINATED_UNIVERSAL_TIME_OFFSET ( 1, 0, .AHEAD. ) ;
#31 = CC_DESIGN_APPROVAL ( #143, ( #17 ) ) ;
#32 = ADVANCED_FACE ( 'NONE', ( #198 ), #85, .F. ) ;
#33 = PERSON_AND_ORGANIZATION ( #87, #222 ) ;
#34 = CARTESIAN_POINT ( 'NONE',  ( -275.0000000000000000, -0.7500000000000000000, 225.0000000000000000 ) ) ;
#35 = DIRECTION ( 'NONE',  ( -0.000000000000000000, -0.000000000000000000, 1.000000000000000000 ) ) ;
#36 = EDGE_CURVE ( 'NONE', #155, #261, #211, .T. ) ;
#37 = CALENDAR_DATE ( 2022, 19, 1 ) ;
#38 = PERSON_AND_ORGANIZATION_ROLE ( 'design_owner' ) ;
#39 = COORDINATED_UNIVERSAL_TIME_OFFSET ( 1, 0, .AHEAD. ) ;
#40 = EDGE_CURVE ( 'NONE', #189, #226, #291, .T. ) ;
#41 = DIRECTION ( 'NONE',  ( 0.000000000000000000, -1.000000000000000000, 0.000000000000000000 ) ) ;
#42 = VECTOR ( 'NONE', #252, 1000.000000000000000 ) ;
#43 = CALENDAR_DATE ( 2022, 19, 1 ) ;
#44 = SECURITY_CLASSIFICATION_LEVEL ( 'unclassified' ) ;
#45 = ORIENTED_EDGE ( 'NONE', *, *, #165, .T. ) ;
#46 = LINE ( 'NONE', #113, #158 ) ;
#47 = CC_DESIGN_PERSON_AND_ORGANIZATION_ASSIGNMENT ( #80, #38, ( #11 ) ) ;
#48 = PERSON_AND_ORGANIZATION ( #87, #222 ) ;
#49 = VERTEX_POINT ( 'NONE', #229 ) ;
#50 = CLOSED_SHELL ( 'NONE', ( #32, #126, #224, #228, #295, #201 ) ) ;
#51 = COORDINATED_UNIVERSAL_TIME_OFFSET ( 1, 0, .AHEAD. ) ;
#52 = PRODUCT_RELATED_PRODUCT_CATEGORY ( 'detail', '', ( #207 ) ) ;
#53 = ADVANCED_BREP_SHAPE_REPRESENTATION ( '62766~0', ( #202, #215 ), #12 ) ;
#54 = ORIENTED_EDGE ( 'NONE', *, *, #40, .T. ) ;
#55 = DATE_AND_TIME ( #26, #152 ) ;
#56 = CC_DESIGN_APPROVAL ( #112, ( #95 ) ) ;
#57 = ORIENTED_EDGE ( 'NONE', *, *, #308, .T. ) ;
#58 = ORIENTED_EDGE ( 'NONE', *, *, #315, .T. ) ;
#59 = VECTOR ( 'NONE', #62, 1000.000000000000000 ) ;
#60 = CARTESIAN_POINT ( 'NONE',  ( -275.0000000000000000, -0.7500000000000000000, -225.0000000000000284 ) ) ;
#61 = DATE_AND_TIME ( #103, #200 ) ;
#62 = DIRECTION ( 'NONE',  ( -0.000000000000000000, -1.000000000000000000, -0.000000000000000000 ) ) ;
#63 = PRODUCT_DEFINITION_FORMATION_WITH_SPECIFIED_SOURCE ( 'ANY', '', #207, .NOT_KNOWN. ) ;
#64 = CARTESIAN_POINT ( 'NONE',  ( -275.0000000000000000, -0.7500000000000000000, 225.0000000000000000 ) ) ;
#65 = LOCAL_TIME ( 14, 7, 44.00000000000000000, #262 ) ;
#66 = APPROVAL ( #88, 'UNSPECIFIED' ) ;
#67 = APPROVAL_STATUS ( 'not_yet_approved' ) ;
#68 = EDGE_CURVE ( 'NONE', #155, #258, #132, .T. ) ;
#69 = PERSON_AND_ORGANIZATION_ROLE ( 'classification_officer' ) ;
#70 = PERSON_AND_ORGANIZATION ( #87, #222 ) ;
#71 = DIRECTION ( 'NONE',  ( -1.000000000000000000, -0.000000000000000000, -5.046468293750711379E-17 ) ) ;
#72 = LINE ( 'NONE', #203, #219 ) ;
#73 = EDGE_LOOP ( 'NONE', ( #54, #179, #2, #94 ) ) ;
#74 = LINE ( 'NONE', #116, #192 ) ;
#75 = PRODUCT_DEFINITION_SHAPE ( 'NONE', 'NONE',  #173 ) ;
#76 = PRODUCT_DEFINITION_FORMATION_WITH_SPECIFIED_SOURCE ( 'ANY', '', #11, .NOT_KNOWN. ) ;
#77 = PERSON_AND_ORGANIZATION ( #87, #222 ) ;
#78 = FACE_OUTER_BOUND ( 'NONE', #156, .T. ) ;
#79 = CC_DESIGN_PERSON_AND_ORGANIZATION_ASSIGNMENT ( #164, #110, ( #207 ) ) ;
#80 = PERSON_AND_ORGANIZATION ( #87, #222 ) ;
#81 = LINE ( 'NONE', #34, #140 ) ;
#82 = APPROVAL_PERSON_ORGANIZATION ( #106, #304, #114 ) ;
#83 = CARTESIAN_POINT ( 'NONE',  ( 275.0000000000000000, 0.7500000000000000000, 225.0000000000000000 ) ) ;
#84 = CARTESIAN_POINT ( 'NONE',  ( 275.0000000000000000, 0.7500000000000000000, 225.0000000000000000 ) ) ;
#85 = PLANE ( 'NONE',  #102 ) ;
#86 = APPLICATION_PROTOCOL_DEFINITION ( 'international standard', 'config_control_design', 1994, #239 ) ;
#87 = PERSON ( 'UNSPECIFIED', 'UNSPECIFIED', 'UNSPECIFIED', ('UNSPECIFIED'), ('UNSPECIFIED'), ('UNSPECIFIED') ) ;
#88 = APPROVAL_STATUS ( 'not_yet_approved' ) ;
#89 = MECHANICAL_CONTEXT ( 'NONE', #185, 'mechanical' ) ;
#90 = APPLICATION_PROTOCOL_DEFINITION ( 'international standard', 'config_control_design', 1994, #137 ) ;
#91 = DATE_AND_TIME ( #1, #293 ) ;
#92 = CC_DESIGN_APPROVAL ( #270, ( #63 ) ) ;
#93 = APPROVAL_ROLE ( '' ) ;
#94 = ORIENTED_EDGE ( 'NONE', *, *, #283, .T. ) ;
#95 = PRODUCT_DEFINITION ( 'UNKNOWN', '', #63, #150 ) ;
#96 = LINE ( 'NONE', #309, #197 ) ;
#97 = PERSON_AND_ORGANIZATION ( #87, #222 ) ;
#98 = CC_DESIGN_DATE_AND_TIME_ASSIGNMENT ( #247, #282, ( #173 ) ) ;
#99 = VERTEX_POINT ( 'NONE', #5 ) ;
#100 = DATE_AND_TIME ( #272, #305 ) ;
#101 = APPROVAL_PERSON_ORGANIZATION ( #16, #66, #118 ) ;
#102 = AXIS2_PLACEMENT_3D ( 'NONE', #84, #10, #296 ) ;
#103 = CALENDAR_DATE ( 2022, 19, 1 ) ;
#104 = PLANE ( 'NONE',  #294 ) ;
#105 = PLANE ( 'NONE',  #290 ) ;
#106 = PERSON_AND_ORGANIZATION ( #87, #222 ) ;
#107 = DIRECTION ( 'NONE',  ( 0.000000000000000000, 0.000000000000000000, -1.000000000000000000 ) ) ;
#108 = CARTESIAN_POINT ( 'NONE',  ( -275.0000000000000000, 0.7500000000000000000, 225.0000000000000000 ) ) ;
#109 = CARTESIAN_POINT ( 'NONE',  ( 275.0000000000000000, 0.7500000000000000000, -225.0000000000000000 ) ) ;
#110 = PERSON_AND_ORGANIZATION_ROLE ( 'design_owner' ) ;
#111 = PERSON_AND_ORGANIZATION ( #87, #222 ) ;
#112 = APPROVAL ( #134, 'UNSPECIFIED' ) ;
#113 = CARTESIAN_POINT ( 'NONE',  ( -275.0000000000000000, -0.7500000000000000000, -225.0000000000000284 ) ) ;
#114 = APPROVAL_ROLE ( '' ) ;
#115 = ORIENTED_EDGE ( 'NONE', *, *, #280, .T. ) ;
#116 = CARTESIAN_POINT ( 'NONE',  ( -275.0000000000000000, 0.7500000000000000000, -225.0000000000000284 ) ) ;
#117 = PERSON_AND_ORGANIZATION ( #87, #222 ) ;
#118 = APPROVAL_ROLE ( '' ) ;
#119 = PERSON_AND_ORGANIZATION ( #87, #222 ) ;
#120 = EDGE_CURVE ( 'NONE', #99, #155, #18, .T. ) ;
#121 = DATE_AND_TIME ( #167, #187 ) ;
#122 = FACE_OUTER_BOUND ( 'NONE', #267, .T. ) ;
#123 = APPROVAL ( #243, 'UNSPECIFIED' ) ;
#124 = CC_DESIGN_PERSON_AND_ORGANIZATION_ASSIGNMENT ( #77, #157, ( #95 ) ) ;
#125 = ORIENTED_EDGE ( 'NONE', *, *, #171, .F. ) ;
#126 = ADVANCED_FACE ( 'NONE', ( #310 ), #105, .F. ) ;
#127 = CC_DESIGN_SECURITY_CLASSIFICATION ( #17, ( #76 ) ) ;
#128 = PERSON_AND_ORGANIZATION ( #87, #222 ) ;
#129 = CARTESIAN_POINT ( 'NONE',  ( 275.0000000000000000, -0.7500000000000000000, 225.0000000000000000 ) ) ;
#130 = SECURITY_CLASSIFICATION ( '', '', #44 ) ;
#131 = CARTESIAN_POINT ( 'NONE',  ( 275.0000000000000000, 0.7500000000000000000, 225.0000000000000000 ) ) ;
#132 = LINE ( 'NONE', #83, #245 ) ;
#133 = CARTESIAN_POINT ( 'NONE',  ( -275.0000000000000000, 0.7500000000000000000, 225.0000000000000000 ) ) ;
#134 = APPROVAL_STATUS ( 'not_yet_approved' ) ;
#135 = ORIENTED_EDGE ( 'NONE', *, *, #165, .F. ) ;
#136 = PERSON_AND_ORGANIZATION_ROLE ( 'creator' ) ;
#137 = APPLICATION_CONTEXT ( 'configuration controlled 3d designs of mechanical parts and assemblies' ) ;
#138 = LOCAL_TIME ( 14, 7, 44.00000000000000000, #51 ) ;
#139 = DIRECTION ( 'NONE',  ( -0.000000000000000000, -1.000000000000000000, -0.000000000000000000 ) ) ;
#140 = VECTOR ( 'NONE', #7, 1000.000000000000000 ) ;
#141 = ORIENTED_EDGE ( 'NONE', *, *, #120, .F. ) ;
#142 = DESIGN_CONTEXT ( 'detailed design', #137, 'design' ) ;
#143 = APPROVAL ( #180, 'UNSPECIFIED' ) ;
#144 = PERSON_AND_ORGANIZATION ( #87, #222 ) ;
#145 = PRODUCT_RELATED_PRODUCT_CATEGORY ( 'detail', '', ( #11 ) ) ;
#146 = CC_DESIGN_PERSON_AND_ORGANIZATION_ASSIGNMENT ( #33, #214, ( #76 ) ) ;
#147 = LINE ( 'NONE', #206, #241 ) ;
#148 = CC_DESIGN_DATE_AND_TIME_ASSIGNMENT ( #91, #14, ( #95 ) ) ;
#149 = APPROVAL_DATE_TIME ( #61, #112 ) ;
#150 = DESIGN_CONTEXT ( 'detailed design', #263, 'design' ) ;
#151 = CARTESIAN_POINT ( 'NONE',  ( -275.0000000000000000, -0.7500000000000000000, 225.0000000000000000 ) ) ;
#152 = LOCAL_TIME ( 14, 7, 44.00000000000000000, #242 ) ;
#153 = DIRECTION ( 'NONE',  ( 0.000000000000000000, 0.000000000000000000, -1.000000000000000000 ) ) ;
#154 = DIRECTION ( 'NONE',  ( -0.000000000000000000, -1.000000000000000000, -0.000000000000000000 ) ) ;
#155 = VERTEX_POINT ( 'NONE', #273 ) ;
#156 = EDGE_LOOP ( 'NONE', ( #231, #115, #191, #237 ) ) ;
#157 = PERSON_AND_ORGANIZATION_ROLE ( 'creator' ) ;
#158 = VECTOR ( 'NONE', #71, 1000.000000000000000 ) ;
#159 = DIRECTION ( 'NONE',  ( -1.000000000000000000, -0.000000000000000000, -5.046468293750711379E-17 ) ) ;
#160 = CC_DESIGN_APPROVAL ( #66, ( #173 ) ) ;
#161 = CARTESIAN_POINT ( 'NONE',  ( 275.0000000000000000, 0.7500000000000000000, -225.0000000000000000 ) ) ;
#162 = VECTOR ( 'NONE', #35, 1000.000000000000000 ) ;
#163 = APPROVAL_PERSON_ORGANIZATION ( #70, #112, #306 ) ;
#164 = PERSON_AND_ORGANIZATION ( #87, #222 ) ;
#165 = EDGE_CURVE ( 'NONE', #258, #49, #72, .T. ) ;
#166 = CC_DESIGN_PERSON_AND_ORGANIZATION_ASSIGNMENT ( #117, #190, ( #63 ) ) ;
#167 = CALENDAR_DATE ( 2022, 19, 1 ) ;
#168 = CC_DESIGN_SECURITY_CLASSIFICATION ( #130, ( #63 ) ) ;
#169 = ORIENTED_EDGE ( 'NONE', *, *, #308, .F. ) ;
#170 = APPROVAL_PERSON_ORGANIZATION ( #251, #270, #15 ) ;
#171 = EDGE_CURVE ( 'NONE', #226, #261, #81, .T. ) ;
#172 = DIRECTION ( 'NONE',  ( 0.000000000000000000, -0.000000000000000000, -1.000000000000000000 ) ) ;
#173 = PRODUCT_DEFINITION ( 'UNKNOWN', '', #76, #142 ) ;
#174 = CARTESIAN_POINT ( 'NONE',  ( 275.0000000000000000, -0.7500000000000000000, -225.0000000000000000 ) ) ;
#175 = FACE_OUTER_BOUND ( 'NONE', #265, .T. ) ;
#176 = DATE_AND_TIME ( #246, #220 ) ;
#177 = DIRECTION ( 'NONE',  ( 0.000000000000000000, 0.000000000000000000, -1.000000000000000000 ) ) ;
#178 = DIRECTION ( 'NONE',  ( -1.000000000000000000, 0.000000000000000000, -0.000000000000000000 ) ) ;
#179 = ORIENTED_EDGE ( 'NONE', *, *, #315, .F. ) ;
#180 = APPROVAL_STATUS ( 'not_yet_approved' ) ;
#181 = APPROVAL_DATE_TIME ( #176, #270 ) ;
#182 = UNCERTAINTY_MEASURE_WITH_UNIT (LENGTH_MEASURE( 1.000000000000000082E-05 ), #303, 'distance_accuracy_value', 'NONE');
#183 = DIRECTION ( 'NONE',  ( 0.000000000000000000, 0.000000000000000000, 1.000000000000000000 ) ) ;
#184 = DIRECTION ( 'NONE',  ( 0.000000000000000000, -0.000000000000000000, -1.000000000000000000 ) ) ;
#185 = APPLICATION_CONTEXT ( 'configuration controlled 3d designs of mechanical parts and assemblies' ) ;
#186 = EDGE_LOOP ( 'NONE', ( #297, #135, #279, #13 ) ) ;
#187 = LOCAL_TIME ( 14, 7, 44.00000000000000000, #292 ) ;
#188 = CARTESIAN_POINT ( 'NONE',  ( 0.000000000000000000, 0.000000000000000000, 0.000000000000000000 ) ) ;
#189 = VERTEX_POINT ( 'NONE', #60 ) ;
#190 = PERSON_AND_ORGANIZATION_ROLE ( 'design_supplier' ) ;
#191 = ORIENTED_EDGE ( 'NONE', *, *, #225, .T. ) ;
#192 = VECTOR ( 'NONE', #154, 1000.000000000000000 ) ;
#193 = DATE_AND_TIME ( #287, #65 ) ;
#194 = CC_DESIGN_APPROVAL ( #123, ( #130 ) ) ;
#195 = AXIS2_PLACEMENT_3D ( 'NONE', #108, #153, #178 ) ;
#196 = ORIENTED_EDGE ( 'NONE', *, *, #283, .F. ) ;
#197 = VECTOR ( 'NONE', #139, 1000.000000000000000 ) ;
#198 = FACE_OUTER_BOUND ( 'NONE', #186, .T. ) ;
#199 = DIRECTION ( 'NONE',  ( -0.000000000000000000, -0.000000000000000000, 1.000000000000000000 ) ) ;
#200 = LOCAL_TIME ( 14, 7, 44.00000000000000000, #268 ) ;
#201 = ADVANCED_FACE ( 'NONE', ( #175 ), #104, .T. ) ;
#202 = MANIFOLD_SOLID_BREP ( 'Aufsatz-Linear austragen1', #50 ) ;
#203 = CARTESIAN_POINT ( 'NONE',  ( 275.0000000000000000, 0.7500000000000000000, -225.0000000000000000 ) ) ;
#204 = ORIENTED_EDGE ( 'NONE', *, *, #40, .F. ) ;
#205 = CARTESIAN_POINT ( 'NONE',  ( -275.0000000000000000, 0.7500000000000000000, 225.0000000000000000 ) ) ;
#206 = CARTESIAN_POINT ( 'NONE',  ( -275.0000000000000000, 0.7500000000000000000, -225.0000000000000284 ) ) ;
#207 = PRODUCT ( '62766~0', '62766~0', '', ( #257 ) ) ;
#208 = APPROVAL_ROLE ( '' ) ;
#209 = CC_DESIGN_PERSON_AND_ORGANIZATION_ASSIGNMENT ( #97, #136, ( #173 ) ) ;
#210 = LOCAL_TIME ( 14, 7, 44.00000000000000000, #271 ) ;
#211 = LINE ( 'NONE', #131, #59 ) ;
#212 = DIRECTION ( 'NONE',  ( 1.000000000000000000, 0.000000000000000000, 0.000000000000000000 ) ) ;
#213 = APPROVAL_DATE_TIME ( #55, #123 ) ;
#214 = PERSON_AND_ORGANIZATION_ROLE ( 'creator' ) ;
#215 = AXIS2_PLACEMENT_3D ( 'NONE', #188, #233, #212 ) ;
#216 = PLANE ( 'NONE',  #244 ) ;
#217 = VECTOR ( 'NONE', #199, 1000.000000000000000 ) ;
#218 = APPROVAL_DATE_TIME ( #19, #143 ) ;
#219 = VECTOR ( 'NONE', #253, 1000.000000000000000 ) ;
#220 = LOCAL_TIME ( 14, 7, 44.00000000000000000, #39 ) ;
#221 = CC_DESIGN_PERSON_AND_ORGANIZATION_ASSIGNMENT ( #119, #313, ( #130 ) ) ;
#222 = ORGANIZATION ( 'UNSPECIFIED', 'UNSPECIFIED', '' ) ;
#223 = COORDINATED_UNIVERSAL_TIME_OFFSET ( 1, 0, .AHEAD. ) ;
#224 = ADVANCED_FACE ( 'NONE', ( #3 ), #300, .F. ) ;
#225 = EDGE_CURVE ( 'NONE', #288, #99, #298, .T. ) ;
#226 = VERTEX_POINT ( 'NONE', #151 ) ;
#227 = DIRECTION ( 'NONE',  ( 0.000000000000000000, -1.000000000000000000, 0.000000000000000000 ) ) ;
#228 = ADVANCED_FACE ( 'NONE', ( #122 ), #274, .F. ) ;
#229 = CARTESIAN_POINT ( 'NONE',  ( 275.0000000000000000, -0.7500000000000000000, -225.0000000000000000 ) ) ;
#230 = PERSON_AND_ORGANIZATION ( #87, #222 ) ;
#231 = ORIENTED_EDGE ( 'NONE', *, *, #68, .T. ) ;
#232 = SECURITY_CLASSIFICATION_LEVEL ( 'unclassified' ) ;
#233 = DIRECTION ( 'NONE',  ( 0.000000000000000000, 0.000000000000000000, 1.000000000000000000 ) ) ;
#234 = CC_DESIGN_DATE_AND_TIME_ASSIGNMENT ( #193, #286, ( #17 ) ) ;
#235 = PERSON_AND_ORGANIZATION_ROLE ( 'creator' ) ;
#236 =( NAMED_UNIT ( * ) SI_UNIT ( $, .STERADIAN. ) SOLID_ANGLE_UNIT ( ) );
#237 = ORIENTED_EDGE ( 'NONE', *, *, #120, .T. ) ;
#238 = LINE ( 'NONE', #277, #42 ) ;
#239 = APPLICATION_CONTEXT ( 'configuration controlled 3d designs of mechanical parts and assemblies' ) ;
#240 = APPROVAL_PERSON_ORGANIZATION ( #230, #123, #93 ) ;
#241 = VECTOR ( 'NONE', #159, 1000.000000000000000 ) ;
#242 = COORDINATED_UNIVERSAL_TIME_OFFSET ( 1, 0, .AHEAD. ) ;
#243 = APPROVAL_STATUS ( 'not_yet_approved' ) ;
#244 = AXIS2_PLACEMENT_3D ( 'NONE', #161, #41, #184 ) ;
#245 = VECTOR ( 'NONE', #107, 1000.000000000000000 ) ;
#246 = CALENDAR_DATE ( 2022, 19, 1 ) ;
#247 = DATE_AND_TIME ( #6, #314 ) ;
#248 = CC_DESIGN_PERSON_AND_ORGANIZATION_ASSIGNMENT ( #48, #69, ( #17 ) ) ;
#249 = DIRECTION ( 'NONE',  ( 1.000000000000000000, 0.000000000000000000, 5.046468293750710763E-17 ) ) ;
#250 = ORIENTED_EDGE ( 'NONE', *, *, #171, .T. ) ;
#251 = PERSON_AND_ORGANIZATION ( #87, #222 ) ;
#252 = DIRECTION ( 'NONE',  ( 0.000000000000000000, 0.000000000000000000, -1.000000000000000000 ) ) ;
#253 = DIRECTION ( 'NONE',  ( -0.000000000000000000, -1.000000000000000000, -0.000000000000000000 ) ) ;
#254 = ORIENTED_EDGE ( 'NONE', *, *, #264, .F. ) ;
#255 = DIRECTION ( 'NONE',  ( 1.000000000000000000, -0.000000000000000000, 0.000000000000000000 ) ) ;
#256 = CARTESIAN_POINT ( 'NONE',  ( -275.0000000000000000, 0.7500000000000000000, -225.0000000000000284 ) ) ;
#257 = MECHANICAL_CONTEXT ( 'NONE', #239, 'mechanical' ) ;
#258 = VERTEX_POINT ( 'NONE', #109 ) ;
#259 = AXIS2_PLACEMENT_3D ( 'NONE', #205, #255, #177 ) ;
#260 = APPLICATION_PROTOCOL_DEFINITION ( 'international standard', 'config_control_design', 1994, #185 ) ;
#261 = VERTEX_POINT ( 'NONE', #129 ) ;
#262 = COORDINATED_UNIVERSAL_TIME_OFFSET ( 1, 0, .AHEAD. ) ;
#263 = APPLICATION_CONTEXT ( 'configuration controlled 3d designs of mechanical parts and assemblies' ) ;
#264 = EDGE_CURVE ( 'NONE', #261, #49, #238, .T. ) ;
#265 = EDGE_LOOP ( 'NONE', ( #254, #125, #204, #169 ) ) ;
#266 = DATE_TIME_ROLE ( 'classification_date' ) ;
#267 = EDGE_LOOP ( 'NONE', ( #250, #22, #141, #58 ) ) ;
#268 = COORDINATED_UNIVERSAL_TIME_OFFSET ( 1, 0, .AHEAD. ) ;
#269 = CC_DESIGN_DATE_AND_TIME_ASSIGNMENT ( #100, #266, ( #130 ) ) ;
#270 = APPROVAL ( #307, 'UNSPECIFIED' ) ;
#271 = COORDINATED_UNIVERSAL_TIME_OFFSET ( 1, 0, .AHEAD. ) ;
#272 = CALENDAR_DATE ( 2022, 19, 1 ) ;
#273 = CARTESIAN_POINT ( 'NONE',  ( 275.0000000000000000, 0.7500000000000000000, 225.0000000000000000 ) ) ;
#274 = PLANE ( 'NONE',  #195 ) ;
#275 = DIRECTION ( 'NONE',  ( -5.046468293750710763E-17, 0.000000000000000000, 1.000000000000000000 ) ) ;
#276 = VECTOR ( 'NONE', #278, 1000.000000000000000 ) ;
#277 = CARTESIAN_POINT ( 'NONE',  ( 275.0000000000000000, -0.7500000000000000000, 225.0000000000000000 ) ) ;
#278 = DIRECTION ( 'NONE',  ( 1.000000000000000000, 0.000000000000000000, 0.000000000000000000 ) ) ;
#279 = ORIENTED_EDGE ( 'NONE', *, *, #68, .F. ) ;
#280 = EDGE_CURVE ( 'NONE', #258, #288, #147, .T. ) ;
#281 = APPLICATION_PROTOCOL_DEFINITION ( 'international standard', 'config_control_design', 1994, #263 ) ;
#282 = DATE_TIME_ROLE ( 'creation_date' ) ;
#283 = EDGE_CURVE ( 'NONE', #288, #189, #74, .T. ) ;
#284 = APPROVAL_PERSON_ORGANIZATION ( #128, #143, #208 ) ;
#285 = PERSON_AND_ORGANIZATION_ROLE ( 'design_supplier' ) ;
#286 = DATE_TIME_ROLE ( 'classification_date' ) ;
#287 = CALENDAR_DATE ( 2022, 19, 1 ) ;
#288 = VERTEX_POINT ( 'NONE', #8 ) ;
#289 = DATE_AND_TIME ( #37, #210 ) ;
#290 = AXIS2_PLACEMENT_3D ( 'NONE', #256, #275, #249 ) ;
#291 = LINE ( 'NONE', #64, #162 ) ;
#292 = COORDINATED_UNIVERSAL_TIME_OFFSET ( 1, 0, .AHEAD. ) ;
#293 = LOCAL_TIME ( 14, 7, 44.00000000000000000, #223 ) ;
#294 = AXIS2_PLACEMENT_3D ( 'NONE', #174, #227, #172 ) ;
#295 = ADVANCED_FACE ( 'NONE', ( #78 ), #216, .F. ) ;
#296 = DIRECTION ( 'NONE',  ( 0.000000000000000000, 0.000000000000000000, 1.000000000000000000 ) ) ;
#297 = ORIENTED_EDGE ( 'NONE', *, *, #264, .T. ) ;
#298 = LINE ( 'NONE', #133, #217 ) ;
#299 = COORDINATED_UNIVERSAL_TIME_OFFSET ( 1, 0, .AHEAD. ) ;
#300 = PLANE ( 'NONE',  #259 ) ;
#301 = CARTESIAN_POINT ( 'NONE',  ( -275.0000000000000000, 0.7500000000000000000, 225.0000000000000000 ) ) ;
#302 = EDGE_LOOP ( 'NONE', ( #57, #196, #27, #45 ) ) ;
#303 =( LENGTH_UNIT ( ) NAMED_UNIT ( * ) SI_UNIT ( .MILLI., .METRE. ) );
#304 = APPROVAL ( #67, 'UNSPECIFIED' ) ;
#305 = LOCAL_TIME ( 14, 7, 44.00000000000000000, #299 ) ;
#306 = APPROVAL_ROLE ( '' ) ;
#307 = APPROVAL_STATUS ( 'not_yet_approved' ) ;
#308 = EDGE_CURVE ( 'NONE', #49, #189, #46, .T. ) ;
#309 = CARTESIAN_POINT ( 'NONE',  ( -275.0000000000000000, 0.7500000000000000000, 225.0000000000000000 ) ) ;
#310 = FACE_OUTER_BOUND ( 'NONE', #302, .T. ) ;
#311 = DIRECTION ( 'NONE',  ( 1.000000000000000000, 0.000000000000000000, 0.000000000000000000 ) ) ;
#312 = APPROVAL_DATE_TIME ( #121, #304 ) ;
#313 = PERSON_AND_ORGANIZATION_ROLE ( 'classification_officer' ) ;
#314 = LOCAL_TIME ( 14, 7, 44.00000000000000000, #30 ) ;
#315 = EDGE_CURVE ( 'NONE', #99, #226, #96, .T. ) ;
ENDSEC;
END-ISO-10303-21;
