ISO-10303-21;
HEADER;
FILE_DESCRIPTION (( 'STEP AP214' ),
    '1' );
FILE_NAME ('56950~0.STEP',
    '2017-07-04T12:36:42',
    ( '' ),
    ( '' ),
    'SwSTEP 2.0',
    'SolidWorks 2016',
    '' );
FILE_SCHEMA (( 'AUTOMOTIVE_DESIGN' ));
ENDSEC;

DATA;
#1 = EDGE_LOOP ( 'NONE', ( #80, #211, #231, #216 ) ) ;
#2 = FACE_OUTER_BOUND ( 'NONE', #90, .T. ) ;
#3 = EDGE_CURVE ( 'NONE', #230, #147, #18, .T. ) ;
#4 =( NAMED_UNIT ( * ) PLANE_ANGLE_UNIT ( ) SI_UNIT ( $, .RADIAN. ) );
#5 =( LENGTH_UNIT ( ) NAMED_UNIT ( * ) SI_UNIT ( .MILLI., .METRE. ) );
#6 = PRESENTATION_LAYER_ASSIGNMENT (  '', '', ( #44 ) ) ;
#7 = PRESENTATION_LAYER_ASSIGNMENT (  '', '', ( #233 ) ) ;
#8 =( LENGTH_UNIT ( ) NAMED_UNIT ( * ) SI_UNIT ( .MILLI., .METRE. ) );
#9 = PRESENTATION_STYLE_ASSIGNMENT (( #125 ) ) ;
#10 = MECHANICAL_DESIGN_GEOMETRIC_PRESENTATION_REPRESENTATION (  '', ( #233 ), #108 ) ;
#11 = DIRECTION ( 'NONE',  ( 0.0000000000000000000, 1.000000000000000000, 0.0000000000000000000 ) ) ;
#12 = DIRECTION ( 'NONE',  ( 1.000000000000000000, 0.0000000000000000000, 0.0000000000000000000 ) ) ;
#13 =( LENGTH_UNIT ( ) NAMED_UNIT ( * ) SI_UNIT ( .MILLI., .METRE. ) );
#14 = LINE ( 'NONE', #184, #79 ) ;
#15 = FILL_AREA_STYLE_COLOUR ( '', #288 ) ;
#16 = EDGE_CURVE ( 'NONE', #228, #147, #70, .T. ) ;
#17 = COLOUR_RGB ( '',1.000000000000000000, 0.7529411764705882200, 0.7529411764705882200 ) ;
#18 = LINE ( 'NONE', #169, #258 ) ;
#19 = APPLICATION_CONTEXT ( 'automotive_design' ) ;
#20 = VECTOR ( 'NONE', #88, 1000.000000000000000 ) ;
#21 = PLANE ( 'NONE',  #136 ) ;
#22 = SURFACE_STYLE_FILL_AREA ( #285 ) ;
#23 = PRESENTATION_LAYER_ASSIGNMENT (  '', '', ( #118 ) ) ;
#24 = EDGE_LOOP ( 'NONE', ( #180, #38, #166, #193 ) ) ;
#25 = PLANE ( 'NONE',  #251 ) ;
#26 = COLOUR_RGB ( '',1.000000000000000000, 0.7529411764705882200, 0.7529411764705882200 ) ;
#27 =( GEOMETRIC_REPRESENTATION_CONTEXT ( 3 ) GLOBAL_UNCERTAINTY_ASSIGNED_CONTEXT ( ( #127 ) ) GLOBAL_UNIT_ASSIGNED_CONTEXT ( ( #269, #226, #34 ) ) REPRESENTATION_CONTEXT ( 'NONE', 'WORKASPACE' ) );
#28 = CARTESIAN_POINT ( 'NONE',  ( -345.0000000000000000, 4.500000000000000000, -230.0000000000000000 ) ) ;
#29 =( NAMED_UNIT ( * ) SI_UNIT ( $, .STERADIAN. ) SOLID_ANGLE_UNIT ( ) );
#30 = STYLED_ITEM ( 'NONE', ( #227 ), #190 ) ;
#31 = VERTEX_POINT ( 'NONE', #194 ) ;
#32 = PRESENTATION_LAYER_ASSIGNMENT (  '', '', ( #177 ) ) ;
#33 = CARTESIAN_POINT ( 'NONE',  ( 0.0000000000000000000, 0.0000000000000000000, 0.0000000000000000000 ) ) ;
#34 =( NAMED_UNIT ( * ) SI_UNIT ( $, .STERADIAN. ) SOLID_ANGLE_UNIT ( ) );
#35 =( NAMED_UNIT ( * ) PLANE_ANGLE_UNIT ( ) SI_UNIT ( $, .RADIAN. ) );
#36 = FILL_AREA_STYLE ('',( #93 ) ) ;
#37 = DIRECTION ( 'NONE',  ( 1.000000000000000000, 0.0000000000000000000, -0.0000000000000000000 ) ) ;
#38 = ORIENTED_EDGE ( 'NONE', *, *, #143, .F. ) ;
#39 = ADVANCED_FACE ( 'NONE', ( #132 ), #254, .F. ) ;
#40 = STYLED_ITEM ( 'NONE', ( #252 ), #82 ) ;
#41 = VECTOR ( 'NONE', #114, 1000.000000000000000 ) ;
#42 = ORIENTED_EDGE ( 'NONE', *, *, #60, .T. ) ;
#43 = DIRECTION ( 'NONE',  ( -3.620292471603771100E-016, -0.0000000000000000000, -1.000000000000000000 ) ) ;
#44 = STYLED_ITEM ( 'NONE', ( #9 ), #235 ) ;
#45 = FILL_AREA_STYLE ('',( #234 ) ) ;
#46 = EDGE_LOOP ( 'NONE', ( #75, #187, #281, #274 ) ) ;
#47 = DIRECTION ( 'NONE',  ( -1.000000000000000000, -0.0000000000000000000, -0.0000000000000000000 ) ) ;
#48 = SURFACE_STYLE_FILL_AREA ( #36 ) ;
#49 = UNCERTAINTY_MEASURE_WITH_UNIT (LENGTH_MEASURE( 1.000000000000000100E-005 ), #8, 'distance_accuracy_value', 'NONE');
#50 = LINE ( 'NONE', #145, #41 ) ;
#51 = VERTEX_POINT ( 'NONE', #236 ) ;
#52 = CARTESIAN_POINT ( 'NONE',  ( -345.0000000000000000, -4.500000000000000000, -230.0000000000000000 ) ) ;
#53 = MANIFOLD_SOLID_BREP ( 'Linear austragen1', #247 ) ;
#54 = LINE ( 'NONE', #241, #283 ) ;
#55 = CARTESIAN_POINT ( 'NONE',  ( -345.0000000000000000, 4.500000000000000000, -230.0000000000000000 ) ) ;
#56 = PRESENTATION_STYLE_ASSIGNMENT (( #188 ) ) ;
#57 =( NAMED_UNIT ( * ) SI_UNIT ( $, .STERADIAN. ) SOLID_ANGLE_UNIT ( ) );
#58 = FACE_OUTER_BOUND ( 'NONE', #24, .T. ) ;
#59 = COLOUR_RGB ( '',1.000000000000000000, 0.7529411764705882200, 0.7529411764705882200 ) ;
#60 = EDGE_CURVE ( 'NONE', #265, #51, #240, .T. ) ;
#61 = MECHANICAL_DESIGN_GEOMETRIC_PRESENTATION_REPRESENTATION (  '', ( #118 ), #149 ) ;
#62 = FILL_AREA_STYLE_COLOUR ( '', #17 ) ;
#63 = SURFACE_STYLE_FILL_AREA ( #89 ) ;
#64 = SURFACE_STYLE_FILL_AREA ( #45 ) ;
#65 =( NAMED_UNIT ( * ) SI_UNIT ( $, .STERADIAN. ) SOLID_ANGLE_UNIT ( ) );
#66 = PRESENTATION_STYLE_ASSIGNMENT (( #104 ) ) ;
#67 = SURFACE_SIDE_STYLE ('',( #22 ) ) ;
#68 = PRESENTATION_LAYER_ASSIGNMENT (  '', '', ( #30 ) ) ;
#69 = CARTESIAN_POINT ( 'NONE',  ( -345.0000000000000000, 4.500000000000000000, -230.0000000000000000 ) ) ;
#70 = LINE ( 'NONE', #191, #203 ) ;
#71 = SURFACE_STYLE_USAGE ( .BOTH. , #176 ) ;
#72 =( GEOMETRIC_REPRESENTATION_CONTEXT ( 3 ) GLOBAL_UNCERTAINTY_ASSIGNED_CONTEXT ( ( #200 ) ) GLOBAL_UNIT_ASSIGNED_CONTEXT ( ( #139, #4, #81 ) ) REPRESENTATION_CONTEXT ( 'NONE', 'WORKASPACE' ) );
#73 = DIRECTION ( 'NONE',  ( 0.0000000000000000000, 0.0000000000000000000, 1.000000000000000000 ) ) ;
#74 = CARTESIAN_POINT ( 'NONE',  ( -345.0000000000000000, 4.500000000000000000, -230.0000000000000000 ) ) ;
#75 = ORIENTED_EDGE ( 'NONE', *, *, #110, .T. ) ;
#76 = UNCERTAINTY_MEASURE_WITH_UNIT (LENGTH_MEASURE( 1.000000000000000100E-005 ), #13, 'distance_accuracy_value', 'NONE');
#77 = VECTOR ( 'NONE', #12, 1000.000000000000000 ) ;
#78 = ORIENTED_EDGE ( 'NONE', *, *, #16, .F. ) ;
#79 = VECTOR ( 'NONE', #245, 1000.000000000000000 ) ;
#80 = ORIENTED_EDGE ( 'NONE', *, *, #99, .T. ) ;
#81 =( NAMED_UNIT ( * ) SI_UNIT ( $, .STERADIAN. ) SOLID_ANGLE_UNIT ( ) );
#82 = ADVANCED_FACE ( 'NONE', ( #2 ), #21, .T. ) ;
#83 = PRODUCT_DEFINITION_FORMATION_WITH_SPECIFIED_SOURCE ( 'ANY', '', #266, .NOT_KNOWN. ) ;
#84 = COLOUR_RGB ( '',1.000000000000000000, 0.7529411764705882200, 0.7529411764705882200 ) ;
#85 = ADVANCED_BREP_SHAPE_REPRESENTATION ( '56950~0', ( #53, #218 ), #243 ) ;
#86 = CARTESIAN_POINT ( 'NONE',  ( 345.0000000000000000, 4.500000000000000000, -230.0000000000000000 ) ) ;
#87 = STYLED_ITEM ( 'NONE', ( #66 ), #53 ) ;
#88 = DIRECTION ( 'NONE',  ( -0.0000000000000000000, -1.000000000000000000, -0.0000000000000000000 ) ) ;
#89 = FILL_AREA_STYLE ('',( #242 ) ) ;
#90 = EDGE_LOOP ( 'NONE', ( #237, #159, #42, #279 ) ) ;
#91 = SURFACE_STYLE_USAGE ( .BOTH. , #208 ) ;
#92 = EDGE_CURVE ( 'NONE', #51, #31, #50, .T. ) ;
#93 = FILL_AREA_STYLE_COLOUR ( '', #26 ) ;
#94 = FILL_AREA_STYLE ('',( #155 ) ) ;
#95 = EDGE_LOOP ( 'NONE', ( #100, #141, #225, #271 ) ) ;
#96 = SURFACE_STYLE_USAGE ( .BOTH. , #248 ) ;
#97 = SURFACE_SIDE_STYLE ('',( #277 ) ) ;
#98 = VECTOR ( 'NONE', #43, 1000.000000000000000 ) ;
#99 = EDGE_CURVE ( 'NONE', #284, #31, #192, .T. ) ;
#100 = ORIENTED_EDGE ( 'NONE', *, *, #16, .T. ) ;
#101 = MECHANICAL_DESIGN_GEOMETRIC_PRESENTATION_REPRESENTATION (  '', ( #182 ), #27 ) ;
#102 = VERTEX_POINT ( 'NONE', #28 ) ;
#103 = PRESENTATION_LAYER_ASSIGNMENT (  '', '', ( #87 ) ) ;
#104 = SURFACE_STYLE_USAGE ( .BOTH. , #111 ) ;
#105 = SURFACE_STYLE_FILL_AREA ( #259 ) ;
#106 = EDGE_LOOP ( 'NONE', ( #78, #220, #138, #275 ) ) ;
#107 = PRODUCT_DEFINITION_SHAPE ( 'NONE', 'NONE',  #210 ) ;
#108 =( GEOMETRIC_REPRESENTATION_CONTEXT ( 3 ) GLOBAL_UNCERTAINTY_ASSIGNED_CONTEXT ( ( #154 ) ) GLOBAL_UNIT_ASSIGNED_CONTEXT ( ( #206, #150, #153 ) ) REPRESENTATION_CONTEXT ( 'NONE', 'WORKASPACE' ) );
#109 = FILL_AREA_STYLE_COLOUR ( '', #179 ) ;
#110 = EDGE_CURVE ( 'NONE', #31, #228, #165, .T. ) ;
#111 = SURFACE_SIDE_STYLE ('',( #105 ) ) ;
#112 = DIRECTION ( 'NONE',  ( 1.000000000000000000, 0.0000000000000000000, 0.0000000000000000000 ) ) ;
#113 = DIRECTION ( 'NONE',  ( -1.000000000000000000, 0.0000000000000000000, 3.620292471603771100E-016 ) ) ;
#114 = DIRECTION ( 'NONE',  ( -0.0000000000000000000, -1.000000000000000000, -0.0000000000000000000 ) ) ;
#115 = LINE ( 'NONE', #183, #77 ) ;
#116 = FACE_OUTER_BOUND ( 'NONE', #1, .T. ) ;
#117 = CARTESIAN_POINT ( 'NONE',  ( -345.0000000000000000, 4.500000000000000000, -230.0000000000000000 ) ) ;
#118 = STYLED_ITEM ( 'NONE', ( #56 ), #39 ) ;
#119 = DIRECTION ( 'NONE',  ( 0.0000000000000000000, 0.0000000000000000000, 1.000000000000000000 ) ) ;
#120 = VECTOR ( 'NONE', #47, 1000.000000000000000 ) ;
#121 = APPLICATION_CONTEXT ( 'automotive_design' ) ;
#122 = COLOUR_RGB ( '',1.000000000000000000, 0.7529411764705882200, 0.7529411764705882200 ) ;
#123 = APPLICATION_PROTOCOL_DEFINITION ( 'draft international standard', 'automotive_design', 1998, #121 ) ;
#124 = DIRECTION ( 'NONE',  ( 0.0000000000000000000, 0.0000000000000000000, -1.000000000000000000 ) ) ;
#125 = SURFACE_STYLE_USAGE ( .BOTH. , #97 ) ;
#126 = MECHANICAL_DESIGN_GEOMETRIC_PRESENTATION_REPRESENTATION (  '', ( #87 ), #72 ) ;
#127 = UNCERTAINTY_MEASURE_WITH_UNIT (LENGTH_MEASURE( 1.000000000000000100E-005 ), #269, 'distance_accuracy_value', 'NONE');
#128 = VECTOR ( 'NONE', #119, 1000.000000000000000 ) ;
#129 = AXIS2_PLACEMENT_3D ( 'NONE', #222, #291, #249 ) ;
#130 = APPLICATION_PROTOCOL_DEFINITION ( 'draft international standard', 'automotive_design', 1998, #19 ) ;
#131 = EDGE_CURVE ( 'NONE', #147, #284, #54, .T. ) ;
#132 = FACE_OUTER_BOUND ( 'NONE', #106, .T. ) ;
#133 = DIRECTION ( 'NONE',  ( 1.000000000000000000, 0.0000000000000000000, 0.0000000000000000000 ) ) ;
#134 = LINE ( 'NONE', #69, #128 ) ;
#135 = DIRECTION ( 'NONE',  ( 0.0000000000000000000, 0.0000000000000000000, 1.000000000000000000 ) ) ;
#136 = AXIS2_PLACEMENT_3D ( 'NONE', #263, #11, #262 ) ;
#137 = PRODUCT_DEFINITION_CONTEXT ( 'detailed design', #19, 'design' ) ;
#138 = ORIENTED_EDGE ( 'NONE', *, *, #99, .F. ) ;
#139 =( LENGTH_UNIT ( ) NAMED_UNIT ( * ) SI_UNIT ( .MILLI., .METRE. ) );
#140 = AXIS2_PLACEMENT_3D ( 'NONE', #74, #289, #124 ) ;
#141 = ORIENTED_EDGE ( 'NONE', *, *, #3, .F. ) ;
#142 = DIRECTION ( 'NONE',  ( 3.620292471603771100E-016, 0.0000000000000000000, 1.000000000000000000 ) ) ;
#143 = EDGE_CURVE ( 'NONE', #265, #284, #197, .T. ) ;
#144 = CARTESIAN_POINT ( 'NONE',  ( 345.0000000000001100, 4.500000000000000000, 230.0000000000000000 ) ) ;
#145 = CARTESIAN_POINT ( 'NONE',  ( 345.0000000000000000, 4.500000000000000000, -230.0000000000000000 ) ) ;
#146 = FACE_OUTER_BOUND ( 'NONE', #95, .T. ) ;
#147 = VERTEX_POINT ( 'NONE', #282 ) ;
#148 = PLANE ( 'NONE',  #168 ) ;
#149 =( GEOMETRIC_REPRESENTATION_CONTEXT ( 3 ) GLOBAL_UNCERTAINTY_ASSIGNED_CONTEXT ( ( #250 ) ) GLOBAL_UNIT_ASSIGNED_CONTEXT ( ( #5, #278, #232 ) ) REPRESENTATION_CONTEXT ( 'NONE', 'WORKASPACE' ) );
#150 =( NAMED_UNIT ( * ) PLANE_ANGLE_UNIT ( ) SI_UNIT ( $, .RADIAN. ) );
#151 = CARTESIAN_POINT ( 'NONE',  ( -345.0000000000000000, 4.500000000000000000, 230.0000000000000000 ) ) ;
#152 = FACE_OUTER_BOUND ( 'NONE', #46, .T. ) ;
#153 =( NAMED_UNIT ( * ) SI_UNIT ( $, .STERADIAN. ) SOLID_ANGLE_UNIT ( ) );
#154 = UNCERTAINTY_MEASURE_WITH_UNIT (LENGTH_MEASURE( 1.000000000000000100E-005 ), #206, 'distance_accuracy_value', 'NONE');
#155 = FILL_AREA_STYLE_COLOUR ( '', #84 ) ;
#156 = PRODUCT_RELATED_PRODUCT_CATEGORY ( 'part', '', ( #266 ) ) ;
#157 = EDGE_CURVE ( 'NONE', #51, #102, #207, .T. ) ;
#158 = VECTOR ( 'NONE', #199, 1000.000000000000000 ) ;
#159 = ORIENTED_EDGE ( 'NONE', *, *, #280, .T. ) ;
#160 = MECHANICAL_DESIGN_GEOMETRIC_PRESENTATION_REPRESENTATION (  '', ( #44 ), #161 ) ;
#161 =( GEOMETRIC_REPRESENTATION_CONTEXT ( 3 ) GLOBAL_UNCERTAINTY_ASSIGNED_CONTEXT ( ( #76 ) ) GLOBAL_UNIT_ASSIGNED_CONTEXT ( ( #13, #267, #204 ) ) REPRESENTATION_CONTEXT ( 'NONE', 'WORKASPACE' ) );
#162 = EDGE_CURVE ( 'NONE', #102, #230, #134, .T. ) ;
#163 = UNCERTAINTY_MEASURE_WITH_UNIT (LENGTH_MEASURE( 1.000000000000000100E-005 ), #264, 'distance_accuracy_value', 'NONE');
#164 = SURFACE_STYLE_FILL_AREA ( #94 ) ;
#165 = LINE ( 'NONE', #52, #257 ) ;
#166 = ORIENTED_EDGE ( 'NONE', *, *, #280, .F. ) ;
#167 = CARTESIAN_POINT ( 'NONE',  ( -345.0000000000000000, -4.500000000000000000, 230.0000000000000000 ) ) ;
#168 = AXIS2_PLACEMENT_3D ( 'NONE', #55, #73, #37 ) ;
#169 = CARTESIAN_POINT ( 'NONE',  ( -345.0000000000000000, 4.500000000000000000, 230.0000000000000000 ) ) ;
#170 = COLOUR_RGB ( '',0.5019607843137254800, 0.5019607843137254800, 0.5019607843137254800 ) ;
#171 = DIRECTION ( 'NONE',  ( -0.0000000000000000000, -1.000000000000000000, -0.0000000000000000000 ) ) ;
#172 = SURFACE_STYLE_USAGE ( .BOTH. , #175 ) ;
#173 = CARTESIAN_POINT ( 'NONE',  ( 345.0000000000000000, -4.500000000000000000, -230.0000000000000000 ) ) ;
#174 = MECHANICAL_DESIGN_GEOMETRIC_PRESENTATION_REPRESENTATION (  '', ( #30 ), #189 ) ;
#175 = SURFACE_SIDE_STYLE ('',( #63 ) ) ;
#176 = SURFACE_SIDE_STYLE ('',( #256 ) ) ;
#177 = STYLED_ITEM ( 'NONE', ( #224 ), #85 ) ;
#178 = PLANE ( 'NONE',  #129 ) ;
#179 = COLOUR_RGB ( '',0.5019607843137254800, 0.5019607843137254800, 0.5019607843137254800 ) ;
#180 = ORIENTED_EDGE ( 'NONE', *, *, #131, .T. ) ;
#181 =( LENGTH_UNIT ( ) NAMED_UNIT ( * ) SI_UNIT ( .MILLI., .METRE. ) );
#182 = STYLED_ITEM ( 'NONE', ( #215 ), #213 ) ;
#183 = CARTESIAN_POINT ( 'NONE',  ( -345.0000000000000000, 4.500000000000000000, 230.0000000000000000 ) ) ;
#184 = CARTESIAN_POINT ( 'NONE',  ( -345.0000000000000000, 4.500000000000000000, -230.0000000000000000 ) ) ;
#185 = PRODUCT_CONTEXT ( 'NONE', #121, 'mechanical' ) ;
#186 =( GEOMETRIC_REPRESENTATION_CONTEXT ( 3 ) GLOBAL_UNCERTAINTY_ASSIGNED_CONTEXT ( ( #49 ) ) GLOBAL_UNIT_ASSIGNED_CONTEXT ( ( #8, #219, #29 ) ) REPRESENTATION_CONTEXT ( 'NONE', 'WORKASPACE' ) );
#187 = ORIENTED_EDGE ( 'NONE', *, *, #239, .F. ) ;
#188 = SURFACE_STYLE_USAGE ( .BOTH. , #253 ) ;
#189 =( GEOMETRIC_REPRESENTATION_CONTEXT ( 3 ) GLOBAL_UNCERTAINTY_ASSIGNED_CONTEXT ( ( #292 ) ) GLOBAL_UNIT_ASSIGNED_CONTEXT ( ( #196, #217, #65 ) ) REPRESENTATION_CONTEXT ( 'NONE', 'WORKASPACE' ) );
#190 = ADVANCED_FACE ( 'NONE', ( #116 ), #25, .F. ) ;
#191 = CARTESIAN_POINT ( 'NONE',  ( -345.0000000000000000, -4.500000000000000000, -230.0000000000000000 ) ) ;
#192 = LINE ( 'NONE', #173, #158 ) ;
#193 = ORIENTED_EDGE ( 'NONE', *, *, #3, .T. ) ;
#194 = CARTESIAN_POINT ( 'NONE',  ( 345.0000000000000000, -4.500000000000000000, -230.0000000000000000 ) ) ;
#195 =( GEOMETRIC_REPRESENTATION_CONTEXT ( 3 ) GLOBAL_UNCERTAINTY_ASSIGNED_CONTEXT ( ( #223 ) ) GLOBAL_UNIT_ASSIGNED_CONTEXT ( ( #181, #205, #57 ) ) REPRESENTATION_CONTEXT ( 'NONE', 'WORKASPACE' ) );
#196 =( LENGTH_UNIT ( ) NAMED_UNIT ( * ) SI_UNIT ( .MILLI., .METRE. ) );
#197 = LINE ( 'NONE', #144, #20 ) ;
#198 = PRESENTATION_LAYER_ASSIGNMENT (  '', '', ( #40 ) ) ;
#199 = DIRECTION ( 'NONE',  ( -3.620292471603771100E-016, -0.0000000000000000000, -1.000000000000000000 ) ) ;
#200 = UNCERTAINTY_MEASURE_WITH_UNIT (LENGTH_MEASURE( 1.000000000000000100E-005 ), #139, 'distance_accuracy_value', 'NONE');
#201 = CARTESIAN_POINT ( 'NONE',  ( -345.0000000000000000, -4.500000000000000000, -230.0000000000000000 ) ) ;
#202 =( NAMED_UNIT ( * ) SI_UNIT ( $, .STERADIAN. ) SOLID_ANGLE_UNIT ( ) );
#203 = VECTOR ( 'NONE', #135, 1000.000000000000000 ) ;
#204 =( NAMED_UNIT ( * ) SI_UNIT ( $, .STERADIAN. ) SOLID_ANGLE_UNIT ( ) );
#205 =( NAMED_UNIT ( * ) PLANE_ANGLE_UNIT ( ) SI_UNIT ( $, .RADIAN. ) );
#206 =( LENGTH_UNIT ( ) NAMED_UNIT ( * ) SI_UNIT ( .MILLI., .METRE. ) );
#207 = LINE ( 'NONE', #117, #120 ) ;
#208 = SURFACE_SIDE_STYLE ('',( #164 ) ) ;
#209 = DIRECTION ( 'NONE',  ( 0.0000000000000000000, 0.0000000000000000000, 1.000000000000000000 ) ) ;
#210 = PRODUCT_DEFINITION ( 'UNKNOWN', '', #83, #137 ) ;
#211 = ORIENTED_EDGE ( 'NONE', *, *, #92, .F. ) ;
#212 = ADVANCED_FACE ( 'NONE', ( #58 ), #178, .F. ) ;
#213 = ADVANCED_FACE ( 'NONE', ( #146 ), #260, .F. ) ;
#214 = DIRECTION ( 'NONE',  ( 0.0000000000000000000, 1.000000000000000000, 0.0000000000000000000 ) ) ;
#215 = PRESENTATION_STYLE_ASSIGNMENT (( #91 ) ) ;
#216 = ORIENTED_EDGE ( 'NONE', *, *, #143, .T. ) ;
#217 =( NAMED_UNIT ( * ) PLANE_ANGLE_UNIT ( ) SI_UNIT ( $, .RADIAN. ) );
#218 = AXIS2_PLACEMENT_3D ( 'NONE', #33, #209, #133 ) ;
#219 =( NAMED_UNIT ( * ) PLANE_ANGLE_UNIT ( ) SI_UNIT ( $, .RADIAN. ) );
#220 = ORIENTED_EDGE ( 'NONE', *, *, #110, .F. ) ;
#221 = DIRECTION ( 'NONE',  ( -1.000000000000000000, -0.0000000000000000000, -0.0000000000000000000 ) ) ;
#222 = CARTESIAN_POINT ( 'NONE',  ( -345.0000000000000000, 4.500000000000000000, 230.0000000000000000 ) ) ;
#223 = UNCERTAINTY_MEASURE_WITH_UNIT (LENGTH_MEASURE( 1.000000000000000100E-005 ), #181, 'distance_accuracy_value', 'NONE');
#224 = PRESENTATION_STYLE_ASSIGNMENT (( #71 ) ) ;
#225 = ORIENTED_EDGE ( 'NONE', *, *, #162, .F. ) ;
#226 =( NAMED_UNIT ( * ) PLANE_ANGLE_UNIT ( ) SI_UNIT ( $, .RADIAN. ) );
#227 = PRESENTATION_STYLE_ASSIGNMENT (( #172 ) ) ;
#228 = VERTEX_POINT ( 'NONE', #201 ) ;
#229 = AXIS2_PLACEMENT_3D ( 'NONE', #167, #214, #255 ) ;
#230 = VERTEX_POINT ( 'NONE', #151 ) ;
#231 = ORIENTED_EDGE ( 'NONE', *, *, #60, .F. ) ;
#232 =( NAMED_UNIT ( * ) SI_UNIT ( $, .STERADIAN. ) SOLID_ANGLE_UNIT ( ) );
#233 = STYLED_ITEM ( 'NONE', ( #270 ), #212 ) ;
#234 = FILL_AREA_STYLE_COLOUR ( '', #122 ) ;
#235 = ADVANCED_FACE ( 'NONE', ( #152 ), #148, .F. ) ;
#236 = CARTESIAN_POINT ( 'NONE',  ( 345.0000000000000000, 4.500000000000000000, -230.0000000000000000 ) ) ;
#237 = ORIENTED_EDGE ( 'NONE', *, *, #162, .T. ) ;
#238 = MECHANICAL_DESIGN_GEOMETRIC_PRESENTATION_REPRESENTATION (  '', ( #177 ), #195 ) ;
#239 = EDGE_CURVE ( 'NONE', #102, #228, #14, .T. ) ;
#240 = LINE ( 'NONE', #276, #98 ) ;
#241 = CARTESIAN_POINT ( 'NONE',  ( -345.0000000000000000, -4.500000000000000000, 230.0000000000000000 ) ) ;
#242 = FILL_AREA_STYLE_COLOUR ( '', #59 ) ;
#243 =( GEOMETRIC_REPRESENTATION_CONTEXT ( 3 ) GLOBAL_UNCERTAINTY_ASSIGNED_CONTEXT ( ( #163 ) ) GLOBAL_UNIT_ASSIGNED_CONTEXT ( ( #264, #35, #202 ) ) REPRESENTATION_CONTEXT ( 'NONE', 'WORKASPACE' ) );
#244 = CARTESIAN_POINT ( 'NONE',  ( 345.0000000000001100, -4.500000000000000000, 230.0000000000000000 ) ) ;
#245 = DIRECTION ( 'NONE',  ( -0.0000000000000000000, -1.000000000000000000, -0.0000000000000000000 ) ) ;
#246 = SHAPE_DEFINITION_REPRESENTATION ( #107, #85 ) ;
#247 = CLOSED_SHELL ( 'NONE', ( #213, #212, #190, #235, #82, #39 ) ) ;
#248 = SURFACE_SIDE_STYLE ('',( #48 ) ) ;
#249 = DIRECTION ( 'NONE',  ( -1.000000000000000000, 0.0000000000000000000, -0.0000000000000000000 ) ) ;
#250 = UNCERTAINTY_MEASURE_WITH_UNIT (LENGTH_MEASURE( 1.000000000000000100E-005 ), #5, 'distance_accuracy_value', 'NONE');
#251 = AXIS2_PLACEMENT_3D ( 'NONE', #86, #113, #142 ) ;
#252 = PRESENTATION_STYLE_ASSIGNMENT (( #261 ) ) ;
#253 = SURFACE_SIDE_STYLE ('',( #64 ) ) ;
#254 = PLANE ( 'NONE',  #229 ) ;
#255 = DIRECTION ( 'NONE',  ( 0.0000000000000000000, -0.0000000000000000000, 1.000000000000000000 ) ) ;
#256 = SURFACE_STYLE_FILL_AREA ( #287 ) ;
#257 = VECTOR ( 'NONE', #221, 1000.000000000000000 ) ;
#258 = VECTOR ( 'NONE', #171, 1000.000000000000000 ) ;
#259 = FILL_AREA_STYLE ('',( #109 ) ) ;
#260 = PLANE ( 'NONE',  #140 ) ;
#261 = SURFACE_STYLE_USAGE ( .BOTH. , #67 ) ;
#262 = DIRECTION ( 'NONE',  ( 0.0000000000000000000, -0.0000000000000000000, 1.000000000000000000 ) ) ;
#263 = CARTESIAN_POINT ( 'NONE',  ( -345.0000000000000000, 4.500000000000000000, 230.0000000000000000 ) ) ;
#264 =( LENGTH_UNIT ( ) NAMED_UNIT ( * ) SI_UNIT ( .MILLI., .METRE. ) );
#265 = VERTEX_POINT ( 'NONE', #268 ) ;
#266 = PRODUCT ( '56950~0', '56950~0', '', ( #185 ) ) ;
#267 =( NAMED_UNIT ( * ) PLANE_ANGLE_UNIT ( ) SI_UNIT ( $, .RADIAN. ) );
#268 = CARTESIAN_POINT ( 'NONE',  ( 345.0000000000001100, 4.500000000000000000, 230.0000000000000000 ) ) ;
#269 =( LENGTH_UNIT ( ) NAMED_UNIT ( * ) SI_UNIT ( .MILLI., .METRE. ) );
#270 = PRESENTATION_STYLE_ASSIGNMENT (( #96 ) ) ;
#271 = ORIENTED_EDGE ( 'NONE', *, *, #239, .T. ) ;
#272 = FILL_AREA_STYLE ('',( #15 ) ) ;
#273 = MECHANICAL_DESIGN_GEOMETRIC_PRESENTATION_REPRESENTATION (  '', ( #40 ), #186 ) ;
#274 = ORIENTED_EDGE ( 'NONE', *, *, #92, .T. ) ;
#275 = ORIENTED_EDGE ( 'NONE', *, *, #131, .F. ) ;
#276 = CARTESIAN_POINT ( 'NONE',  ( 345.0000000000000000, 4.500000000000000000, -230.0000000000000000 ) ) ;
#277 = SURFACE_STYLE_FILL_AREA ( #272 ) ;
#278 =( NAMED_UNIT ( * ) PLANE_ANGLE_UNIT ( ) SI_UNIT ( $, .RADIAN. ) );
#279 = ORIENTED_EDGE ( 'NONE', *, *, #157, .T. ) ;
#280 = EDGE_CURVE ( 'NONE', #230, #265, #115, .T. ) ;
#281 = ORIENTED_EDGE ( 'NONE', *, *, #157, .F. ) ;
#282 = CARTESIAN_POINT ( 'NONE',  ( -345.0000000000000000, -4.500000000000000000, 230.0000000000000000 ) ) ;
#283 = VECTOR ( 'NONE', #112, 1000.000000000000000 ) ;
#284 = VERTEX_POINT ( 'NONE', #244 ) ;
#285 = FILL_AREA_STYLE ('',( #62 ) ) ;
#286 = PRESENTATION_LAYER_ASSIGNMENT (  '', '', ( #182 ) ) ;
#287 = FILL_AREA_STYLE ('',( #290 ) ) ;
#288 = COLOUR_RGB ( '',1.000000000000000000, 0.7529411764705882200, 0.7529411764705882200 ) ;
#289 = DIRECTION ( 'NONE',  ( 1.000000000000000000, 0.0000000000000000000, 0.0000000000000000000 ) ) ;
#290 = FILL_AREA_STYLE_COLOUR ( '', #170 ) ;
#291 = DIRECTION ( 'NONE',  ( 0.0000000000000000000, 0.0000000000000000000, -1.000000000000000000 ) ) ;
#292 = UNCERTAINTY_MEASURE_WITH_UNIT (LENGTH_MEASURE( 1.000000000000000100E-005 ), #196, 'distance_accuracy_value', 'NONE');
ENDSEC;
END-ISO-10303-21;
