ISO-10303-21;
HEADER;
FILE_DESCRIPTION (( 'STEP AP214' ),
    '1' );
FILE_NAME ('56718~0.STEP',
    '2017-07-04T12:36:03',
    ( '' ),
    ( '' ),
    'SwSTEP 2.0',
    'SolidWorks 2016',
    '' );
FILE_SCHEMA (( 'AUTOMOTIVE_DESIGN' ));
ENDSEC;

DATA;
#1 = EDGE_CURVE ( 'NONE', #205, #76, #168, .T. ) ;
#2 =( LENGTH_UNIT ( ) NAMED_UNIT ( * ) SI_UNIT ( .MILLI., .METRE. ) );
#3 = CARTESIAN_POINT ( 'NONE',  ( -345.0000000000000600, 4.500000000000000000, 200.0000000000000000 ) ) ;
#4 = ORIENTED_EDGE ( 'NONE', *, *, #79, .T. ) ;
#5 = SURFACE_SIDE_STYLE ('',( #158 ) ) ;
#6 = FILL_AREA_STYLE ('',( #173 ) ) ;
#7 = LINE ( 'NONE', #240, #180 ) ;
#8 = VERTEX_POINT ( 'NONE', #14 ) ;
#9 = ADVANCED_FACE ( 'NONE', ( #83 ), #156, .F. ) ;
#10 = ADVANCED_BREP_SHAPE_REPRESENTATION ( '56718~0', ( #248, #165 ), #137 ) ;
#11 = FACE_OUTER_BOUND ( 'NONE', #280, .T. ) ;
#12 = SURFACE_STYLE_FILL_AREA ( #183 ) ;
#13 = EDGE_CURVE ( 'NONE', #107, #76, #270, .T. ) ;
#14 = CARTESIAN_POINT ( 'NONE',  ( 344.9999999999999400, 4.500000000000000000, -200.0000000000000000 ) ) ;
#15 =( NAMED_UNIT ( * ) PLANE_ANGLE_UNIT ( ) SI_UNIT ( $, .RADIAN. ) );
#16 = SURFACE_SIDE_STYLE ('',( #53 ) ) ;
#17 =( GEOMETRIC_REPRESENTATION_CONTEXT ( 3 ) GLOBAL_UNCERTAINTY_ASSIGNED_CONTEXT ( ( #42 ) ) GLOBAL_UNIT_ASSIGNED_CONTEXT ( ( #208, #37, #261 ) ) REPRESENTATION_CONTEXT ( 'NONE', 'WORKASPACE' ) );
#18 = DIRECTION ( 'NONE',  ( 1.000000000000000000, 0.0000000000000000000, -0.0000000000000000000 ) ) ;
#19 = CARTESIAN_POINT ( 'NONE',  ( -345.0000000000000600, 4.500000000000000000, 200.0000000000000000 ) ) ;
#20 = CARTESIAN_POINT ( 'NONE',  ( -345.0000000000000600, 4.500000000000000000, -200.0000000000000000 ) ) ;
#21 = COLOUR_RGB ( '',1.000000000000000000, 0.7529411764705882200, 0.7529411764705882200 ) ;
#22 = DIRECTION ( 'NONE',  ( 0.0000000000000000000, 0.0000000000000000000, -1.000000000000000000 ) ) ;
#23 = CARTESIAN_POINT ( 'NONE',  ( -345.0000000000000600, -4.500000000000000000, 200.0000000000000000 ) ) ;
#24 =( NAMED_UNIT ( * ) PLANE_ANGLE_UNIT ( ) SI_UNIT ( $, .RADIAN. ) );
#25 = ORIENTED_EDGE ( 'NONE', *, *, #136, .T. ) ;
#26 = SURFACE_SIDE_STYLE ('',( #154 ) ) ;
#27 = DIRECTION ( 'NONE',  ( 0.0000000000000000000, -0.0000000000000000000, 1.000000000000000000 ) ) ;
#28 = DIRECTION ( 'NONE',  ( -1.000000000000000000, 0.0000000000000000000, -0.0000000000000000000 ) ) ;
#29 = ADVANCED_FACE ( 'NONE', ( #167 ), #59, .F. ) ;
#30 = STYLED_ITEM ( 'NONE', ( #54 ), #10 ) ;
#31 = LINE ( 'NONE', #85, #200 ) ;
#32 = PRESENTATION_STYLE_ASSIGNMENT (( #134 ) ) ;
#33 = MECHANICAL_DESIGN_GEOMETRIC_PRESENTATION_REPRESENTATION (  '', ( #282 ), #56 ) ;
#34 = UNCERTAINTY_MEASURE_WITH_UNIT (LENGTH_MEASURE( 1.000000000000000100E-005 ), #223, 'distance_accuracy_value', 'NONE');
#35 = COLOUR_RGB ( '',1.000000000000000000, 0.7529411764705882200, 0.7529411764705882200 ) ;
#36 = DIRECTION ( 'NONE',  ( -1.000000000000000000, -0.0000000000000000000, -0.0000000000000000000 ) ) ;
#37 =( NAMED_UNIT ( * ) PLANE_ANGLE_UNIT ( ) SI_UNIT ( $, .RADIAN. ) );
#38 = EDGE_LOOP ( 'NONE', ( #233, #67, #209, #288 ) ) ;
#39 = VECTOR ( 'NONE', #178, 1000.000000000000000 ) ;
#40 =( NAMED_UNIT ( * ) SI_UNIT ( $, .STERADIAN. ) SOLID_ANGLE_UNIT ( ) );
#41 = ORIENTED_EDGE ( 'NONE', *, *, #13, .F. ) ;
#42 = UNCERTAINTY_MEASURE_WITH_UNIT (LENGTH_MEASURE( 1.000000000000000100E-005 ), #208, 'distance_accuracy_value', 'NONE');
#43 = DIRECTION ( 'NONE',  ( -1.000000000000000000, -0.0000000000000000000, -0.0000000000000000000 ) ) ;
#44 = SURFACE_SIDE_STYLE ('',( #199 ) ) ;
#45 = DIRECTION ( 'NONE',  ( -0.0000000000000000000, -0.0000000000000000000, -1.000000000000000000 ) ) ;
#46 =( NAMED_UNIT ( * ) SI_UNIT ( $, .STERADIAN. ) SOLID_ANGLE_UNIT ( ) );
#47 = VECTOR ( 'NONE', #214, 1000.000000000000000 ) ;
#48 = ORIENTED_EDGE ( 'NONE', *, *, #57, .T. ) ;
#49 = PRODUCT ( '56718~0', '56718~0', '', ( #277 ) ) ;
#50 = PLANE ( 'NONE',  #94 ) ;
#51 =( LENGTH_UNIT ( ) NAMED_UNIT ( * ) SI_UNIT ( .MILLI., .METRE. ) );
#52 =( NAMED_UNIT ( * ) PLANE_ANGLE_UNIT ( ) SI_UNIT ( $, .RADIAN. ) );
#53 = SURFACE_STYLE_FILL_AREA ( #237 ) ;
#54 = PRESENTATION_STYLE_ASSIGNMENT (( #197 ) ) ;
#55 = COLOUR_RGB ( '',1.000000000000000000, 0.7529411764705882200, 0.7529411764705882200 ) ;
#56 =( GEOMETRIC_REPRESENTATION_CONTEXT ( 3 ) GLOBAL_UNCERTAINTY_ASSIGNED_CONTEXT ( ( #97 ) ) GLOBAL_UNIT_ASSIGNED_CONTEXT ( ( #2, #106, #145 ) ) REPRESENTATION_CONTEXT ( 'NONE', 'WORKASPACE' ) );
#57 = EDGE_CURVE ( 'NONE', #181, #107, #86, .T. ) ;
#58 = CARTESIAN_POINT ( 'NONE',  ( 344.9999999999999400, 4.500000000000000000, -200.0000000000000000 ) ) ;
#59 = PLANE ( 'NONE',  #210 ) ;
#60 = CLOSED_SHELL ( 'NONE', ( #174, #279, #29, #9, #131, #203 ) ) ;
#61 = PRESENTATION_LAYER_ASSIGNMENT (  '', '', ( #102 ) ) ;
#62 = CARTESIAN_POINT ( 'NONE',  ( -345.0000000000000600, 4.500000000000000000, -200.0000000000000000 ) ) ;
#63 = FILL_AREA_STYLE_COLOUR ( '', #55 ) ;
#64 = EDGE_CURVE ( 'NONE', #284, #236, #68, .T. ) ;
#65 = DIRECTION ( 'NONE',  ( 1.000000000000000000, 0.0000000000000000000, 0.0000000000000000000 ) ) ;
#66 = PRESENTATION_STYLE_ASSIGNMENT (( #182 ) ) ;
#67 = ORIENTED_EDGE ( 'NONE', *, *, #64, .F. ) ;
#68 = LINE ( 'NONE', #232, #47 ) ;
#69 = CARTESIAN_POINT ( 'NONE',  ( -345.0000000000000600, 4.500000000000000000, -200.0000000000000000 ) ) ;
#70 =( NAMED_UNIT ( * ) PLANE_ANGLE_UNIT ( ) SI_UNIT ( $, .RADIAN. ) );
#71 = VECTOR ( 'NONE', #193, 1000.000000000000000 ) ;
#72 = EDGE_CURVE ( 'NONE', #205, #284, #7, .T. ) ;
#73 = DIRECTION ( 'NONE',  ( 1.000000000000000000, 0.0000000000000000000, 0.0000000000000000000 ) ) ;
#74 = CARTESIAN_POINT ( 'NONE',  ( 344.9999999999999400, -4.500000000000000000, 200.0000000000000000 ) ) ;
#75 = EDGE_CURVE ( 'NONE', #76, #236, #116, .T. ) ;
#76 = VERTEX_POINT ( 'NONE', #23 ) ;
#77 = LINE ( 'NONE', #219, #71 ) ;
#78 = STYLED_ITEM ( 'NONE', ( #195 ), #248 ) ;
#79 = EDGE_CURVE ( 'NONE', #284, #8, #87, .T. ) ;
#80 = FACE_OUTER_BOUND ( 'NONE', #144, .T. ) ;
#81 =( LENGTH_UNIT ( ) NAMED_UNIT ( * ) SI_UNIT ( .MILLI., .METRE. ) );
#82 =( GEOMETRIC_REPRESENTATION_CONTEXT ( 3 ) GLOBAL_UNCERTAINTY_ASSIGNED_CONTEXT ( ( #291 ) ) GLOBAL_UNIT_ASSIGNED_CONTEXT ( ( #249, #52, #196 ) ) REPRESENTATION_CONTEXT ( 'NONE', 'WORKASPACE' ) );
#83 = FACE_OUTER_BOUND ( 'NONE', #148, .T. ) ;
#84 = DIRECTION ( 'NONE',  ( -0.0000000000000000000, -1.000000000000000000, -0.0000000000000000000 ) ) ;
#85 = CARTESIAN_POINT ( 'NONE',  ( 344.9999999999999400, -4.500000000000000000, -200.0000000000000000 ) ) ;
#86 = LINE ( 'NONE', #117, #242 ) ;
#87 = LINE ( 'NONE', #124, #231 ) ;
#88 = DIRECTION ( 'NONE',  ( 0.0000000000000000000, 1.000000000000000000, 0.0000000000000000000 ) ) ;
#89 = PLANE ( 'NONE',  #115 ) ;
#90 = COLOUR_RGB ( '',1.000000000000000000, 0.7529411764705882200, 0.7529411764705882200 ) ;
#91 = SURFACE_STYLE_FILL_AREA ( #105 ) ;
#92 =( NAMED_UNIT ( * ) SI_UNIT ( $, .STERADIAN. ) SOLID_ANGLE_UNIT ( ) );
#93 = APPLICATION_CONTEXT ( 'automotive_design' ) ;
#94 = AXIS2_PLACEMENT_3D ( 'NONE', #3, #150, #28 ) ;
#95 =( NAMED_UNIT ( * ) SI_UNIT ( $, .STERADIAN. ) SOLID_ANGLE_UNIT ( ) );
#96 = ORIENTED_EDGE ( 'NONE', *, *, #226, .T. ) ;
#97 = UNCERTAINTY_MEASURE_WITH_UNIT (LENGTH_MEASURE( 1.000000000000000100E-005 ), #2, 'distance_accuracy_value', 'NONE');
#98 = PRESENTATION_STYLE_ASSIGNMENT (( #125 ) ) ;
#99 = COLOUR_RGB ( '',0.5019607843137254800, 0.5019607843137254800, 0.5019607843137254800 ) ;
#100 = DIRECTION ( 'NONE',  ( 0.0000000000000000000, 0.0000000000000000000, 1.000000000000000000 ) ) ;
#101 = FILL_AREA_STYLE_COLOUR ( '', #256 ) ;
#102 = STYLED_ITEM ( 'NONE', ( #135 ), #203 ) ;
#103 = ORIENTED_EDGE ( 'NONE', *, *, #64, .T. ) ;
#104 = CARTESIAN_POINT ( 'NONE',  ( -345.0000000000000600, -4.500000000000000000, 200.0000000000000000 ) ) ;
#105 = FILL_AREA_STYLE ('',( #63 ) ) ;
#106 =( NAMED_UNIT ( * ) PLANE_ANGLE_UNIT ( ) SI_UNIT ( $, .RADIAN. ) );
#107 = VERTEX_POINT ( 'NONE', #166 ) ;
#108 = PRESENTATION_LAYER_ASSIGNMENT (  '', '', ( #282 ) ) ;
#109 = FILL_AREA_STYLE_COLOUR ( '', #99 ) ;
#110 = UNCERTAINTY_MEASURE_WITH_UNIT (LENGTH_MEASURE( 1.000000000000000100E-005 ), #51, 'distance_accuracy_value', 'NONE');
#111 = DIRECTION ( 'NONE',  ( 0.0000000000000000000, 0.0000000000000000000, 1.000000000000000000 ) ) ;
#112 = CARTESIAN_POINT ( 'NONE',  ( 344.9999999999999400, 4.500000000000000000, 200.0000000000000000 ) ) ;
#113 = VECTOR ( 'NONE', #185, 1000.000000000000000 ) ;
#114 = PRESENTATION_LAYER_ASSIGNMENT (  '', '', ( #184 ) ) ;
#115 = AXIS2_PLACEMENT_3D ( 'NONE', #104, #213, #27 ) ;
#116 = LINE ( 'NONE', #266, #129 ) ;
#117 = CARTESIAN_POINT ( 'NONE',  ( -345.0000000000000600, -4.500000000000000000, -200.0000000000000000 ) ) ;
#118 =( GEOMETRIC_REPRESENTATION_CONTEXT ( 3 ) GLOBAL_UNCERTAINTY_ASSIGNED_CONTEXT ( ( #267 ) ) GLOBAL_UNIT_ASSIGNED_CONTEXT ( ( #143, #24, #40 ) ) REPRESENTATION_CONTEXT ( 'NONE', 'WORKASPACE' ) );
#119 = CARTESIAN_POINT ( 'NONE',  ( -345.0000000000000600, -4.500000000000000000, -200.0000000000000000 ) ) ;
#120 = ORIENTED_EDGE ( 'NONE', *, *, #171, .F. ) ;
#121 = SURFACE_SIDE_STYLE ('',( #188 ) ) ;
#122 = SURFACE_STYLE_USAGE ( .BOTH. , #265 ) ;
#123 = VECTOR ( 'NONE', #84, 1000.000000000000000 ) ;
#124 = CARTESIAN_POINT ( 'NONE',  ( 344.9999999999999400, 4.500000000000000000, -200.0000000000000000 ) ) ;
#125 = SURFACE_STYLE_USAGE ( .BOTH. , #44 ) ;
#126 = APPLICATION_PROTOCOL_DEFINITION ( 'draft international standard', 'automotive_design', 1998, #176 ) ;
#127 =( NAMED_UNIT ( * ) PLANE_ANGLE_UNIT ( ) SI_UNIT ( $, .RADIAN. ) );
#128 = PRESENTATION_LAYER_ASSIGNMENT (  '', '', ( #218 ) ) ;
#129 = VECTOR ( 'NONE', #269, 1000.000000000000000 ) ;
#130 =( LENGTH_UNIT ( ) NAMED_UNIT ( * ) SI_UNIT ( .MILLI., .METRE. ) );
#131 = ADVANCED_FACE ( 'NONE', ( #11 ), #141, .T. ) ;
#132 = PRODUCT_DEFINITION ( 'UNKNOWN', '', #206, #190 ) ;
#133 = PRESENTATION_LAYER_ASSIGNMENT (  '', '', ( #228 ) ) ;
#134 = SURFACE_STYLE_USAGE ( .BOTH. , #16 ) ;
#135 = PRESENTATION_STYLE_ASSIGNMENT (( #122 ) ) ;
#136 = EDGE_CURVE ( 'NONE', #157, #107, #250, .T. ) ;
#137 =( GEOMETRIC_REPRESENTATION_CONTEXT ( 3 ) GLOBAL_UNCERTAINTY_ASSIGNED_CONTEXT ( ( #34 ) ) GLOBAL_UNIT_ASSIGNED_CONTEXT ( ( #223, #221, #274 ) ) REPRESENTATION_CONTEXT ( 'NONE', 'WORKASPACE' ) );
#138 = DIRECTION ( 'NONE',  ( 0.0000000000000000000, -0.0000000000000000000, 1.000000000000000000 ) ) ;
#139 = ORIENTED_EDGE ( 'NONE', *, *, #57, .F. ) ;
#140 = SURFACE_STYLE_FILL_AREA ( #273 ) ;
#141 = PLANE ( 'NONE',  #254 ) ;
#142 = CARTESIAN_POINT ( 'NONE',  ( -345.0000000000000600, 4.500000000000000000, 200.0000000000000000 ) ) ;
#143 =( LENGTH_UNIT ( ) NAMED_UNIT ( * ) SI_UNIT ( .MILLI., .METRE. ) );
#144 = EDGE_LOOP ( 'NONE', ( #41, #139, #120, #283 ) ) ;
#145 =( NAMED_UNIT ( * ) SI_UNIT ( $, .STERADIAN. ) SOLID_ANGLE_UNIT ( ) );
#146 = FILL_AREA_STYLE_COLOUR ( '', #289 ) ;
#147 = SURFACE_STYLE_USAGE ( .BOTH. , #246 ) ;
#148 = EDGE_LOOP ( 'NONE', ( #48, #153, #212, #229 ) ) ;
#149 = SHAPE_DEFINITION_REPRESENTATION ( #162, #10 ) ;
#150 = DIRECTION ( 'NONE',  ( 0.0000000000000000000, 0.0000000000000000000, -1.000000000000000000 ) ) ;
#151 = MECHANICAL_DESIGN_GEOMETRIC_PRESENTATION_REPRESENTATION (  '', ( #228 ), #118 ) ;
#152 = ORIENTED_EDGE ( 'NONE', *, *, #241, .F. ) ;
#153 = ORIENTED_EDGE ( 'NONE', *, *, #136, .F. ) ;
#154 = SURFACE_STYLE_FILL_AREA ( #245 ) ;
#155 = AXIS2_PLACEMENT_3D ( 'NONE', #69, #65, #22 ) ;
#156 = PLANE ( 'NONE',  #220 ) ;
#157 = VERTEX_POINT ( 'NONE', #20 ) ;
#158 = SURFACE_STYLE_FILL_AREA ( #6 ) ;
#159 = CARTESIAN_POINT ( 'NONE',  ( -345.0000000000000600, 4.500000000000000000, -200.0000000000000000 ) ) ;
#160 = ORIENTED_EDGE ( 'NONE', *, *, #179, .T. ) ;
#161 =( NAMED_UNIT ( * ) SI_UNIT ( $, .STERADIAN. ) SOLID_ANGLE_UNIT ( ) );
#162 = PRODUCT_DEFINITION_SHAPE ( 'NONE', 'NONE',  #132 ) ;
#163 = UNCERTAINTY_MEASURE_WITH_UNIT (LENGTH_MEASURE( 1.000000000000000100E-005 ), #170, 'distance_accuracy_value', 'NONE');
#164 =( NAMED_UNIT ( * ) PLANE_ANGLE_UNIT ( ) SI_UNIT ( $, .RADIAN. ) );
#165 = AXIS2_PLACEMENT_3D ( 'NONE', #198, #111, #73 ) ;
#166 = CARTESIAN_POINT ( 'NONE',  ( -345.0000000000000600, -4.500000000000000000, -200.0000000000000000 ) ) ;
#167 = FACE_OUTER_BOUND ( 'NONE', #207, .T. ) ;
#168 = LINE ( 'NONE', #286, #113 ) ;
#169 = VECTOR ( 'NONE', #43, 1000.000000000000000 ) ;
#170 =( LENGTH_UNIT ( ) NAMED_UNIT ( * ) SI_UNIT ( .MILLI., .METRE. ) );
#171 = EDGE_CURVE ( 'NONE', #236, #181, #31, .T. ) ;
#172 = MECHANICAL_DESIGN_GEOMETRIC_PRESENTATION_REPRESENTATION (  '', ( #184 ), #186 ) ;
#173 = FILL_AREA_STYLE_COLOUR ( '', #227 ) ;
#174 = ADVANCED_FACE ( 'NONE', ( #255 ), #187, .F. ) ;
#175 = ORIENTED_EDGE ( 'NONE', *, *, #171, .T. ) ;
#176 = APPLICATION_CONTEXT ( 'automotive_design' ) ;
#177 = APPLICATION_PROTOCOL_DEFINITION ( 'draft international standard', 'automotive_design', 1998, #93 ) ;
#178 = DIRECTION ( 'NONE',  ( 0.0000000000000000000, 0.0000000000000000000, 1.000000000000000000 ) ) ;
#179 = EDGE_CURVE ( 'NONE', #8, #157, #230, .T. ) ;
#180 = VECTOR ( 'NONE', #192, 1000.000000000000000 ) ;
#181 = VERTEX_POINT ( 'NONE', #216 ) ;
#182 = SURFACE_STYLE_USAGE ( .BOTH. , #263 ) ;
#183 = FILL_AREA_STYLE ('',( #101 ) ) ;
#184 = STYLED_ITEM ( 'NONE', ( #32 ), #9 ) ;
#185 = DIRECTION ( 'NONE',  ( -0.0000000000000000000, -1.000000000000000000, -0.0000000000000000000 ) ) ;
#186 =( GEOMETRIC_REPRESENTATION_CONTEXT ( 3 ) GLOBAL_UNCERTAINTY_ASSIGNED_CONTEXT ( ( #224 ) ) GLOBAL_UNIT_ASSIGNED_CONTEXT ( ( #81, #15, #161 ) ) REPRESENTATION_CONTEXT ( 'NONE', 'WORKASPACE' ) );
#187 = PLANE ( 'NONE',  #155 ) ;
#188 = SURFACE_STYLE_FILL_AREA ( #239 ) ;
#189 = PRESENTATION_STYLE_ASSIGNMENT (( #264 ) ) ;
#190 = PRODUCT_DEFINITION_CONTEXT ( 'detailed design', #176, 'design' ) ;
#191 = FILL_AREA_STYLE ('',( #292 ) ) ;
#192 = DIRECTION ( 'NONE',  ( 1.000000000000000000, 0.0000000000000000000, 0.0000000000000000000 ) ) ;
#193 = DIRECTION ( 'NONE',  ( -0.0000000000000000000, -1.000000000000000000, -0.0000000000000000000 ) ) ;
#194 = ORIENTED_EDGE ( 'NONE', *, *, #13, .T. ) ;
#195 = PRESENTATION_STYLE_ASSIGNMENT (( #147 ) ) ;
#196 =( NAMED_UNIT ( * ) SI_UNIT ( $, .STERADIAN. ) SOLID_ANGLE_UNIT ( ) );
#197 = SURFACE_STYLE_USAGE ( .BOTH. , #5 ) ;
#198 = CARTESIAN_POINT ( 'NONE',  ( 0.0000000000000000000, 0.0000000000000000000, 0.0000000000000000000 ) ) ;
#199 = SURFACE_STYLE_FILL_AREA ( #191 ) ;
#200 = VECTOR ( 'NONE', #45, 1000.000000000000000 ) ;
#201 = MECHANICAL_DESIGN_GEOMETRIC_PRESENTATION_REPRESENTATION (  '', ( #218 ), #290 ) ;
#202 = MECHANICAL_DESIGN_GEOMETRIC_PRESENTATION_REPRESENTATION (  '', ( #78 ), #215 ) ;
#203 = ADVANCED_FACE ( 'NONE', ( #80 ), #89, .F. ) ;
#204 = VECTOR ( 'NONE', #287, 1000.000000000000000 ) ;
#205 = VERTEX_POINT ( 'NONE', #142 ) ;
#206 = PRODUCT_DEFINITION_FORMATION_WITH_SPECIFIED_SOURCE ( 'ANY', '', #49, .NOT_KNOWN. ) ;
#207 = EDGE_LOOP ( 'NONE', ( #175, #152, #222, #103 ) ) ;
#208 =( LENGTH_UNIT ( ) NAMED_UNIT ( * ) SI_UNIT ( .MILLI., .METRE. ) );
#209 = ORIENTED_EDGE ( 'NONE', *, *, #72, .F. ) ;
#210 = AXIS2_PLACEMENT_3D ( 'NONE', #58, #211, #257 ) ;
#211 = DIRECTION ( 'NONE',  ( -1.000000000000000000, 0.0000000000000000000, 0.0000000000000000000 ) ) ;
#212 = ORIENTED_EDGE ( 'NONE', *, *, #179, .F. ) ;
#213 = DIRECTION ( 'NONE',  ( 0.0000000000000000000, 1.000000000000000000, 0.0000000000000000000 ) ) ;
#214 = DIRECTION ( 'NONE',  ( -0.0000000000000000000, -1.000000000000000000, -0.0000000000000000000 ) ) ;
#215 =( GEOMETRIC_REPRESENTATION_CONTEXT ( 3 ) GLOBAL_UNCERTAINTY_ASSIGNED_CONTEXT ( ( #244 ) ) GLOBAL_UNIT_ASSIGNED_CONTEXT ( ( #130, #70, #92 ) ) REPRESENTATION_CONTEXT ( 'NONE', 'WORKASPACE' ) );
#216 = CARTESIAN_POINT ( 'NONE',  ( 344.9999999999999400, -4.500000000000000000, -200.0000000000000000 ) ) ;
#217 = ORIENTED_EDGE ( 'NONE', *, *, #72, .T. ) ;
#218 = STYLED_ITEM ( 'NONE', ( #281 ), #279 ) ;
#219 = CARTESIAN_POINT ( 'NONE',  ( 344.9999999999999400, 4.500000000000000000, -200.0000000000000000 ) ) ;
#220 = AXIS2_PLACEMENT_3D ( 'NONE', #159, #100, #18 ) ;
#221 =( NAMED_UNIT ( * ) PLANE_ANGLE_UNIT ( ) SI_UNIT ( $, .RADIAN. ) );
#222 = ORIENTED_EDGE ( 'NONE', *, *, #79, .F. ) ;
#223 =( LENGTH_UNIT ( ) NAMED_UNIT ( * ) SI_UNIT ( .MILLI., .METRE. ) );
#224 = UNCERTAINTY_MEASURE_WITH_UNIT (LENGTH_MEASURE( 1.000000000000000100E-005 ), #81, 'distance_accuracy_value', 'NONE');
#225 = CARTESIAN_POINT ( 'NONE',  ( -345.0000000000000600, 4.500000000000000000, -200.0000000000000000 ) ) ;
#226 = EDGE_CURVE ( 'NONE', #157, #205, #276, .T. ) ;
#227 = COLOUR_RGB ( '',0.5019607843137254800, 0.5019607843137254800, 0.5019607843137254800 ) ;
#228 = STYLED_ITEM ( 'NONE', ( #189 ), #174 ) ;
#229 = ORIENTED_EDGE ( 'NONE', *, *, #241, .T. ) ;
#230 = LINE ( 'NONE', #62, #169 ) ;
#231 = VECTOR ( 'NONE', #243, 1000.000000000000000 ) ;
#232 = CARTESIAN_POINT ( 'NONE',  ( 344.9999999999999400, 4.500000000000000000, 200.0000000000000000 ) ) ;
#233 = ORIENTED_EDGE ( 'NONE', *, *, #75, .T. ) ;
#234 = PRESENTATION_LAYER_ASSIGNMENT (  '', '', ( #30 ) ) ;
#235 = STYLED_ITEM ( 'NONE', ( #66 ), #29 ) ;
#236 = VERTEX_POINT ( 'NONE', #74 ) ;
#237 = FILL_AREA_STYLE ('',( #258 ) ) ;
#238 = CARTESIAN_POINT ( 'NONE',  ( -345.0000000000000600, 4.500000000000000000, -200.0000000000000000 ) ) ;
#239 = FILL_AREA_STYLE ('',( #268 ) ) ;
#240 = CARTESIAN_POINT ( 'NONE',  ( -345.0000000000000600, 4.500000000000000000, 200.0000000000000000 ) ) ;
#241 = EDGE_CURVE ( 'NONE', #8, #181, #77, .T. ) ;
#242 = VECTOR ( 'NONE', #36, 1000.000000000000000 ) ;
#243 = DIRECTION ( 'NONE',  ( -0.0000000000000000000, -0.0000000000000000000, -1.000000000000000000 ) ) ;
#244 = UNCERTAINTY_MEASURE_WITH_UNIT (LENGTH_MEASURE( 1.000000000000000100E-005 ), #130, 'distance_accuracy_value', 'NONE');
#245 = FILL_AREA_STYLE ('',( #146 ) ) ;
#246 = SURFACE_SIDE_STYLE ('',( #140 ) ) ;
#247 =( GEOMETRIC_REPRESENTATION_CONTEXT ( 3 ) GLOBAL_UNCERTAINTY_ASSIGNED_CONTEXT ( ( #163 ) ) GLOBAL_UNIT_ASSIGNED_CONTEXT ( ( #170, #164, #46 ) ) REPRESENTATION_CONTEXT ( 'NONE', 'WORKASPACE' ) );
#248 = MANIFOLD_SOLID_BREP ( 'Linear austragen1', #60 ) ;
#249 =( LENGTH_UNIT ( ) NAMED_UNIT ( * ) SI_UNIT ( .MILLI., .METRE. ) );
#250 = LINE ( 'NONE', #238, #123 ) ;
#251 = MECHANICAL_DESIGN_GEOMETRIC_PRESENTATION_REPRESENTATION (  '', ( #30 ), #82 ) ;
#252 = ORIENTED_EDGE ( 'NONE', *, *, #226, .F. ) ;
#253 = PRESENTATION_LAYER_ASSIGNMENT (  '', '', ( #235 ) ) ;
#254 = AXIS2_PLACEMENT_3D ( 'NONE', #19, #88, #138 ) ;
#255 = FACE_OUTER_BOUND ( 'NONE', #275, .T. ) ;
#256 = COLOUR_RGB ( '',1.000000000000000000, 0.7529411764705882200, 0.7529411764705882200 ) ;
#257 = DIRECTION ( 'NONE',  ( 0.0000000000000000000, 0.0000000000000000000, 1.000000000000000000 ) ) ;
#258 = FILL_AREA_STYLE_COLOUR ( '', #90 ) ;
#259 = ORIENTED_EDGE ( 'NONE', *, *, #1, .F. ) ;
#260 = FACE_OUTER_BOUND ( 'NONE', #38, .T. ) ;
#261 =( NAMED_UNIT ( * ) SI_UNIT ( $, .STERADIAN. ) SOLID_ANGLE_UNIT ( ) );
#262 = PRESENTATION_LAYER_ASSIGNMENT (  '', '', ( #78 ) ) ;
#263 = SURFACE_SIDE_STYLE ('',( #12 ) ) ;
#264 = SURFACE_STYLE_USAGE ( .BOTH. , #121 ) ;
#265 = SURFACE_SIDE_STYLE ('',( #91 ) ) ;
#266 = CARTESIAN_POINT ( 'NONE',  ( -345.0000000000000600, -4.500000000000000000, 200.0000000000000000 ) ) ;
#267 = UNCERTAINTY_MEASURE_WITH_UNIT (LENGTH_MEASURE( 1.000000000000000100E-005 ), #143, 'distance_accuracy_value', 'NONE');
#268 = FILL_AREA_STYLE_COLOUR ( '', #21 ) ;
#269 = DIRECTION ( 'NONE',  ( 1.000000000000000000, 0.0000000000000000000, 0.0000000000000000000 ) ) ;
#270 = LINE ( 'NONE', #119, #204 ) ;
#271 = SURFACE_STYLE_USAGE ( .BOTH. , #26 ) ;
#272 = MECHANICAL_DESIGN_GEOMETRIC_PRESENTATION_REPRESENTATION (  '', ( #235 ), #17 ) ;
#273 = FILL_AREA_STYLE ('',( #109 ) ) ;
#274 =( NAMED_UNIT ( * ) SI_UNIT ( $, .STERADIAN. ) SOLID_ANGLE_UNIT ( ) );
#275 = EDGE_LOOP ( 'NONE', ( #194, #259, #252, #25 ) ) ;
#276 = LINE ( 'NONE', #225, #39 ) ;
#277 = PRODUCT_CONTEXT ( 'NONE', #93, 'mechanical' ) ;
#278 = MECHANICAL_DESIGN_GEOMETRIC_PRESENTATION_REPRESENTATION (  '', ( #102 ), #247 ) ;
#279 = ADVANCED_FACE ( 'NONE', ( #260 ), #50, .F. ) ;
#280 = EDGE_LOOP ( 'NONE', ( #96, #217, #4, #160 ) ) ;
#281 = PRESENTATION_STYLE_ASSIGNMENT (( #271 ) ) ;
#282 = STYLED_ITEM ( 'NONE', ( #98 ), #131 ) ;
#283 = ORIENTED_EDGE ( 'NONE', *, *, #75, .F. ) ;
#284 = VERTEX_POINT ( 'NONE', #112 ) ;
#285 = PRODUCT_RELATED_PRODUCT_CATEGORY ( 'part', '', ( #49 ) ) ;
#286 = CARTESIAN_POINT ( 'NONE',  ( -345.0000000000000600, 4.500000000000000000, 200.0000000000000000 ) ) ;
#287 = DIRECTION ( 'NONE',  ( 0.0000000000000000000, 0.0000000000000000000, 1.000000000000000000 ) ) ;
#288 = ORIENTED_EDGE ( 'NONE', *, *, #1, .T. ) ;
#289 = COLOUR_RGB ( '',1.000000000000000000, 0.7529411764705882200, 0.7529411764705882200 ) ;
#290 =( GEOMETRIC_REPRESENTATION_CONTEXT ( 3 ) GLOBAL_UNCERTAINTY_ASSIGNED_CONTEXT ( ( #110 ) ) GLOBAL_UNIT_ASSIGNED_CONTEXT ( ( #51, #127, #95 ) ) REPRESENTATION_CONTEXT ( 'NONE', 'WORKASPACE' ) );
#291 = UNCERTAINTY_MEASURE_WITH_UNIT (LENGTH_MEASURE( 1.000000000000000100E-005 ), #249, 'distance_accuracy_value', 'NONE');
#292 = FILL_AREA_STYLE_COLOUR ( '', #35 ) ;
ENDSEC;
END-ISO-10303-21;
