ISO-10303-21;
HEADER;
FILE_DESCRIPTION (( 'STEP AP214' ),
    '1' );
FILE_NAME ('50021~0.STEP',
    '2017-07-04T13:53:07',
    ( '' ),
    ( '' ),
    'SwSTEP 2.0',
    'SolidWorks 2016',
    '' );
FILE_SCHEMA (( 'AUTOMOTIVE_DESIGN' ));
ENDSEC;

DATA;
#1 = LINE ( 'NONE', #65, #182 ) ;
#2 = DIRECTION ( 'NONE',  ( -0.0000000000000000000, -1.000000000000000000, -0.0000000000000000000 ) ) ;
#3 = EDGE_LOOP ( 'NONE', ( #81, #154, #91, #34 ) ) ;
#4 = CARTESIAN_POINT ( 'NONE',  ( 0.0000000000000000000, 34.50000000000000000, 0.0000000000000000000 ) ) ;
#5 = CARTESIAN_POINT ( 'NONE',  ( 0.0000000000000000000, 0.0000000000000000000, 0.0000000000000000000 ) ) ;
#6 = DIRECTION ( 'NONE',  ( -0.0000000000000000000, -1.000000000000000000, -0.0000000000000000000 ) ) ;
#7 = ADVANCED_FACE ( 'NONE', ( #217 ), #314, .T. ) ;
#8 = EDGE_CURVE ( 'NONE', #168, #42, #159, .T. ) ;
#9 = VECTOR ( 'NONE', #169, 1000.000000000000000 ) ;
#10 = CARTESIAN_POINT ( 'NONE',  ( 0.0000000000000000000, 15.50000000000000000, 0.0000000000000000000 ) ) ;
#11 = ORIENTED_EDGE ( 'NONE', *, *, #333, .F. ) ;
#12 = DIRECTION ( 'NONE',  ( 0.0000000000000000000, 0.0000000000000000000, -1.000000000000000000 ) ) ;
#13 = DIRECTION ( 'NONE',  ( -0.0000000000000000000, -1.000000000000000000, -0.0000000000000000000 ) ) ;
#14 = DIRECTION ( 'NONE',  ( -0.0000000000000000000, -1.000000000000000000, -0.0000000000000000000 ) ) ;
#15 = TOROIDAL_SURFACE ( 'NONE', #250, 3.180629306801774800, 0.5000000000000017800 ) ;
#16 = DIRECTION ( 'NONE',  ( -1.000000000000000000, 0.0000000000000000000, 0.0000000000000000000 ) ) ;
#17 = DIRECTION ( 'NONE',  ( 0.0000000000000000000, 0.0000000000000000000, -1.000000000000000000 ) ) ;
#18 = CIRCLE ( 'NONE', #103, 5.999999999999998200 ) ;
#19 = DIRECTION ( 'NONE',  ( -0.0000000000000000000, -1.000000000000000000, -0.0000000000000000000 ) ) ;
#20 = ORIENTED_EDGE ( 'NONE', *, *, #48, .F. ) ;
#21 = CARTESIAN_POINT ( 'NONE',  ( 4.178004027920985600E-016, 35.00000000000000000, 3.180629306801774800 ) ) ;
#22 = VECTOR ( 'NONE', #176, 1000.000000000000000 ) ;
#23 = ORIENTED_EDGE ( 'NONE', *, *, #160, .T. ) ;
#24 = AXIS2_PLACEMENT_3D ( 'NONE', #10, #297, #211 ) ;
#25 = FILL_AREA_STYLE ('',( #331 ) ) ;
#26 = DIRECTION ( 'NONE',  ( -0.0000000000000000000, -1.000000000000000000, -0.0000000000000000000 ) ) ;
#27 = SURFACE_STYLE_FILL_AREA ( #296 ) ;
#28 = CARTESIAN_POINT ( 'NONE',  ( 0.0000000000000000000, 34.50000000000000000, 0.0000000000000000000 ) ) ;
#29 = EDGE_CURVE ( 'NONE', #110, #79, #265, .T. ) ;
#30 = EDGE_LOOP ( 'NONE', ( #11, #207, #318 ) ) ;
#31 = UNCERTAINTY_MEASURE_WITH_UNIT (LENGTH_MEASURE( 1.000000000000000100E-005 ), #53, 'distance_accuracy_value', 'NONE');
#32 = FACE_OUTER_BOUND ( 'NONE', #75, .T. ) ;
#33 = FACE_OUTER_BOUND ( 'NONE', #71, .T. ) ;
#34 = ORIENTED_EDGE ( 'NONE', *, *, #145, .F. ) ;
#35 = FILL_AREA_STYLE ('',( #199 ) ) ;
#36 = EDGE_LOOP ( 'NONE', ( #325, #114, #170, #134 ) ) ;
#37 = AXIS2_PLACEMENT_3D ( 'NONE', #153, #304, #158 ) ;
#38 = DIRECTION ( 'NONE',  ( -0.0000000000000000000, -1.000000000000000000, -0.0000000000000000000 ) ) ;
#39 = SURFACE_STYLE_USAGE ( .BOTH. , #142 ) ;
#40 = DIRECTION ( 'NONE',  ( 0.0000000000000000000, 0.0000000000000000000, -1.000000000000000000 ) ) ;
#41 = CIRCLE ( 'NONE', #262, 3.180629306801774800 ) ;
#42 = VERTEX_POINT ( 'NONE', #195 ) ;
#43 = ADVANCED_FACE ( 'NONE', ( #204 ), #227, .T. ) ;
#44 = CARTESIAN_POINT ( 'NONE',  ( 0.0000000000000000000, 15.50000000000000000, 0.0000000000000000000 ) ) ;
#45 = PRODUCT_DEFINITION ( 'UNKNOWN', '', #126, #95 ) ;
#46 = VECTOR ( 'NONE', #258, 1000.000000000000000 ) ;
#47 = CARTESIAN_POINT ( 'NONE',  ( 0.0000000000000000000, -2.999999999999999100, -5.999999999999999100 ) ) ;
#48 = EDGE_CURVE ( 'NONE', #215, #373, #236, .T. ) ;
#49 = DIRECTION ( 'NONE',  ( 1.060575238724905200E-016, -0.5000000000000024400, 0.8660254037844372600 ) ) ;
#50 = ORIENTED_EDGE ( 'NONE', *, *, #48, .T. ) ;
#51 = CARTESIAN_POINT ( 'NONE',  ( 0.0000000000000000000, 35.00000000000000000, -3.180629306801774800 ) ) ;
#52 = ORIENTED_EDGE ( 'NONE', *, *, #93, .T. ) ;
#53 =( LENGTH_UNIT ( ) NAMED_UNIT ( * ) SI_UNIT ( .MILLI., .METRE. ) );
#54 = AXIS2_PLACEMENT_3D ( 'NONE', #61, #371, #196 ) ;
#55 = FACE_OUTER_BOUND ( 'NONE', #289, .T. ) ;
#56 = VERTEX_POINT ( 'NONE', #220 ) ;
#57 = CYLINDRICAL_SURFACE ( 'NONE', #294, 1.649999999999993500 ) ;
#58 = CARTESIAN_POINT ( 'NONE',  ( 7.347880794884118800E-016, -2.999999999999999100, 5.999999999999999100 ) ) ;
#59 = CIRCLE ( 'NONE', #24, 1.649999999999996800 ) ;
#60 = PRESENTATION_LAYER_ASSIGNMENT (  '', '', ( #198 ) ) ;
#61 = CARTESIAN_POINT ( 'NONE',  ( 0.0000000000000000000, 34.69134171618254200, 0.0000000000000000000 ) ) ;
#62 = FILL_AREA_STYLE_COLOUR ( '', #138 ) ;
#63 = ORIENTED_EDGE ( 'NONE', *, *, #115, .F. ) ;
#64 = ORIENTED_EDGE ( 'NONE', *, *, #278, .T. ) ;
#65 = CARTESIAN_POINT ( 'NONE',  ( 0.0000000000000000000, 29.00000000000000000, -6.000000000000000000 ) ) ;
#66 = DIRECTION ( 'NONE',  ( 0.0000000000000000000, 0.0000000000000000000, -1.000000000000000000 ) ) ;
#67 = AXIS2_PLACEMENT_3D ( 'NONE', #293, #74, #292 ) ;
#68 = SURFACE_STYLE_FILL_AREA ( #35 ) ;
#69 = ADVANCED_BREP_SHAPE_REPRESENTATION ( '50021~0', ( #90, #245 ), #259 ) ;
#70 =( LENGTH_UNIT ( ) NAMED_UNIT ( * ) SI_UNIT ( .MILLI., .METRE. ) );
#71 = EDGE_LOOP ( 'NONE', ( #208, #23, #369, #130 ) ) ;
#72 = CARTESIAN_POINT ( 'NONE',  ( 0.0000000000000000000, 0.0000000000000000000, 0.0000000000000000000 ) ) ;
#73 = EDGE_CURVE ( 'NONE', #372, #351, #152, .T. ) ;
#74 = DIRECTION ( 'NONE',  ( -0.0000000000000000000, -1.000000000000000000, -0.0000000000000000000 ) ) ;
#75 = EDGE_LOOP ( 'NONE', ( #281, #237 ) ) ;
#76 = UNCERTAINTY_MEASURE_WITH_UNIT (LENGTH_MEASURE( 1.000000000000000100E-005 ), #157, 'distance_accuracy_value', 'NONE');
#77 = ORIENTED_EDGE ( 'NONE', *, *, #29, .F. ) ;
#78 = DIRECTION ( 'NONE',  ( 0.0000000000000000000, 0.0000000000000000000, -1.000000000000000000 ) ) ;
#79 = VERTEX_POINT ( 'NONE', #339 ) ;
#80 = ADVANCED_FACE ( 'NONE', ( #368 ), #15, .T. ) ;
#81 = ORIENTED_EDGE ( 'NONE', *, *, #241, .F. ) ;
#82 = CIRCLE ( 'NONE', #346, 1.649999999999989900 ) ;
#83 = AXIS2_PLACEMENT_3D ( 'NONE', #125, #233, #121 ) ;
#84 = CARTESIAN_POINT ( 'NONE',  ( 3.180629306801774800, 35.00000000000000000, 0.0000000000000000000 ) ) ;
#85 = VECTOR ( 'NONE', #49, 1000.000000000000000 ) ;
#86 = AXIS2_PLACEMENT_3D ( 'NONE', #316, #175, #141 ) ;
#87 = DIRECTION ( 'NONE',  ( 0.0000000000000000000, 0.0000000000000000000, -1.000000000000000000 ) ) ;
#88 = EDGE_CURVE ( 'NONE', #351, #372, #41, .T. ) ;
#89 =( LENGTH_UNIT ( ) NAMED_UNIT ( * ) SI_UNIT ( .MILLI., .METRE. ) );
#90 = MANIFOLD_SOLID_BREP ( 'M4x0.7 Gewindekernloch1', #321 ) ;
#91 = ORIENTED_EDGE ( 'NONE', *, *, #327, .T. ) ;
#92 = CARTESIAN_POINT ( 'NONE',  ( -4.029598543499493600E-015, 16.45262794416288400, 0.0000000000000000000 ) ) ;
#93 = EDGE_CURVE ( 'NONE', #173, #244, #82, .T. ) ;
#94 = PRODUCT ( '50021~0', '50021~0', '', ( #310 ) ) ;
#95 = PRODUCT_DEFINITION_CONTEXT ( 'detailed design', #135, 'design' ) ;
#96 = DIRECTION ( 'NONE',  ( 0.0000000000000000000, 0.0000000000000000000, -1.000000000000000000 ) ) ;
#97 = ORIENTED_EDGE ( 'NONE', *, *, #88, .F. ) ;
#98 = FILL_AREA_STYLE_COLOUR ( '', #99 ) ;
#99 = COLOUR_RGB ( '',0.5019607843137254800, 0.5019607843137254800, 0.5019607843137254800 ) ;
#100 = EDGE_CURVE ( 'NONE', #56, #110, #272, .T. ) ;
#101 = PRESENTATION_STYLE_ASSIGNMENT (( #39 ) ) ;
#102 = ORIENTED_EDGE ( 'NONE', *, *, #327, .F. ) ;
#103 = AXIS2_PLACEMENT_3D ( 'NONE', #320, #347, #40 ) ;
#104 = EDGE_CURVE ( 'NONE', #373, #110, #128, .T. ) ;
#105 = CIRCLE ( 'NONE', #224, 5.999999999999998200 ) ;
#106 = EDGE_LOOP ( 'NONE', ( #306, #63 ) ) ;
#107 = CONICAL_SURFACE ( 'NONE', #131, 6.000000000000000000, 0.3926990816987248600 ) ;
#108 =( NAMED_UNIT ( * ) PLANE_ANGLE_UNIT ( ) SI_UNIT ( $, .RADIAN. ) );
#109 = AXIS2_PLACEMENT_3D ( 'NONE', #180, #232, #348 ) ;
#110 = VERTEX_POINT ( 'NONE', #223 ) ;
#111 = TOROIDAL_SURFACE ( 'NONE', #355, 3.180629306801774800, 0.5000000000000017800 ) ;
#112 = ORIENTED_EDGE ( 'NONE', *, *, #162, .F. ) ;
#113 = DIRECTION ( 'NONE',  ( 0.0000000000000000000, 0.0000000000000000000, -1.000000000000000000 ) ) ;
#114 = ORIENTED_EDGE ( 'NONE', *, *, #145, .T. ) ;
#115 = EDGE_CURVE ( 'NONE', #244, #173, #335, .T. ) ;
#116 = DIRECTION ( 'NONE',  ( 0.0000000000000000000, 0.0000000000000000000, -1.000000000000000000 ) ) ;
#117 = AXIS2_PLACEMENT_3D ( 'NONE', #238, #16, #268 ) ;
#118 = SURFACE_SIDE_STYLE ('',( #350 ) ) ;
#119 = CARTESIAN_POINT ( 'NONE',  ( 0.0000000000000000000, 15.50000000000000000, 0.0000000000000000000 ) ) ;
#120 = AXIS2_PLACEMENT_3D ( 'NONE', #84, #218, #315 ) ;
#121 = DIRECTION ( 'NONE',  ( 0.0000000000000000000, 0.0000000000000000000, -1.000000000000000000 ) ) ;
#122 = CIRCLE ( 'NONE', #109, 0.5000000000000017800 ) ;
#123 = DIRECTION ( 'NONE',  ( -0.0000000000000000000, -1.000000000000000000, -0.0000000000000000000 ) ) ;
#124 =( GEOMETRIC_REPRESENTATION_CONTEXT ( 3 ) GLOBAL_UNCERTAINTY_ASSIGNED_CONTEXT ( ( #127 ) ) GLOBAL_UNIT_ASSIGNED_CONTEXT ( ( #89, #287, #197 ) ) REPRESENTATION_CONTEXT ( 'NONE', 'WORKASPACE' ) );
#125 = CARTESIAN_POINT ( 'NONE',  ( 0.0000000000000000000, 29.00000000000000000, 0.0000000000000000000 ) ) ;
#126 = PRODUCT_DEFINITION_FORMATION_WITH_SPECIFIED_SOURCE ( 'ANY', '', #94, .NOT_KNOWN. ) ;
#127 = UNCERTAINTY_MEASURE_WITH_UNIT (LENGTH_MEASURE( 1.000000000000000100E-005 ), #89, 'distance_accuracy_value', 'NONE');
#128 = LINE ( 'NONE', #284, #22 ) ;
#129 = ADVANCED_FACE ( 'NONE', ( #167 ), #111, .T. ) ;
#130 = ORIENTED_EDGE ( 'NONE', *, *, #188, .F. ) ;
#131 = AXIS2_PLACEMENT_3D ( 'NONE', #181, #184, #12 ) ;
#132 =( NAMED_UNIT ( * ) PLANE_ANGLE_UNIT ( ) SI_UNIT ( $, .RADIAN. ) );
#133 = CARTESIAN_POINT ( 'NONE',  ( 4.460860555992911600E-016, 34.69134171618254200, 3.642569073057420900 ) ) ;
#134 = ORIENTED_EDGE ( 'NONE', *, *, #234, .F. ) ;
#135 = APPLICATION_CONTEXT ( 'automotive_design' ) ;
#136 = STYLED_ITEM ( 'NONE', ( #263 ), #69 ) ;
#137 = SURFACE_SIDE_STYLE ('',( #358 ) ) ;
#138 = COLOUR_RGB ( '',1.000000000000000000, 1.000000000000000000, 1.000000000000000000 ) ;
#139 = EDGE_LOOP ( 'NONE', ( #213, #222, #20, #102 ) ) ;
#140 = EDGE_LOOP ( 'NONE', ( #50, #354, #295, #266 ) ) ;
#141 = DIRECTION ( 'NONE',  ( 0.0000000000000000000, 0.0000000000000000000, -1.000000000000000000 ) ) ;
#142 = SURFACE_SIDE_STYLE ('',( #68 ) ) ;
#143 = DIRECTION ( 'NONE',  ( 0.0000000000000000000, -0.9238795325112865200, -0.3826834323650904500 ) ) ;
#144 = ORIENTED_EDGE ( 'NONE', *, *, #29, .T. ) ;
#145 = EDGE_CURVE ( 'NONE', #373, #215, #328, .T. ) ;
#146 = CARTESIAN_POINT ( 'NONE',  ( 2.020667218593129100E-016, 15.50000000000000000, 1.649999999999996800 ) ) ;
#147 = DIRECTION ( 'NONE',  ( 0.0000000000000000000, 0.0000000000000000000, -1.000000000000000000 ) ) ;
#148 = EDGE_LOOP ( 'NONE', ( #77, #282, #64, #251 ) ) ;
#149 = PRODUCT_RELATED_PRODUCT_CATEGORY ( 'part', '', ( #94 ) ) ;
#150 = DIRECTION ( 'NONE',  ( -0.0000000000000000000, -1.000000000000000000, -0.0000000000000000000 ) ) ;
#151 = COLOUR_RGB ( '',1.000000000000000000, 1.000000000000000000, 1.000000000000000000 ) ;
#152 = CIRCLE ( 'NONE', #229, 3.180629306801774800 ) ;
#153 = CARTESIAN_POINT ( 'NONE',  ( 0.0000000000000000000, 0.0000000000000000000, 0.0000000000000000000 ) ) ;
#154 = ORIENTED_EDGE ( 'NONE', *, *, #88, .T. ) ;
#155 = PRESENTATION_LAYER_ASSIGNMENT (  '', '', ( #337 ) ) ;
#156 = DIRECTION ( 'NONE',  ( 0.0000000000000000000, 0.0000000000000000000, -1.000000000000000000 ) ) ;
#157 =( LENGTH_UNIT ( ) NAMED_UNIT ( * ) SI_UNIT ( .MILLI., .METRE. ) );
#158 = DIRECTION ( 'NONE',  ( 0.0000000000000000000, 0.0000000000000000000, -1.000000000000000000 ) ) ;
#159 = LINE ( 'NONE', #246, #280 ) ;
#160 = EDGE_CURVE ( 'NONE', #305, #244, #257, .T. ) ;
#161 = ADVANCED_FACE ( 'NONE', ( #177 ), #286, .F. ) ;
#162 = EDGE_CURVE ( 'NONE', #255, #79, #18, .T. ) ;
#163 = CIRCLE ( 'NONE', #83, 6.000000000000000000 ) ;
#164 = APPLICATION_PROTOCOL_DEFINITION ( 'draft international standard', 'automotive_design', 1998, #135 ) ;
#165 = AXIS2_PLACEMENT_3D ( 'NONE', #119, #322, #206 ) ;
#166 = DIRECTION ( 'NONE',  ( -0.0000000000000000000, -1.000000000000000000, -0.0000000000000000000 ) ) ;
#167 = FACE_OUTER_BOUND ( 'NONE', #3, .T. ) ;
#168 = VERTEX_POINT ( 'NONE', #92 ) ;
#169 = DIRECTION ( 'NONE',  ( -0.0000000000000000000, -1.000000000000000000, -0.0000000000000000000 ) ) ;
#170 = ORIENTED_EDGE ( 'NONE', *, *, #209, .T. ) ;
#171 = CARTESIAN_POINT ( 'NONE',  ( 0.0000000000000000000, -1.353190020973723800E-015, 0.0000000000000000000 ) ) ;
#172 =( GEOMETRIC_REPRESENTATION_CONTEXT ( 3 ) GLOBAL_UNCERTAINTY_ASSIGNED_CONTEXT ( ( #192 ) ) GLOBAL_UNIT_ASSIGNED_CONTEXT ( ( #275, #108, #273 ) ) REPRESENTATION_CONTEXT ( 'NONE', 'WORKASPACE' ) );
#173 = VERTEX_POINT ( 'NONE', #319 ) ;
#174 =( NAMED_UNIT ( * ) SI_UNIT ( $, .STERADIAN. ) SOLID_ANGLE_UNIT ( ) );
#175 = DIRECTION ( 'NONE',  ( -0.0000000000000000000, -1.000000000000000000, -0.0000000000000000000 ) ) ;
#176 = DIRECTION ( 'NONE',  ( 4.686520405326306600E-017, -0.9238795325112865200, 0.3826834323650904500 ) ) ;
#177 = FACE_OUTER_BOUND ( 'NONE', #205, .T. ) ;
#178 = CARTESIAN_POINT ( 'NONE',  ( 0.0000000000000000000, -2.999999999999999100, 0.0000000000000000000 ) ) ;
#179 = EDGE_CURVE ( 'NONE', #305, #42, #59, .T. ) ;
#180 = CARTESIAN_POINT ( 'NONE',  ( 3.895147499849058600E-016, 34.50000000000000000, 3.180629306801774800 ) ) ;
#181 = CARTESIAN_POINT ( 'NONE',  ( 0.0000000000000000000, 29.00000000000000000, 0.0000000000000000000 ) ) ;
#182 = VECTOR ( 'NONE', #143, 1000.000000000000000 ) ;
#183 = AXIS2_PLACEMENT_3D ( 'NONE', #200, #38, #375 ) ;
#184 = DIRECTION ( 'NONE',  ( -0.0000000000000000000, -1.000000000000000000, -0.0000000000000000000 ) ) ;
#185 =( NAMED_UNIT ( * ) SI_UNIT ( $, .STERADIAN. ) SOLID_ANGLE_UNIT ( ) );
#186 = ORIENTED_EDGE ( 'NONE', *, *, #188, .T. ) ;
#187 = AXIS2_PLACEMENT_3D ( 'NONE', #313, #26, #277 ) ;
#188 = EDGE_CURVE ( 'NONE', #42, #173, #312, .T. ) ;
#189 = LINE ( 'NONE', #47, #46 ) ;
#190 = EDGE_LOOP ( 'NONE', ( #329, #144, #112, #362 ) ) ;
#191 = SURFACE_STYLE_USAGE ( .BOTH. , #137 ) ;
#192 = UNCERTAINTY_MEASURE_WITH_UNIT (LENGTH_MEASURE( 1.000000000000000100E-005 ), #275, 'distance_accuracy_value', 'NONE');
#193 = PRESENTATION_STYLE_ASSIGNMENT (( #300 ) ) ;
#194 = DIRECTION ( 'NONE',  ( 0.0000000000000000000, 0.0000000000000000000, 1.000000000000000000 ) ) ;
#195 = CARTESIAN_POINT ( 'NONE',  ( 0.0000000000000000000, 15.50000000000000000, -1.649999999999996800 ) ) ;
#196 = DIRECTION ( 'NONE',  ( 0.0000000000000000000, 0.0000000000000000000, -1.000000000000000000 ) ) ;
#197 =( NAMED_UNIT ( * ) SI_UNIT ( $, .STERADIAN. ) SOLID_ANGLE_UNIT ( ) );
#198 = STYLED_ITEM ( 'NONE', ( #101 ), #161 ) ;
#199 = FILL_AREA_STYLE_COLOUR ( '', #332 ) ;
#200 = CARTESIAN_POINT ( 'NONE',  ( 0.0000000000000000000, 34.69134171618254200, 0.0000000000000000000 ) ) ;
#201 = UNCERTAINTY_MEASURE_WITH_UNIT (LENGTH_MEASURE( 1.000000000000000100E-005 ), #70, 'distance_accuracy_value', 'NONE');
#202 = AXIS2_PLACEMENT_3D ( 'NONE', #178, #123, #96 ) ;
#203 = CARTESIAN_POINT ( 'NONE',  ( 2.020667218593122900E-016, -1.353190020973723800E-015, 1.649999999999989900 ) ) ;
#204 = FACE_OUTER_BOUND ( 'NONE', #148, .T. ) ;
#205 = EDGE_LOOP ( 'NONE', ( #364, #336, #186, #52 ) ) ;
#206 = DIRECTION ( 'NONE',  ( 0.0000000000000000000, 0.0000000000000000000, -1.000000000000000000 ) ) ;
#207 = ORIENTED_EDGE ( 'NONE', *, *, #8, .T. ) ;
#208 = ORIENTED_EDGE ( 'NONE', *, *, #179, .F. ) ;
#209 = EDGE_CURVE ( 'NONE', #215, #56, #1, .T. ) ;
#210 = CARTESIAN_POINT ( 'NONE',  ( 0.0000000000000000000, 0.0000000000000000000, -1.649999999999993500 ) ) ;
#211 = DIRECTION ( 'NONE',  ( 0.0000000000000000000, 0.0000000000000000000, -1.000000000000000000 ) ) ;
#212 = FACE_BOUND ( 'NONE', #106, .T. ) ;
#213 = ORIENTED_EDGE ( 'NONE', *, *, #73, .T. ) ;
#214 = CARTESIAN_POINT ( 'NONE',  ( 0.0000000000000000000, 29.00000000000000000, 0.0000000000000000000 ) ) ;
#215 = VERTEX_POINT ( 'NONE', #353 ) ;
#216 = ADVANCED_FACE ( 'NONE', ( #254 ), #264, .T. ) ;
#217 = FACE_OUTER_BOUND ( 'NONE', #340, .T. ) ;
#218 = DIRECTION ( 'NONE',  ( 0.0000000000000000000, 1.000000000000000000, 0.0000000000000000000 ) ) ;
#219 = EDGE_CURVE ( 'NONE', #42, #305, #231, .T. ) ;
#220 = CARTESIAN_POINT ( 'NONE',  ( 0.0000000000000000000, 29.00000000000000000, -6.000000000000000000 ) ) ;
#221 = DIRECTION ( 'NONE',  ( -0.0000000000000000000, -1.000000000000000000, -0.0000000000000000000 ) ) ;
#222 = ORIENTED_EDGE ( 'NONE', *, *, #241, .T. ) ;
#223 = CARTESIAN_POINT ( 'NONE',  ( 7.347880794884119700E-016, 29.00000000000000000, 6.000000000000000000 ) ) ;
#224 = AXIS2_PLACEMENT_3D ( 'NONE', #260, #6, #147 ) ;
#225 = FILL_AREA_STYLE ('',( #62 ) ) ;
#226 = CIRCLE ( 'NONE', #117, 0.5000000000000017800 ) ;
#227 = CYLINDRICAL_SURFACE ( 'NONE', #187, 5.999999999999999100 ) ;
#228 = DIRECTION ( 'NONE',  ( -0.0000000000000000000, -1.000000000000000000, -0.0000000000000000000 ) ) ;
#229 = AXIS2_PLACEMENT_3D ( 'NONE', #242, #166, #279 ) ;
#230 = DIRECTION ( 'NONE',  ( -0.0000000000000000000, -1.000000000000000000, -0.0000000000000000000 ) ) ;
#231 = CIRCLE ( 'NONE', #67, 1.649999999999996800 ) ;
#232 = DIRECTION ( 'NONE',  ( 1.000000000000000000, 0.0000000000000000000, -1.224646799147353200E-016 ) ) ;
#233 = DIRECTION ( 'NONE',  ( -0.0000000000000000000, -1.000000000000000000, -0.0000000000000000000 ) ) ;
#234 = EDGE_CURVE ( 'NONE', #110, #56, #163, .T. ) ;
#235 = VECTOR ( 'NONE', #150, 1000.000000000000000 ) ;
#236 = CIRCLE ( 'NONE', #54, 3.642569073057420100 ) ;
#237 = ORIENTED_EDGE ( 'NONE', *, *, #288, .T. ) ;
#238 = CARTESIAN_POINT ( 'NONE',  ( 0.0000000000000000000, 34.50000000000000000, -3.180629306801774800 ) ) ;
#239 = CARTESIAN_POINT ( 'NONE',  ( 0.0000000000000000000, 0.0000000000000000000, 0.0000000000000000000 ) ) ;
#240 = AXIS2_PLACEMENT_3D ( 'NONE', #44, #13, #78 ) ;
#241 = EDGE_CURVE ( 'NONE', #351, #373, #122, .T. ) ;
#242 = CARTESIAN_POINT ( 'NONE',  ( 0.0000000000000000000, 35.00000000000000000, 0.0000000000000000000 ) ) ;
#243 = VECTOR ( 'NONE', #290, 1000.000000000000000 ) ;
#244 = VERTEX_POINT ( 'NONE', #203 ) ;
#245 = AXIS2_PLACEMENT_3D ( 'NONE', #239, #194, #366 ) ;
#246 = CARTESIAN_POINT ( 'NONE',  ( 0.0000000000000000000, 15.50000000000000000, -1.649999999999996800 ) ) ;
#247 = FACE_OUTER_BOUND ( 'NONE', #30, .T. ) ;
#248 = DIRECTION ( 'NONE',  ( -0.0000000000000000000, -1.000000000000000000, -0.0000000000000000000 ) ) ;
#249 = ORIENTED_EDGE ( 'NONE', *, *, #179, .T. ) ;
#250 = AXIS2_PLACEMENT_3D ( 'NONE', #28, #221, #87 ) ;
#251 = ORIENTED_EDGE ( 'NONE', *, *, #288, .F. ) ;
#252 = CARTESIAN_POINT ( 'NONE',  ( 2.020667218593124900E-016, 0.0000000000000000000, 1.649999999999993500 ) ) ;
#253 = SURFACE_STYLE_USAGE ( .BOTH. , #118 ) ;
#254 = FACE_OUTER_BOUND ( 'NONE', #190, .T. ) ;
#255 = VERTEX_POINT ( 'NONE', #349 ) ;
#256 = SURFACE_SIDE_STYLE ('',( #27 ) ) ;
#257 = LINE ( 'NONE', #252, #243 ) ;
#258 = DIRECTION ( 'NONE',  ( -0.0000000000000000000, -1.000000000000000000, -0.0000000000000000000 ) ) ;
#259 =( GEOMETRIC_REPRESENTATION_CONTEXT ( 3 ) GLOBAL_UNCERTAINTY_ASSIGNED_CONTEXT ( ( #31 ) ) GLOBAL_UNIT_ASSIGNED_CONTEXT ( ( #53, #356, #185 ) ) REPRESENTATION_CONTEXT ( 'NONE', 'WORKASPACE' ) );
#260 = CARTESIAN_POINT ( 'NONE',  ( 0.0000000000000000000, 0.0000000000000000000, 0.0000000000000000000 ) ) ;
#261 = APPLICATION_CONTEXT ( 'automotive_design' ) ;
#262 = AXIS2_PLACEMENT_3D ( 'NONE', #317, #248, #291 ) ;
#263 = PRESENTATION_STYLE_ASSIGNMENT (( #191 ) ) ;
#264 = CYLINDRICAL_SURFACE ( 'NONE', #202, 5.999999999999999100 ) ;
#265 = LINE ( 'NONE', #58, #9 ) ;
#266 = ORIENTED_EDGE ( 'NONE', *, *, #209, .F. ) ;
#267 = ADVANCED_FACE ( 'NONE', ( #345 ), #107, .T. ) ;
#268 = DIRECTION ( 'NONE',  ( 0.0000000000000000000, 0.0000000000000000000, 1.000000000000000000 ) ) ;
#269 = ADVANCED_FACE ( 'NONE', ( #55 ), #324, .F. ) ;
#270 = APPLICATION_PROTOCOL_DEFINITION ( 'draft international standard', 'automotive_design', 1998, #261 ) ;
#271 = AXIS2_PLACEMENT_3D ( 'NONE', #283, #228, #374 ) ;
#272 = CIRCLE ( 'NONE', #271, 6.000000000000000000 ) ;
#273 =( NAMED_UNIT ( * ) SI_UNIT ( $, .STERADIAN. ) SOLID_ANGLE_UNIT ( ) );
#274 = AXIS2_PLACEMENT_3D ( 'NONE', #214, #19, #17 ) ;
#275 =( LENGTH_UNIT ( ) NAMED_UNIT ( * ) SI_UNIT ( .MILLI., .METRE. ) );
#276 = ORIENTED_EDGE ( 'NONE', *, *, #333, .T. ) ;
#277 = DIRECTION ( 'NONE',  ( 0.0000000000000000000, 0.0000000000000000000, -1.000000000000000000 ) ) ;
#278 = EDGE_CURVE ( 'NONE', #56, #255, #189, .T. ) ;
#279 = DIRECTION ( 'NONE',  ( 0.0000000000000000000, 0.0000000000000000000, -1.000000000000000000 ) ) ;
#280 = VECTOR ( 'NONE', #338, 1000.000000000000000 ) ;
#281 = ORIENTED_EDGE ( 'NONE', *, *, #162, .T. ) ;
#282 = ORIENTED_EDGE ( 'NONE', *, *, #234, .T. ) ;
#283 = CARTESIAN_POINT ( 'NONE',  ( 0.0000000000000000000, 29.00000000000000000, 0.0000000000000000000 ) ) ;
#284 = CARTESIAN_POINT ( 'NONE',  ( 7.347880794884119700E-016, 29.00000000000000000, 6.000000000000000000 ) ) ;
#285 = FACE_OUTER_BOUND ( 'NONE', #36, .T. ) ;
#286 = CYLINDRICAL_SURFACE ( 'NONE', #376, 1.649999999999993500 ) ;
#287 =( NAMED_UNIT ( * ) PLANE_ANGLE_UNIT ( ) SI_UNIT ( $, .RADIAN. ) );
#288 = EDGE_CURVE ( 'NONE', #79, #255, #105, .T. ) ;
#289 = EDGE_LOOP ( 'NONE', ( #342, #276, #249 ) ) ;
#290 = DIRECTION ( 'NONE',  ( -0.0000000000000000000, -1.000000000000000000, -0.0000000000000000000 ) ) ;
#291 = DIRECTION ( 'NONE',  ( 0.0000000000000000000, 0.0000000000000000000, -1.000000000000000000 ) ) ;
#292 = DIRECTION ( 'NONE',  ( 0.0000000000000000000, 0.0000000000000000000, -1.000000000000000000 ) ) ;
#293 = CARTESIAN_POINT ( 'NONE',  ( 0.0000000000000000000, 15.50000000000000000, 0.0000000000000000000 ) ) ;
#294 = AXIS2_PLACEMENT_3D ( 'NONE', #72, #14, #156 ) ;
#295 = ORIENTED_EDGE ( 'NONE', *, *, #100, .F. ) ;
#296 = FILL_AREA_STYLE ('',( #98 ) ) ;
#297 = DIRECTION ( 'NONE',  ( -0.0000000000000000000, -1.000000000000000000, -0.0000000000000000000 ) ) ;
#298 = MECHANICAL_DESIGN_GEOMETRIC_PRESENTATION_REPRESENTATION (  '', ( #198 ), #302 ) ;
#299 = LINE ( 'NONE', #360, #85 ) ;
#300 = SURFACE_STYLE_USAGE ( .BOTH. , #256 ) ;
#301 = ADVANCED_FACE ( 'NONE', ( #247 ), #309, .F. ) ;
#302 =( GEOMETRIC_REPRESENTATION_CONTEXT ( 3 ) GLOBAL_UNCERTAINTY_ASSIGNED_CONTEXT ( ( #201 ) ) GLOBAL_UNIT_ASSIGNED_CONTEXT ( ( #70, #344, #174 ) ) REPRESENTATION_CONTEXT ( 'NONE', 'WORKASPACE' ) );
#303 = SHAPE_DEFINITION_REPRESENTATION ( #370, #69 ) ;
#304 = DIRECTION ( 'NONE',  ( 0.0000000000000000000, -1.000000000000000000, -0.0000000000000000000 ) ) ;
#305 = VERTEX_POINT ( 'NONE', #146 ) ;
#306 = ORIENTED_EDGE ( 'NONE', *, *, #93, .F. ) ;
#307 = ADVANCED_FACE ( 'NONE', ( #33 ), #57, .F. ) ;
#308 = ADVANCED_FACE ( 'NONE', ( #285 ), #323, .T. ) ;
#309 = CONICAL_SURFACE ( 'NONE', #240, 1.649999999999996800, 1.047197551196595000 ) ;
#310 = PRODUCT_CONTEXT ( 'NONE', #261, 'mechanical' ) ;
#311 = MECHANICAL_DESIGN_GEOMETRIC_PRESENTATION_REPRESENTATION (  '', ( #337 ), #124 ) ;
#312 = LINE ( 'NONE', #210, #235 ) ;
#313 = CARTESIAN_POINT ( 'NONE',  ( 0.0000000000000000000, -2.999999999999999100, 0.0000000000000000000 ) ) ;
#314 = PLANE ( 'NONE',  #120 ) ;
#315 = DIRECTION ( 'NONE',  ( 0.0000000000000000000, -0.0000000000000000000, 1.000000000000000000 ) ) ;
#316 = CARTESIAN_POINT ( 'NONE',  ( 0.0000000000000000000, -1.353190020973723800E-015, 0.0000000000000000000 ) ) ;
#317 = CARTESIAN_POINT ( 'NONE',  ( 0.0000000000000000000, 35.00000000000000000, 0.0000000000000000000 ) ) ;
#318 = ORIENTED_EDGE ( 'NONE', *, *, #219, .T. ) ;
#319 = CARTESIAN_POINT ( 'NONE',  ( 0.0000000000000000000, -1.353190020973723800E-015, -1.649999999999989900 ) ) ;
#320 = CARTESIAN_POINT ( 'NONE',  ( 0.0000000000000000000, 0.0000000000000000000, 0.0000000000000000000 ) ) ;
#321 = CLOSED_SHELL ( 'NONE', ( #269, #307, #216, #267, #80, #7, #129, #308, #43, #357, #161, #301 ) ) ;
#322 = DIRECTION ( 'NONE',  ( -0.0000000000000000000, -1.000000000000000000, -0.0000000000000000000 ) ) ;
#323 = CONICAL_SURFACE ( 'NONE', #274, 6.000000000000000000, 0.3926990816987248600 ) ;
#324 = CONICAL_SURFACE ( 'NONE', #165, 1.649999999999996800, 1.047197551196595000 ) ;
#325 = ORIENTED_EDGE ( 'NONE', *, *, #104, .F. ) ;
#326 = STYLED_ITEM ( 'NONE', ( #193 ), #307 ) ;
#327 = EDGE_CURVE ( 'NONE', #372, #215, #226, .T. ) ;
#328 = CIRCLE ( 'NONE', #183, 3.642569073057420100 ) ;
#329 = ORIENTED_EDGE ( 'NONE', *, *, #100, .T. ) ;
#330 = PLANE ( 'NONE',  #37 ) ;
#331 = FILL_AREA_STYLE_COLOUR ( '', #151 ) ;
#332 = COLOUR_RGB ( '',0.5019607843137254800, 0.5019607843137254800, 0.5019607843137254800 ) ;
#333 = EDGE_CURVE ( 'NONE', #168, #305, #299, .T. ) ;
#334 = PRESENTATION_LAYER_ASSIGNMENT (  '', '', ( #136 ) ) ;
#335 = CIRCLE ( 'NONE', #86, 1.649999999999989900 ) ;
#336 = ORIENTED_EDGE ( 'NONE', *, *, #219, .F. ) ;
#337 = STYLED_ITEM ( 'NONE', ( #359 ), #90 ) ;
#338 = DIRECTION ( 'NONE',  ( 0.0000000000000000000, -0.5000000000000024400, -0.8660254037844372600 ) ) ;
#339 = CARTESIAN_POINT ( 'NONE',  ( 7.347880794884118800E-016, 0.0000000000000000000, 5.999999999999998200 ) ) ;
#340 = EDGE_LOOP ( 'NONE', ( #365, #97 ) ) ;
#341 = DIRECTION ( 'NONE',  ( -0.0000000000000000000, -1.000000000000000000, -0.0000000000000000000 ) ) ;
#342 = ORIENTED_EDGE ( 'NONE', *, *, #8, .F. ) ;
#343 = MECHANICAL_DESIGN_GEOMETRIC_PRESENTATION_REPRESENTATION (  '', ( #326 ), #352 ) ;
#344 =( NAMED_UNIT ( * ) PLANE_ANGLE_UNIT ( ) SI_UNIT ( $, .RADIAN. ) );
#345 = FACE_OUTER_BOUND ( 'NONE', #140, .T. ) ;
#346 = AXIS2_PLACEMENT_3D ( 'NONE', #171, #230, #66 ) ;
#347 = DIRECTION ( 'NONE',  ( -0.0000000000000000000, -1.000000000000000000, -0.0000000000000000000 ) ) ;
#348 = DIRECTION ( 'NONE',  ( -1.224646799147352700E-016, 0.0000000000000000000, -1.000000000000000000 ) ) ;
#349 = CARTESIAN_POINT ( 'NONE',  ( 0.0000000000000000000, 0.0000000000000000000, -5.999999999999998200 ) ) ;
#350 = SURFACE_STYLE_FILL_AREA ( #225 ) ;
#351 = VERTEX_POINT ( 'NONE', #21 ) ;
#352 =( GEOMETRIC_REPRESENTATION_CONTEXT ( 3 ) GLOBAL_UNCERTAINTY_ASSIGNED_CONTEXT ( ( #76 ) ) GLOBAL_UNIT_ASSIGNED_CONTEXT ( ( #157, #132, #363 ) ) REPRESENTATION_CONTEXT ( 'NONE', 'WORKASPACE' ) );
#353 = CARTESIAN_POINT ( 'NONE',  ( 0.0000000000000000000, 34.69134171618254200, -3.642569073057420900 ) ) ;
#354 = ORIENTED_EDGE ( 'NONE', *, *, #104, .T. ) ;
#355 = AXIS2_PLACEMENT_3D ( 'NONE', #4, #341, #113 ) ;
#356 =( NAMED_UNIT ( * ) PLANE_ANGLE_UNIT ( ) SI_UNIT ( $, .RADIAN. ) );
#357 = ADVANCED_FACE ( 'NONE', ( #212, #32 ), #330, .T. ) ;
#358 = SURFACE_STYLE_FILL_AREA ( #25 ) ;
#359 = PRESENTATION_STYLE_ASSIGNMENT (( #253 ) ) ;
#360 = CARTESIAN_POINT ( 'NONE',  ( 2.020667218593128800E-016, 15.50000000000000000, 1.649999999999996800 ) ) ;
#361 = MECHANICAL_DESIGN_GEOMETRIC_PRESENTATION_REPRESENTATION (  '', ( #136 ), #172 ) ;
#362 = ORIENTED_EDGE ( 'NONE', *, *, #278, .F. ) ;
#363 =( NAMED_UNIT ( * ) SI_UNIT ( $, .STERADIAN. ) SOLID_ANGLE_UNIT ( ) );
#364 = ORIENTED_EDGE ( 'NONE', *, *, #160, .F. ) ;
#365 = ORIENTED_EDGE ( 'NONE', *, *, #73, .F. ) ;
#366 = DIRECTION ( 'NONE',  ( 1.000000000000000000, 0.0000000000000000000, 0.0000000000000000000 ) ) ;
#367 = PRESENTATION_LAYER_ASSIGNMENT (  '', '', ( #326 ) ) ;
#368 = FACE_OUTER_BOUND ( 'NONE', #139, .T. ) ;
#369 = ORIENTED_EDGE ( 'NONE', *, *, #115, .T. ) ;
#370 = PRODUCT_DEFINITION_SHAPE ( 'NONE', 'NONE',  #45 ) ;
#371 = DIRECTION ( 'NONE',  ( -0.0000000000000000000, -1.000000000000000000, -0.0000000000000000000 ) ) ;
#372 = VERTEX_POINT ( 'NONE', #51 ) ;
#373 = VERTEX_POINT ( 'NONE', #133 ) ;
#374 = DIRECTION ( 'NONE',  ( 0.0000000000000000000, 0.0000000000000000000, -1.000000000000000000 ) ) ;
#375 = DIRECTION ( 'NONE',  ( 0.0000000000000000000, 0.0000000000000000000, -1.000000000000000000 ) ) ;
#376 = AXIS2_PLACEMENT_3D ( 'NONE', #5, #2, #116 ) ;
ENDSEC;
END-ISO-10303-21;
