ISO-10303-21;
HEADER;
FILE_DESCRIPTION (( 'STEP AP214' ),
    '1' );
FILE_NAME ('INGUN_48160.STEP',
    '2022-08-23T08:52:03',
    ( '' ),
    ( '' ),
    'SwSTEP 2.0',
    'SolidWorks 2018',
    '' );
FILE_SCHEMA (( 'AUTOMOTIVE_DESIGN' ));
ENDSEC;

DATA;
#1 =( NAMED_UNIT ( * ) SI_UNIT ( $, .STERADIAN. ) SOLID_ANGLE_UNIT ( ) );
#2 = PRESENTATION_STYLE_ASSIGNMENT (( #150 ) ) ;
#3 = EDGE_CURVE ( 'NONE', #257, #10, #26, .T. ) ;
#4 = PRESENTATION_STYLE_ASSIGNMENT (( #134 ) ) ;
#5 = UNCERTAINTY_MEASURE_WITH_UNIT (LENGTH_MEASURE( 1.000000000000000082E-05 ), #210, 'distance_accuracy_value', 'NONE');
#6 = CARTESIAN_POINT ( 'NONE',  ( 0.000000000000000000, 119.0000000000000142, 2.099999999999987210 ) ) ;
#7 = LINE ( 'NONE', #15, #267 ) ;
#8 = MECHANICAL_DESIGN_GEOMETRIC_PRESENTATION_REPRESENTATION (  '', ( #33 ), #42 ) ;
#9 = CARTESIAN_POINT ( 'NONE',  ( 0.000000000000000000, 133.0000000000000000, 0.000000000000000000 ) ) ;
#10 = VERTEX_POINT ( 'NONE', #6 ) ;
#11 = CARTESIAN_POINT ( 'NONE',  ( 0.000000000000000000, 133.0000000000000000, 0.000000000000000000 ) ) ;
#12 = FILL_AREA_STYLE ('',( #292 ) ) ;
#13 = STYLED_ITEM ( 'NONE', ( #277 ), #27 ) ;
#14 = CARTESIAN_POINT ( 'NONE',  ( 0.000000000000000000, 1.000000000000000888, 0.000000000000000000 ) ) ;
#15 = CARTESIAN_POINT ( 'NONE',  ( 0.000000000000000000, 133.0000000000000000, 2.099999999999988098 ) ) ;
#16 = DIRECTION ( 'NONE',  ( 0.000000000000000000, 1.000000000000000000, 0.000000000000000000 ) ) ;
#17 = DIRECTION ( 'NONE',  ( -0.000000000000000000, 1.000000000000000000, -0.000000000000000000 ) ) ;
#18 = CYLINDRICAL_SURFACE ( 'NONE', #249, 5.000000000000000000 ) ;
#19 = EDGE_LOOP ( 'NONE', ( #88, #82, #234, #169 ) ) ;
#20 = MECHANICAL_DESIGN_GEOMETRIC_PRESENTATION_REPRESENTATION (  '', ( #13 ), #319 ) ;
#21 = CARTESIAN_POINT ( 'NONE',  ( 0.000000000000000000, 1.000000000000000888, 0.000000000000000000 ) ) ;
#22 = DIRECTION ( 'NONE',  ( -0.000000000000000000, -1.000000000000000000, -0.000000000000000000 ) ) ;
#23 =( LENGTH_UNIT ( ) NAMED_UNIT ( * ) SI_UNIT ( .MILLI., .METRE. ) );
#24 =( GEOMETRIC_REPRESENTATION_CONTEXT ( 3 ) GLOBAL_UNCERTAINTY_ASSIGNED_CONTEXT ( ( #241 ) ) GLOBAL_UNIT_ASSIGNED_CONTEXT ( ( #189, #222, #135 ) ) REPRESENTATION_CONTEXT ( 'NONE', 'WORKASPACE' ) );
#25 = CONICAL_SURFACE ( 'NONE', #202, 5.000000000000000000, 0.7853981633974530530 ) ;
#26 = CIRCLE ( 'NONE', #238, 2.099999999999987210 ) ;
#27 = ADVANCED_FACE ( 'NONE', ( #125 ), #212, .F. ) ;
#28 = EDGE_CURVE ( 'NONE', #97, #10, #58, .T. ) ;
#29 = VECTOR ( 'NONE', #55, 1000.000000000000000 ) ;
#30 = ORIENTED_EDGE ( 'NONE', *, *, #74, .F. ) ;
#31 = ORIENTED_EDGE ( 'NONE', *, *, #258, .F. ) ;
#32 = SURFACE_SIDE_STYLE ('',( #117 ) ) ;
#33 = STYLED_ITEM ( 'NONE', ( #154 ), #126 ) ;
#34 = DIRECTION ( 'NONE',  ( 0.000000000000000000, 0.5150380749100544886, 0.8571673007021121116 ) ) ;
#35 = DIRECTION ( 'NONE',  ( 0.000000000000000000, 0.000000000000000000, 1.000000000000000000 ) ) ;
#36 = SURFACE_SIDE_STYLE ('',( #296 ) ) ;
#37 = ORIENTED_EDGE ( 'NONE', *, *, #183, .T. ) ;
#38 = DIRECTION ( 'NONE',  ( -0.000000000000000000, 1.000000000000000000, -0.000000000000000000 ) ) ;
#39 = DIRECTION ( 'NONE',  ( 0.000000000000000000, 0.000000000000000000, 1.000000000000000000 ) ) ;
#40 = CARTESIAN_POINT ( 'NONE',  ( 0.000000000000000000, 133.0000000000000000, -5.000000000000000000 ) ) ;
#41 = CLOSED_SHELL ( 'NONE', ( #307, #27, #176, #324, #306, #256, #120, #72, #126, #73 ) ) ;
#42 =( GEOMETRIC_REPRESENTATION_CONTEXT ( 3 ) GLOBAL_UNCERTAINTY_ASSIGNED_CONTEXT ( ( #177 ) ) GLOBAL_UNIT_ASSIGNED_CONTEXT ( ( #136, #158, #187 ) ) REPRESENTATION_CONTEXT ( 'NONE', 'WORKASPACE' ) );
#43 = CARTESIAN_POINT ( 'NONE',  ( 0.000000000000000000, 119.0000000000000142, 0.000000000000000000 ) ) ;
#44 = DIRECTION ( 'NONE',  ( -0.000000000000000000, -1.000000000000000000, -0.000000000000000000 ) ) ;
#45 = VECTOR ( 'NONE', #288, 1000.000000000000000 ) ;
#46 = APPLICATION_CONTEXT ( 'automotive_design' ) ;
#47 = DIRECTION ( 'NONE',  ( -0.000000000000000000, 1.000000000000000000, -0.000000000000000000 ) ) ;
#48 = ORIENTED_EDGE ( 'NONE', *, *, #190, .F. ) ;
#49 = EDGE_LOOP ( 'NONE', ( #31, #118, #253, #181 ) ) ;
#50 = AXIS2_PLACEMENT_3D ( 'NONE', #11, #79, #286 ) ;
#51 = CONICAL_SURFACE ( 'NONE', #323, 2.099999999999987210, 1.029744258676654090 ) ;
#52 = ORIENTED_EDGE ( 'NONE', *, *, #289, .T. ) ;
#53 = ORIENTED_EDGE ( 'NONE', *, *, #179, .T. ) ;
#54 = AXIS2_PLACEMENT_3D ( 'NONE', #269, #66, #143 ) ;
#55 = DIRECTION ( 'NONE',  ( 1.049727191138618449E-16, 0.5150380749100544886, -0.8571673007021121116 ) ) ;
#56 = DIRECTION ( 'NONE',  ( -0.000000000000000000, 1.000000000000000000, -0.000000000000000000 ) ) ;
#57 = CIRCLE ( 'NONE', #54, 3.999999999999989786 ) ;
#58 = LINE ( 'NONE', #132, #186 ) ;
#59 = CARTESIAN_POINT ( 'NONE',  ( 0.000000000000000000, 133.0000000000000000, 0.000000000000000000 ) ) ;
#60 = EDGE_LOOP ( 'NONE', ( #311, #246, #299, #298 ) ) ;
#61 = DIRECTION ( 'NONE',  ( -0.000000000000000000, 1.000000000000000000, -0.000000000000000000 ) ) ;
#62 = CIRCLE ( 'NONE', #254, 3.999999999999989786 ) ;
#63 = EDGE_LOOP ( 'NONE', ( #109, #37 ) ) ;
#64 = CARTESIAN_POINT ( 'NONE',  ( 2.571758278209426180E-16, 119.0000000000000142, -2.099999999999987210 ) ) ;
#65 = COLOUR_RGB ( '',0.7529411764705882248, 0.7529411764705882248, 0.7529411764705882248 ) ;
#66 = DIRECTION ( 'NONE',  ( -0.000000000000000000, -1.000000000000000000, -0.000000000000000000 ) ) ;
#67 = VERTEX_POINT ( 'NONE', #106 ) ;
#68 = AXIS2_PLACEMENT_3D ( 'NONE', #165, #85, #294 ) ;
#69 = DIRECTION ( 'NONE',  ( 0.000000000000000000, 0.000000000000000000, 1.000000000000000000 ) ) ;
#70 = ORIENTED_EDGE ( 'NONE', *, *, #270, .F. ) ;
#71 = ORIENTED_EDGE ( 'NONE', *, *, #74, .T. ) ;
#72 = ADVANCED_FACE ( 'NONE', ( #321 ), #51, .F. ) ;
#73 = ADVANCED_FACE ( 'NONE', ( #312 ), #268, .T. ) ;
#74 = EDGE_CURVE ( 'NONE', #293, #67, #77, .T. ) ;
#75 = EDGE_LOOP ( 'NONE', ( #178, #156, #145 ) ) ;
#76 = CARTESIAN_POINT ( 'NONE',  ( 6.123233995736766282E-16, 1.000000000000000888, 5.000000000000000000 ) ) ;
#77 = CIRCLE ( 'NONE', #127, 2.099999999999988987 ) ;
#78 = AXIS2_PLACEMENT_3D ( 'NONE', #9, #80, #217 ) ;
#79 = DIRECTION ( 'NONE',  ( -0.000000000000000000, 1.000000000000000000, -0.000000000000000000 ) ) ;
#80 = DIRECTION ( 'NONE',  ( -0.000000000000000000, 1.000000000000000000, -0.000000000000000000 ) ) ;
#81 = CARTESIAN_POINT ( 'NONE',  ( 0.000000000000000000, 0.000000000000000000, 0.000000000000000000 ) ) ;
#82 = ORIENTED_EDGE ( 'NONE', *, *, #92, .T. ) ;
#83 = DIRECTION ( 'NONE',  ( 0.000000000000000000, -0.000000000000000000, 1.000000000000000000 ) ) ;
#84 = PRODUCT_DEFINITION_CONTEXT ( 'detailed design', #46, 'design' ) ;
#85 = DIRECTION ( 'NONE',  ( 0.000000000000000000, 1.000000000000000000, 0.000000000000000000 ) ) ;
#86 = LINE ( 'NONE', #203, #316 ) ;
#87 = PRESENTATION_LAYER_ASSIGNMENT (  '', '', ( #235 ) ) ;
#88 = ORIENTED_EDGE ( 'NONE', *, *, #289, .F. ) ;
#89 = CARTESIAN_POINT ( 'NONE',  ( 0.000000000000000000, 0.000000000000000000, 0.000000000000000000 ) ) ;
#90 = MANIFOLD_SOLID_BREP ( 'Fase2', #41 ) ;
#91 = APPLICATION_PROTOCOL_DEFINITION ( 'draft international standard', 'automotive_design', 1998, #46 ) ;
#92 = EDGE_CURVE ( 'NONE', #259, #152, #215, .T. ) ;
#93 = AXIS2_PLACEMENT_3D ( 'NONE', #227, #61, #228 ) ;
#94 = FACE_OUTER_BOUND ( 'NONE', #60, .T. ) ;
#95 = FACE_OUTER_BOUND ( 'NONE', #322, .T. ) ;
#96 = ADVANCED_BREP_SHAPE_REPRESENTATION ( 'INGUN_48160', ( #90, #199 ), #133 ) ;
#97 = VERTEX_POINT ( 'NONE', #243 ) ;
#98 = PRESENTATION_LAYER_ASSIGNMENT (  '', '', ( #263 ) ) ;
#99 = ORIENTED_EDGE ( 'NONE', *, *, #190, .T. ) ;
#100 = DIRECTION ( 'NONE',  ( -0.000000000000000000, 1.000000000000000000, -0.000000000000000000 ) ) ;
#101 = PRODUCT ( 'INGUN_48160', 'INGUN_48160', '', ( #276 ) ) ;
#102 = UNCERTAINTY_MEASURE_WITH_UNIT (LENGTH_MEASURE( 1.000000000000000082E-05 ), #23, 'distance_accuracy_value', 'NONE');
#103 = CARTESIAN_POINT ( 'NONE',  ( 0.000000000000000000, 119.0000000000000142, 0.000000000000000000 ) ) ;
#104 = EDGE_LOOP ( 'NONE', ( #144, #240, #255 ) ) ;
#105 = AXIS2_PLACEMENT_3D ( 'NONE', #320, #226, #194 ) ;
#106 = CARTESIAN_POINT ( 'NONE',  ( 0.000000000000000000, 133.0000000000000000, 2.099999999999988987 ) ) ;
#107 = PLANE ( 'NONE',  #304 ) ;
#108 =( NAMED_UNIT ( * ) SI_UNIT ( $, .STERADIAN. ) SOLID_ANGLE_UNIT ( ) );
#109 = ORIENTED_EDGE ( 'NONE', *, *, #209, .T. ) ;
#110 = EDGE_CURVE ( 'NONE', #97, #257, #236, .T. ) ;
#111 = DIRECTION ( 'NONE',  ( 0.000000000000000000, -0.000000000000000000, 1.000000000000000000 ) ) ;
#112 = DIRECTION ( 'NONE',  ( 0.000000000000000000, 1.000000000000000000, 0.000000000000000000 ) ) ;
#113 = PRESENTATION_LAYER_ASSIGNMENT (  '', '', ( #13 ) ) ;
#114 = ORIENTED_EDGE ( 'NONE', *, *, #179, .F. ) ;
#115 = PRODUCT_DEFINITION ( 'UNKNOWN', '', #261, #84 ) ;
#116 = AXIS2_PLACEMENT_3D ( 'NONE', #297, #16, #83 ) ;
#117 = SURFACE_STYLE_FILL_AREA ( #287 ) ;
#118 = ORIENTED_EDGE ( 'NONE', *, *, #209, .F. ) ;
#119 = DIRECTION ( 'NONE',  ( 0.000000000000000000, 0.000000000000000000, 1.000000000000000000 ) ) ;
#120 = ADVANCED_FACE ( 'NONE', ( #196 ), #107, .F. ) ;
#121 = FACE_BOUND ( 'NONE', #310, .T. ) ;
#122 = CARTESIAN_POINT ( 'NONE',  ( 0.000000000000000000, 1.000000000000000888, 0.000000000000000000 ) ) ;
#123 = FILL_AREA_STYLE_COLOUR ( '', #65 ) ;
#124 = LINE ( 'NONE', #168, #233 ) ;
#125 = FACE_OUTER_BOUND ( 'NONE', #220, .T. ) ;
#126 = ADVANCED_FACE ( 'NONE', ( #95 ), #195, .F. ) ;
#127 = AXIS2_PLACEMENT_3D ( 'NONE', #59, #244, #314 ) ;
#128 = FILL_AREA_STYLE_COLOUR ( '', #198 ) ;
#129 = EDGE_LOOP ( 'NONE', ( #291, #114, #239, #173 ) ) ;
#130 = AXIS2_PLACEMENT_3D ( 'NONE', #14, #56, #221 ) ;
#131 = VERTEX_POINT ( 'NONE', #313 ) ;
#132 = CARTESIAN_POINT ( 'NONE',  ( 0.000000000000000000, 119.0000000000000142, 2.099999999999987210 ) ) ;
#133 =( GEOMETRIC_REPRESENTATION_CONTEXT ( 3 ) GLOBAL_UNCERTAINTY_ASSIGNED_CONTEXT ( ( #102 ) ) GLOBAL_UNIT_ASSIGNED_CONTEXT ( ( #23, #278, #232 ) ) REPRESENTATION_CONTEXT ( 'NONE', 'WORKASPACE' ) );
#134 = SURFACE_STYLE_USAGE ( .BOTH. , #32 ) ;
#135 =( NAMED_UNIT ( * ) SI_UNIT ( $, .STERADIAN. ) SOLID_ANGLE_UNIT ( ) );
#136 =( LENGTH_UNIT ( ) NAMED_UNIT ( * ) SI_UNIT ( .MILLI., .METRE. ) );
#137 = VECTOR ( 'NONE', #247, 1000.000000000000000 ) ;
#138 = VERTEX_POINT ( 'NONE', #262 ) ;
#139 = DIRECTION ( 'NONE',  ( -0.000000000000000000, 1.000000000000000000, -0.000000000000000000 ) ) ;
#140 = DIRECTION ( 'NONE',  ( 0.000000000000000000, 0.000000000000000000, 1.000000000000000000 ) ) ;
#141 = EDGE_CURVE ( 'NONE', #10, #257, #290, .T. ) ;
#142 = FACE_OUTER_BOUND ( 'NONE', #129, .T. ) ;
#143 = DIRECTION ( 'NONE',  ( 0.000000000000000000, 0.000000000000000000, 1.000000000000000000 ) ) ;
#144 = ORIENTED_EDGE ( 'NONE', *, *, #28, .F. ) ;
#145 = ORIENTED_EDGE ( 'NONE', *, *, #141, .T. ) ;
#146 = DIRECTION ( 'NONE',  ( 0.000000000000000000, 0.000000000000000000, -1.000000000000000000 ) ) ;
#147 = APPLICATION_CONTEXT ( 'automotive_design' ) ;
#148 = MECHANICAL_DESIGN_GEOMETRIC_PRESENTATION_REPRESENTATION (  '', ( #235 ), #24 ) ;
#149 = CIRCLE ( 'NONE', #219, 5.000000000000000000 ) ;
#150 = SURFACE_STYLE_USAGE ( .BOTH. , #229 ) ;
#151 = AXIS2_PLACEMENT_3D ( 'NONE', #318, #139, #245 ) ;
#152 = VERTEX_POINT ( 'NONE', #76 ) ;
#153 = CARTESIAN_POINT ( 'NONE',  ( 0.000000000000000000, 119.0000000000000142, 0.000000000000000000 ) ) ;
#154 = PRESENTATION_STYLE_ASSIGNMENT (( #265 ) ) ;
#155 = SURFACE_STYLE_USAGE ( .BOTH. , #260 ) ;
#156 = ORIENTED_EDGE ( 'NONE', *, *, #28, .T. ) ;
#157 = FACE_OUTER_BOUND ( 'NONE', #19, .T. ) ;
#158 =( NAMED_UNIT ( * ) PLANE_ANGLE_UNIT ( ) SI_UNIT ( $, .RADIAN. ) );
#159 = AXIS2_PLACEMENT_3D ( 'NONE', #201, #112, #197 ) ;
#160 =( NAMED_UNIT ( * ) PLANE_ANGLE_UNIT ( ) SI_UNIT ( $, .RADIAN. ) );
#161 = PRESENTATION_LAYER_ASSIGNMENT (  '', '', ( #33 ) ) ;
#162 = CARTESIAN_POINT ( 'NONE',  ( 0.000000000000000000, 0.000000000000000000, 0.000000000000000000 ) ) ;
#163 = CARTESIAN_POINT ( 'NONE',  ( 6.123233995736766282E-16, 133.0000000000000000, 5.000000000000000000 ) ) ;
#164 = AXIS2_PLACEMENT_3D ( 'NONE', #43, #200, #39 ) ;
#165 = CARTESIAN_POINT ( 'NONE',  ( 0.000000000000000000, 133.0000000000000000, 0.000000000000000000 ) ) ;
#166 = CIRCLE ( 'NONE', #68, 5.000000000000000000 ) ;
#167 = EDGE_LOOP ( 'NONE', ( #53, #52 ) ) ;
#168 = CARTESIAN_POINT ( 'NONE',  ( 6.123233995736766282E-16, 1.000000000000000888, -5.000000000000000000 ) ) ;
#169 = ORIENTED_EDGE ( 'NONE', *, *, #242, .F. ) ;
#170 = CARTESIAN_POINT ( 'NONE',  ( 0.000000000000000000, 133.0000000000000000, -5.000000000000000000 ) ) ;
#171 = EDGE_CURVE ( 'NONE', #257, #293, #86, .T. ) ;
#172 = DIRECTION ( 'NONE',  ( -0.000000000000000000, 1.000000000000000000, -0.000000000000000000 ) ) ;
#173 = ORIENTED_EDGE ( 'NONE', *, *, #225, .T. ) ;
#174 = APPLICATION_PROTOCOL_DEFINITION ( 'draft international standard', 'automotive_design', 1998, #147 ) ;
#175 = CARTESIAN_POINT ( 'NONE',  ( 0.000000000000000000, 133.0000000000000000, 0.000000000000000000 ) ) ;
#176 = ADVANCED_FACE ( 'NONE', ( #295 ), #252, .F. ) ;
#177 = UNCERTAINTY_MEASURE_WITH_UNIT (LENGTH_MEASURE( 1.000000000000000082E-05 ), #136, 'distance_accuracy_value', 'NONE');
#178 = ORIENTED_EDGE ( 'NONE', *, *, #110, .F. ) ;
#179 = EDGE_CURVE ( 'NONE', #300, #259, #166, .T. ) ;
#180 = DIRECTION ( 'NONE',  ( -0.000000000000000000, 1.000000000000000000, -0.000000000000000000 ) ) ;
#181 = ORIENTED_EDGE ( 'NONE', *, *, #225, .F. ) ;
#182 = DIRECTION ( 'NONE',  ( 0.000000000000000000, 0.000000000000000000, 1.000000000000000000 ) ) ;
#183 = EDGE_CURVE ( 'NONE', #213, #131, #57, .T. ) ;
#184 =( LENGTH_UNIT ( ) NAMED_UNIT ( * ) SI_UNIT ( .MILLI., .METRE. ) );
#185 = CIRCLE ( 'NONE', #159, 5.000000000000000000 ) ;
#186 = VECTOR ( 'NONE', #34, 1000.000000000000000 ) ;
#187 =( NAMED_UNIT ( * ) SI_UNIT ( $, .STERADIAN. ) SOLID_ANGLE_UNIT ( ) );
#188 = CARTESIAN_POINT ( 'NONE',  ( 2.571758278209426180E-16, 119.0000000000000142, -2.099999999999987210 ) ) ;
#189 =( LENGTH_UNIT ( ) NAMED_UNIT ( * ) SI_UNIT ( .MILLI., .METRE. ) );
#190 = EDGE_CURVE ( 'NONE', #67, #293, #204, .T. ) ;
#191 = FILL_AREA_STYLE_COLOUR ( '', #317 ) ;
#192 = ORIENTED_EDGE ( 'NONE', *, *, #171, .F. ) ;
#193 = CARTESIAN_POINT ( 'NONE',  ( 6.123233995736766282E-16, 133.0000000000000000, 5.000000000000000000 ) ) ;
#194 = DIRECTION ( 'NONE',  ( 0.000000000000000000, 0.000000000000000000, 1.000000000000000000 ) ) ;
#195 = CYLINDRICAL_SURFACE ( 'NONE', #78, 2.099999999999988098 ) ;
#196 = FACE_OUTER_BOUND ( 'NONE', #63, .T. ) ;
#197 = DIRECTION ( 'NONE',  ( 0.000000000000000000, 0.000000000000000000, 1.000000000000000000 ) ) ;
#198 = COLOUR_RGB ( '',0.7529411764705882248, 0.7529411764705882248, 0.7529411764705882248 ) ;
#199 = AXIS2_PLACEMENT_3D ( 'NONE', #89, #303, #251 ) ;
#200 = DIRECTION ( 'NONE',  ( -0.000000000000000000, 1.000000000000000000, -0.000000000000000000 ) ) ;
#201 = CARTESIAN_POINT ( 'NONE',  ( 0.000000000000000000, 133.0000000000000000, 0.000000000000000000 ) ) ;
#202 = AXIS2_PLACEMENT_3D ( 'NONE', #122, #47, #69 ) ;
#203 = CARTESIAN_POINT ( 'NONE',  ( 2.571758278209427659E-16, 133.0000000000000000, -2.099999999999988098 ) ) ;
#204 = CIRCLE ( 'NONE', #151, 2.099999999999988987 ) ;
#205 =( NAMED_UNIT ( * ) PLANE_ANGLE_UNIT ( ) SI_UNIT ( $, .RADIAN. ) );
#206 = LINE ( 'NONE', #301, #280 ) ;
#207 = FILL_AREA_STYLE ('',( #123 ) ) ;
#208 = COLOUR_RGB ( '',0.7529411764705882248, 0.7529411764705882248, 0.7529411764705882248 ) ;
#209 = EDGE_CURVE ( 'NONE', #131, #213, #62, .T. ) ;
#210 =( LENGTH_UNIT ( ) NAMED_UNIT ( * ) SI_UNIT ( .MILLI., .METRE. ) );
#211 = LINE ( 'NONE', #40, #137 ) ;
#212 = CYLINDRICAL_SURFACE ( 'NONE', #50, 2.099999999999988098 ) ;
#213 = VERTEX_POINT ( 'NONE', #271 ) ;
#214 = MECHANICAL_DESIGN_GEOMETRIC_PRESENTATION_REPRESENTATION (  '', ( #263 ), #230 ) ;
#215 = LINE ( 'NONE', #193, #45 ) ;
#216 = FILL_AREA_STYLE ('',( #128 ) ) ;
#217 = DIRECTION ( 'NONE',  ( 0.000000000000000000, 0.000000000000000000, 1.000000000000000000 ) ) ;
#218 = FACE_OUTER_BOUND ( 'NONE', #167, .T. ) ;
#219 = AXIS2_PLACEMENT_3D ( 'NONE', #21, #172, #119 ) ;
#220 = EDGE_LOOP ( 'NONE', ( #264, #305, #71, #70 ) ) ;
#221 = DIRECTION ( 'NONE',  ( 0.000000000000000000, 0.000000000000000000, 1.000000000000000000 ) ) ;
#222 =( NAMED_UNIT ( * ) PLANE_ANGLE_UNIT ( ) SI_UNIT ( $, .RADIAN. ) );
#223 = PLANE ( 'NONE',  #116 ) ;
#224 = DIRECTION ( 'NONE',  ( 0.000000000000000000, 0.7071067811865441310, 0.7071067811865507924 ) ) ;
#225 = EDGE_CURVE ( 'NONE', #138, #152, #231, .T. ) ;
#226 = DIRECTION ( 'NONE',  ( -0.000000000000000000, 1.000000000000000000, -0.000000000000000000 ) ) ;
#227 = CARTESIAN_POINT ( 'NONE',  ( 0.000000000000000000, 119.0000000000000142, 0.000000000000000000 ) ) ;
#228 = DIRECTION ( 'NONE',  ( 0.000000000000000000, 0.000000000000000000, 1.000000000000000000 ) ) ;
#229 = SURFACE_SIDE_STYLE ('',( #272 ) ) ;
#230 =( GEOMETRIC_REPRESENTATION_CONTEXT ( 3 ) GLOBAL_UNCERTAINTY_ASSIGNED_CONTEXT ( ( #5 ) ) GLOBAL_UNIT_ASSIGNED_CONTEXT ( ( #210, #205, #1 ) ) REPRESENTATION_CONTEXT ( 'NONE', 'WORKASPACE' ) );
#231 = CIRCLE ( 'NONE', #105, 5.000000000000000000 ) ;
#232 =( NAMED_UNIT ( * ) SI_UNIT ( $, .STERADIAN. ) SOLID_ANGLE_UNIT ( ) );
#233 = VECTOR ( 'NONE', #315, 1000.000000000000000 ) ;
#234 = ORIENTED_EDGE ( 'NONE', *, *, #308, .T. ) ;
#235 = STYLED_ITEM ( 'NONE', ( #4 ), #90 ) ;
#236 = LINE ( 'NONE', #188, #29 ) ;
#237 = UNCERTAINTY_MEASURE_WITH_UNIT (LENGTH_MEASURE( 1.000000000000000082E-05 ), #184, 'distance_accuracy_value', 'NONE');
#238 = AXIS2_PLACEMENT_3D ( 'NONE', #153, #180, #182 ) ;
#239 = ORIENTED_EDGE ( 'NONE', *, *, #242, .T. ) ;
#240 = ORIENTED_EDGE ( 'NONE', *, *, #110, .T. ) ;
#241 = UNCERTAINTY_MEASURE_WITH_UNIT (LENGTH_MEASURE( 1.000000000000000082E-05 ), #189, 'distance_accuracy_value', 'NONE');
#242 = EDGE_CURVE ( 'NONE', #300, #138, #211, .T. ) ;
#243 = CARTESIAN_POINT ( 'NONE',  ( -3.738064691819423848E-15, 117.7381927000421342, 0.000000000000000000 ) ) ;
#244 = DIRECTION ( 'NONE',  ( -0.000000000000000000, 1.000000000000000000, -0.000000000000000000 ) ) ;
#245 = DIRECTION ( 'NONE',  ( 0.000000000000000000, 0.000000000000000000, 1.000000000000000000 ) ) ;
#246 = ORIENTED_EDGE ( 'NONE', *, *, #258, .T. ) ;
#247 = DIRECTION ( 'NONE',  ( -0.000000000000000000, -1.000000000000000000, -0.000000000000000000 ) ) ;
#248 = CARTESIAN_POINT ( 'NONE',  ( 2.571758278209428645E-16, 133.0000000000000000, -2.099999999999988987 ) ) ;
#249 = AXIS2_PLACEMENT_3D ( 'NONE', #250, #275, #146 ) ;
#250 = CARTESIAN_POINT ( 'NONE',  ( 0.000000000000000000, 133.0000000000000000, 0.000000000000000000 ) ) ;
#251 = DIRECTION ( 'NONE',  ( 1.000000000000000000, 0.000000000000000000, 0.000000000000000000 ) ) ;
#252 = CONICAL_SURFACE ( 'NONE', #93, 2.099999999999987210, 1.029744258676654090 ) ;
#253 = ORIENTED_EDGE ( 'NONE', *, *, #283, .T. ) ;
#254 = AXIS2_PLACEMENT_3D ( 'NONE', #162, #44, #140 ) ;
#255 = ORIENTED_EDGE ( 'NONE', *, *, #3, .T. ) ;
#256 = ADVANCED_FACE ( 'NONE', ( #121, #218 ), #223, .T. ) ;
#257 = VERTEX_POINT ( 'NONE', #64 ) ;
#258 = EDGE_CURVE ( 'NONE', #213, #138, #124, .T. ) ;
#259 = VERTEX_POINT ( 'NONE', #163 ) ;
#260 = SURFACE_SIDE_STYLE ('',( #285 ) ) ;
#261 = PRODUCT_DEFINITION_FORMATION_WITH_SPECIFIED_SOURCE ( 'ANY', '', #101, .NOT_KNOWN. ) ;
#262 = CARTESIAN_POINT ( 'NONE',  ( 0.000000000000000000, 1.000000000000000888, -5.000000000000000000 ) ) ;
#263 = STYLED_ITEM ( 'NONE', ( #2 ), #96 ) ;
#264 = ORIENTED_EDGE ( 'NONE', *, *, #3, .F. ) ;
#265 = SURFACE_STYLE_USAGE ( .BOTH. , #36 ) ;
#266 = DIRECTION ( 'NONE',  ( 0.000000000000000000, 1.000000000000000000, 0.000000000000000000 ) ) ;
#267 = VECTOR ( 'NONE', #17, 1000.000000000000000 ) ;
#268 = CONICAL_SURFACE ( 'NONE', #130, 5.000000000000000000, 0.7853981633974530530 ) ;
#269 = CARTESIAN_POINT ( 'NONE',  ( 0.000000000000000000, 0.000000000000000000, 0.000000000000000000 ) ) ;
#270 = EDGE_CURVE ( 'NONE', #10, #67, #7, .T. ) ;
#271 = CARTESIAN_POINT ( 'NONE',  ( 5.510910596163082653E-16, 0.000000000000000000, -3.999999999999989786 ) ) ;
#272 = SURFACE_STYLE_FILL_AREA ( #207 ) ;
#273 = PRODUCT_RELATED_PRODUCT_CATEGORY ( 'part', '', ( #101 ) ) ;
#274 = ORIENTED_EDGE ( 'NONE', *, *, #141, .F. ) ;
#275 = DIRECTION ( 'NONE',  ( -0.000000000000000000, -1.000000000000000000, -0.000000000000000000 ) ) ;
#276 = PRODUCT_CONTEXT ( 'NONE', #147, 'mechanical' ) ;
#277 = PRESENTATION_STYLE_ASSIGNMENT (( #155 ) ) ;
#278 =( NAMED_UNIT ( * ) PLANE_ANGLE_UNIT ( ) SI_UNIT ( $, .RADIAN. ) );
#279 = PRODUCT_DEFINITION_SHAPE ( 'NONE', 'NONE',  #115 ) ;
#280 = VECTOR ( 'NONE', #224, 1000.000000000000000 ) ;
#281 = ORIENTED_EDGE ( 'NONE', *, *, #270, .T. ) ;
#282 = AXIS2_PLACEMENT_3D ( 'NONE', #175, #22, #302 ) ;
#283 = EDGE_CURVE ( 'NONE', #131, #152, #206, .T. ) ;
#284 = CYLINDRICAL_SURFACE ( 'NONE', #282, 5.000000000000000000 ) ;
#285 = SURFACE_STYLE_FILL_AREA ( #216 ) ;
#286 = DIRECTION ( 'NONE',  ( 0.000000000000000000, 0.000000000000000000, 1.000000000000000000 ) ) ;
#287 = FILL_AREA_STYLE ('',( #191 ) ) ;
#288 = DIRECTION ( 'NONE',  ( -0.000000000000000000, -1.000000000000000000, -0.000000000000000000 ) ) ;
#289 = EDGE_CURVE ( 'NONE', #259, #300, #185, .T. ) ;
#290 = CIRCLE ( 'NONE', #164, 2.099999999999987210 ) ;
#291 = ORIENTED_EDGE ( 'NONE', *, *, #92, .F. ) ;
#292 = FILL_AREA_STYLE_COLOUR ( '', #208 ) ;
#293 = VERTEX_POINT ( 'NONE', #248 ) ;
#294 = DIRECTION ( 'NONE',  ( 0.000000000000000000, 0.000000000000000000, 1.000000000000000000 ) ) ;
#295 = FACE_OUTER_BOUND ( 'NONE', #104, .T. ) ;
#296 = SURFACE_STYLE_FILL_AREA ( #12 ) ;
#297 = CARTESIAN_POINT ( 'NONE',  ( 0.000000000000000000, 133.0000000000000000, 0.000000000000000000 ) ) ;
#298 = ORIENTED_EDGE ( 'NONE', *, *, #283, .F. ) ;
#299 = ORIENTED_EDGE ( 'NONE', *, *, #308, .F. ) ;
#300 = VERTEX_POINT ( 'NONE', #170 ) ;
#301 = CARTESIAN_POINT ( 'NONE',  ( 0.000000000000000000, 1.000000000000000888, 5.000000000000000000 ) ) ;
#302 = DIRECTION ( 'NONE',  ( 0.000000000000000000, 0.000000000000000000, -1.000000000000000000 ) ) ;
#303 = DIRECTION ( 'NONE',  ( 0.000000000000000000, 0.000000000000000000, 1.000000000000000000 ) ) ;
#304 = AXIS2_PLACEMENT_3D ( 'NONE', #81, #266, #111 ) ;
#305 = ORIENTED_EDGE ( 'NONE', *, *, #171, .T. ) ;
#306 = ADVANCED_FACE ( 'NONE', ( #142 ), #18, .T. ) ;
#307 = ADVANCED_FACE ( 'NONE', ( #94 ), #25, .T. ) ;
#308 = EDGE_CURVE ( 'NONE', #152, #138, #149, .T. ) ;
#309 = SHAPE_DEFINITION_REPRESENTATION ( #279, #96 ) ;
#310 = EDGE_LOOP ( 'NONE', ( #48, #30 ) ) ;
#311 = ORIENTED_EDGE ( 'NONE', *, *, #183, .F. ) ;
#312 = FACE_OUTER_BOUND ( 'NONE', #49, .T. ) ;
#313 = CARTESIAN_POINT ( 'NONE',  ( 0.000000000000000000, 0.000000000000000000, 3.999999999999989786 ) ) ;
#314 = DIRECTION ( 'NONE',  ( 0.000000000000000000, 0.000000000000000000, 1.000000000000000000 ) ) ;
#315 = DIRECTION ( 'NONE',  ( 8.659560562354974766E-17, 0.7071067811865441310, -0.7071067811865507924 ) ) ;
#316 = VECTOR ( 'NONE', #38, 1000.000000000000000 ) ;
#317 = COLOUR_RGB ( '',0.7529411764705882248, 0.7529411764705882248, 0.7529411764705882248 ) ;
#318 = CARTESIAN_POINT ( 'NONE',  ( 0.000000000000000000, 133.0000000000000000, 0.000000000000000000 ) ) ;
#319 =( GEOMETRIC_REPRESENTATION_CONTEXT ( 3 ) GLOBAL_UNCERTAINTY_ASSIGNED_CONTEXT ( ( #237 ) ) GLOBAL_UNIT_ASSIGNED_CONTEXT ( ( #184, #160, #108 ) ) REPRESENTATION_CONTEXT ( 'NONE', 'WORKASPACE' ) );
#320 = CARTESIAN_POINT ( 'NONE',  ( 0.000000000000000000, 1.000000000000000888, 0.000000000000000000 ) ) ;
#321 = FACE_OUTER_BOUND ( 'NONE', #75, .T. ) ;
#322 = EDGE_LOOP ( 'NONE', ( #192, #274, #281, #99 ) ) ;
#323 = AXIS2_PLACEMENT_3D ( 'NONE', #103, #100, #35 ) ;
#324 = ADVANCED_FACE ( 'NONE', ( #157 ), #284, .T. ) ;
ENDSEC;
END-ISO-10303-21;
