ISO-10303-21;
HEADER;
FILE_DESCRIPTION (( 'STEP AP214' ),
    '1' );
FILE_NAME ('INGUN_47730.STEP',
    '2021-05-03T14:07:27',
    ( '' ),
    ( '' ),
    'SwSTEP 2.0',
    'SolidWorks 2018',
    '' );
FILE_SCHEMA (( 'AUTOMOTIVE_DESIGN' ));
ENDSEC;

DATA;
#1 = FILL_AREA_STYLE ('',( #296 ) ) ;
#2 = DIRECTION ( 'NONE',  ( 0.000000000000000000, -1.000000000000000000, 0.000000000000000000 ) ) ;
#3 = CARTESIAN_POINT ( 'NONE',  ( 0.000000000000000000, 7.900000000000000355, -3.499999999999985789 ) ) ;
#4 = FACE_OUTER_BOUND ( 'NONE', #213, .T. ) ;
#5 = APPLICATION_CONTEXT ( 'automotive_design' ) ;
#6 =( GEOMETRIC_REPRESENTATION_CONTEXT ( 3 ) GLOBAL_UNCERTAINTY_ASSIGNED_CONTEXT ( ( #36 ) ) GLOBAL_UNIT_ASSIGNED_CONTEXT ( ( #111, #203, #62 ) ) REPRESENTATION_CONTEXT ( 'NONE', 'WORKASPACE' ) );
#7 = DIRECTION ( 'NONE',  ( 1.150791560227851749E-16, -0.3420201433256655488, 0.9396926207859095381 ) ) ;
#8 = FACE_BOUND ( 'NONE', #337, .T. ) ;
#9 = UNCERTAINTY_MEASURE_WITH_UNIT (LENGTH_MEASURE( 1.000000000000000082E-05 ), #142, 'distance_accuracy_value', 'NONE');
#10 = CARTESIAN_POINT ( 'NONE',  ( 4.286263797015718352E-16, 7.900000000000000355, 3.499999999999985789 ) ) ;
#11 = PRODUCT_DEFINITION_FORMATION_WITH_SPECIFIED_SOURCE ( 'ANY', '', #156, .NOT_KNOWN. ) ;
#12 = PRODUCT_DEFINITION_SHAPE ( 'NONE', 'NONE',  #251 ) ;
#13 = VECTOR ( 'NONE', #151, 1000.000000000000114 ) ;
#14 = VERTEX_POINT ( 'NONE', #59 ) ;
#15 = DIRECTION ( 'NONE',  ( 0.000000000000000000, -1.000000000000000000, 0.000000000000000000 ) ) ;
#16 = CARTESIAN_POINT ( 'NONE',  ( 2.449293598294706414E-16, -5.000000000000000888, -2.000000000000000000 ) ) ;
#17 = PRESENTATION_LAYER_ASSIGNMENT (  '', '', ( #41 ) ) ;
#18 = DIRECTION ( 'NONE',  ( 0.000000000000000000, 1.000000000000000000, 0.000000000000000000 ) ) ;
#19 = EDGE_CURVE ( 'NONE', #260, #26, #146, .T. ) ;
#20 = ORIENTED_EDGE ( 'NONE', *, *, #271, .T. ) ;
#21 = CYLINDRICAL_SURFACE ( 'NONE', #169, 4.500000000000000000 ) ;
#22 = AXIS2_PLACEMENT_3D ( 'NONE', #272, #155, #131 ) ;
#23 = CARTESIAN_POINT ( 'NONE',  ( 0.000000000000000000, 7.536029765733797348, 0.000000000000000000 ) ) ;
#24 = CARTESIAN_POINT ( 'NONE',  ( 0.000000000000000000, 7.536029765733797348, 0.000000000000000000 ) ) ;
#25 = ORIENTED_EDGE ( 'NONE', *, *, #178, .T. ) ;
#26 = VERTEX_POINT ( 'NONE', #264 ) ;
#27 = SURFACE_SIDE_STYLE ('',( #191 ) ) ;
#28 = DIRECTION ( 'NONE',  ( 1.000000000000000000, 0.000000000000000000, 0.000000000000000000 ) ) ;
#29 = DIRECTION ( 'NONE',  ( 1.000000000000000000, 0.000000000000000000, 0.000000000000000000 ) ) ;
#30 = CONTEXT_DEPENDENT_SHAPE_REPRESENTATION ( #63, #42 ) ;
#31 = LINE ( 'NONE', #10, #89 ) ;
#32 = CARTESIAN_POINT ( 'NONE',  ( 33.99999999999997158, -7.523194430001784275E-15, -4.152182110732248430E-14 ) ) ;
#33 =( NAMED_UNIT ( * ) SI_UNIT ( $, .STERADIAN. ) SOLID_ANGLE_UNIT ( ) );
#34 = VERTEX_POINT ( 'NONE', #342 ) ;
#35 = APPLICATION_CONTEXT ( 'automotive_design' ) ;
#36 = UNCERTAINTY_MEASURE_WITH_UNIT (LENGTH_MEASURE( 1.000000000000000082E-05 ), #111, 'distance_accuracy_value', 'NONE');
#37 = PRESENTATION_LAYER_ASSIGNMENT (  '', '', ( #119 ) ) ;
#38 = DIRECTION ( 'NONE',  ( 0.000000000000000000, 0.000000000000000000, 1.000000000000000000 ) ) ;
#39 = SHAPE_DEFINITION_REPRESENTATION ( #12, #183 ) ;
#40 = LINE ( 'NONE', #265, #304 ) ;
#41 = STYLED_ITEM ( 'NONE', ( #254 ), #222 ) ;
#42 = PRODUCT_DEFINITION_SHAPE ( 'NONE', 'NONE',  #365 ) ;
#43 = EDGE_CURVE ( 'NONE', #282, #260, #105, .T. ) ;
#44 = ORIENTED_EDGE ( 'NONE', *, *, #143, .T. ) ;
#45 = DIRECTION ( 'NONE',  ( 0.000000000000000000, 0.000000000000000000, 1.000000000000000000 ) ) ;
#46 = ORIENTED_EDGE ( 'NONE', *, *, #150, .T. ) ;
#47 = ADVANCED_FACE ( 'NONE', ( #360 ), #144, .F. ) ;
#48 = EDGE_LOOP ( 'NONE', ( #153, #325, #184, #70 ) ) ;
#49 = AXIS2_PLACEMENT_3D ( 'NONE', #72, #99, #124 ) ;
#50 = SURFACE_STYLE_USAGE ( .BOTH. , #192 ) ;
#51 = CARTESIAN_POINT ( 'NONE',  ( 0.000000000000000000, 6.000000000000000000, 0.000000000000000000 ) ) ;
#52 = CARTESIAN_POINT ( 'NONE',  ( 0.000000000000000000, 7.900000000000000355, 0.000000000000000000 ) ) ;
#53 = CARTESIAN_POINT ( 'NONE',  ( 0.000000000000000000, 7.900000000000000355, 0.000000000000000000 ) ) ;
#54 = FACE_OUTER_BOUND ( 'NONE', #48, .T. ) ;
#55 = DIRECTION ( 'NONE',  ( 0.000000000000000000, 0.000000000000000000, -1.000000000000000000 ) ) ;
#56 = SURFACE_STYLE_USAGE ( .BOTH. , #27 ) ;
#57 = AXIS2_PLACEMENT_3D ( 'NONE', #229, #258, #112 ) ;
#58 =( LENGTH_UNIT ( ) NAMED_UNIT ( * ) SI_UNIT ( .MILLI., .METRE. ) );
#59 = CARTESIAN_POINT ( 'NONE',  ( 2.449293598294706414E-16, -5.000000000000000888, 2.000000000000000000 ) ) ;
#60 = ORIENTED_EDGE ( 'NONE', *, *, #73, .F. ) ;
#61 = CONICAL_SURFACE ( 'NONE', #244, 2.000000000000000000, 0.3490658503988642303 ) ;
#62 =( NAMED_UNIT ( * ) SI_UNIT ( $, .STERADIAN. ) SOLID_ANGLE_UNIT ( ) );
#63 =( REPRESENTATION_RELATIONSHIP ('NONE','NONE', #201, #183 ) REPRESENTATION_RELATIONSHIP_WITH_TRANSFORMATION ( #68 )SHAPE_REPRESENTATION_RELATIONSHIP( ) );
#64 = AXIS2_PLACEMENT_3D ( 'NONE', #24, #2, #317 ) ;
#65 = CIRCLE ( 'NONE', #138, 2.000000000000000000 ) ;
#66 = EDGE_LOOP ( 'NONE', ( #60, #313, #186, #219 ) ) ;
#67 = EDGE_CURVE ( 'NONE', #346, #14, #65, .T. ) ;
#68 = ITEM_DEFINED_TRANSFORMATION ( 'NONE', 'NONE', #189,  #224 ) ;
#69 = PRODUCT ( 'INGUN_47730', 'INGUN_47730', '', ( #343 ) ) ;
#70 = ORIENTED_EDGE ( 'NONE', *, *, #323, .F. ) ;
#71 = FACE_OUTER_BOUND ( 'NONE', #199, .T. ) ;
#72 = CARTESIAN_POINT ( 'NONE',  ( 0.000000000000000000, 7.900000000000000355, 0.000000000000000000 ) ) ;
#73 = EDGE_CURVE ( 'NONE', #34, #275, #31, .T. ) ;
#74 = CYLINDRICAL_SURFACE ( 'NONE', #49, 4.500000000000000000 ) ;
#75 = ADVANCED_FACE ( 'NONE', ( #274 ), #287, .T. ) ;
#76 = CARTESIAN_POINT ( 'NONE',  ( 0.000000000000000000, 6.000000000000000000, -2.000000000000000000 ) ) ;
#77 = AXIS2_PLACEMENT_3D ( 'NONE', #52, #285, #221 ) ;
#78 = VECTOR ( 'NONE', #338, 1000.000000000000114 ) ;
#79 = EDGE_CURVE ( 'NONE', #246, #346, #352, .T. ) ;
#80 = DIRECTION ( 'NONE',  ( -0.000000000000000000, -1.000000000000000000, -0.000000000000000000 ) ) ;
#81 = DIRECTION ( 'NONE',  ( -0.000000000000000000, -1.000000000000000000, -0.000000000000000000 ) ) ;
#82 = ORIENTED_EDGE ( 'NONE', *, *, #79, .F. ) ;
#83 = AXIS2_PLACEMENT_3D ( 'NONE', #53, #339, #135 ) ;
#84 = CARTESIAN_POINT ( 'NONE',  ( 0.000000000000000000, 7.536029765733797348, -4.500000000000000000 ) ) ;
#85 = DIRECTION ( 'NONE',  ( 0.000000000000000000, -1.000000000000000000, 0.000000000000000000 ) ) ;
#86 = EDGE_CURVE ( 'NONE', #348, #346, #208, .T. ) ;
#87 = AXIS2_PLACEMENT_3D ( 'NONE', #345, #91, #174 ) ;
#88 = EDGE_LOOP ( 'NONE', ( #207, #306, #126, #238 ) ) ;
#89 = VECTOR ( 'NONE', #7, 1000.000000000000000 ) ;
#90 = DIRECTION ( 'NONE',  ( -1.001483571081362644E-32, 6.938893903907228378E-18, 0.9999999999999998890 ) ) ;
#91 = DIRECTION ( 'NONE',  ( 0.000000000000000000, 1.000000000000000000, 0.000000000000000000 ) ) ;
#92 = VECTOR ( 'NONE', #357, 1000.000000000000000 ) ;
#93 = EDGE_LOOP ( 'NONE', ( #303, #261, #120, #179 ) ) ;
#94 = PRODUCT_CONTEXT ( 'NONE', #177, 'mechanical' ) ;
#95 = ORIENTED_EDGE ( 'NONE', *, *, #318, .F. ) ;
#96 = PRODUCT_DEFINITION_SHAPE ( 'NONE', 'NONE',  #113 ) ;
#97 = ADVANCED_FACE ( 'NONE', ( #54 ), #327, .T. ) ;
#98 = AXIS2_PLACEMENT_3D ( 'NONE', #363, #101, #212 ) ;
#99 = DIRECTION ( 'NONE',  ( -0.000000000000000000, -1.000000000000000000, -0.000000000000000000 ) ) ;
#100 = ORIENTED_EDGE ( 'NONE', *, *, #271, .F. ) ;
#101 = DIRECTION ( 'NONE',  ( 0.000000000000000000, 1.000000000000000000, 0.000000000000000000 ) ) ;
#102 = ADVANCED_FACE ( 'NONE', ( #294 ), #74, .T. ) ;
#103 =( GEOMETRIC_REPRESENTATION_CONTEXT ( 3 ) GLOBAL_UNCERTAINTY_ASSIGNED_CONTEXT ( ( #211 ) ) GLOBAL_UNIT_ASSIGNED_CONTEXT ( ( #58, #263, #340 ) ) REPRESENTATION_CONTEXT ( 'NONE', 'WORKASPACE' ) );
#104 =( NAMED_UNIT ( * ) PLANE_ANGLE_UNIT ( ) SI_UNIT ( $, .RADIAN. ) );
#105 = LINE ( 'NONE', #3, #297 ) ;
#106 = CARTESIAN_POINT ( 'NONE',  ( 0.000000000000000000, -6.000000000000000000, 0.000000000000000000 ) ) ;
#107 = FILL_AREA_STYLE_COLOUR ( '', #125 ) ;
#108 = CARTESIAN_POINT ( 'NONE',  ( 0.000000000000000000, 7.900000000000000355, 0.000000000000000000 ) ) ;
#109 = ORIENTED_EDGE ( 'NONE', *, *, #19, .T. ) ;
#110 = ORIENTED_EDGE ( 'NONE', *, *, #170, .T. ) ;
#111 =( LENGTH_UNIT ( ) NAMED_UNIT ( * ) SI_UNIT ( .MILLI., .METRE. ) );
#112 = DIRECTION ( 'NONE',  ( 0.000000000000000000, 0.000000000000000000, 1.000000000000000000 ) ) ;
#113 = PRODUCT_DEFINITION ( 'UNKNOWN', '', #332, #289 ) ;
#114 = DIRECTION ( 'NONE',  ( -0.000000000000000000, -1.000000000000000000, -0.000000000000000000 ) ) ;
#115 = DIRECTION ( 'NONE',  ( -0.000000000000000000, -1.000000000000000000, -0.000000000000000000 ) ) ;
#116 = EDGE_CURVE ( 'NONE', #14, #346, #283, .T. ) ;
#117 = SHAPE_REPRESENTATION_RELATIONSHIP ( 'NONE' , 'NONE' ,  #183, #137 ) ;
#118 = CARTESIAN_POINT ( 'NONE',  ( 0.000000000000000000, 7.900000000000000355, -4.500000000000000000 ) ) ;
#119 = STYLED_ITEM ( 'NONE', ( #292 ), #137 ) ;
#120 = ORIENTED_EDGE ( 'NONE', *, *, #307, .F. ) ;
#121 = ORIENTED_EDGE ( 'NONE', *, *, #143, .F. ) ;
#122 = CONTEXT_DEPENDENT_SHAPE_REPRESENTATION ( #209, #256 ) ;
#123 = AXIS2_PLACEMENT_3D ( 'NONE', #157, #217, #45 ) ;
#124 = DIRECTION ( 'NONE',  ( 0.000000000000000000, 0.000000000000000000, -1.000000000000000000 ) ) ;
#125 = COLOUR_RGB ( '',0.9882352941176471006, 0.7372549019607843590, 0.5176470588235293491 ) ;
#126 = ORIENTED_EDGE ( 'NONE', *, *, #79, .T. ) ;
#127 = DIRECTION ( 'NONE',  ( -0.000000000000000000, 1.000000000000000000, -0.000000000000000000 ) ) ;
#128 = AXIS2_PLACEMENT_3D ( 'NONE', #230, #204, #29 ) ;
#129 = CIRCLE ( 'NONE', #64, 4.500000000000000000 ) ;
#130 = EDGE_CURVE ( 'NONE', #348, #286, #310, .T. ) ;
#131 = DIRECTION ( 'NONE',  ( 0.000000000000000000, 0.000000000000000000, 1.000000000000000000 ) ) ;
#132 = CARTESIAN_POINT ( 'NONE',  ( 0.000000000000000000, 6.000000000000000000, 0.000000000000000000 ) ) ;
#133 = PRODUCT_RELATED_PRODUCT_CATEGORY ( 'part', '', ( #69 ) ) ;
#134 = CONICAL_SURFACE ( 'NONE', #321, 3.499999999999985789, 1.221730476396034160 ) ;
#135 = DIRECTION ( 'NONE',  ( 0.000000000000000000, -0.000000000000000000, 1.000000000000000000 ) ) ;
#136 = CARTESIAN_POINT ( 'NONE',  ( 0.000000000000000000, 0.000000000000000000, 0.000000000000000000 ) ) ;
#137 = ADVANCED_BREP_SHAPE_REPRESENTATION ( '', ( #222, #224 ), #6 ) ;
#138 = AXIS2_PLACEMENT_3D ( 'NONE', #324, #300, #38 ) ;
#139 = ORIENTED_EDGE ( 'NONE', *, *, #67, .F. ) ;
#140 = CIRCLE ( 'NONE', #77, 3.499999999999985789 ) ;
#141 = DIRECTION ( 'NONE',  ( 0.000000000000000000, 0.000000000000000000, 1.000000000000000000 ) ) ;
#142 =( LENGTH_UNIT ( ) NAMED_UNIT ( * ) SI_UNIT ( .MILLI., .METRE. ) );
#143 = EDGE_CURVE ( 'NONE', #180, #246, #214, .T. ) ;
#144 = PLANE ( 'NONE',  #87 ) ;
#145 = EDGE_LOOP ( 'NONE', ( #46, #164 ) ) ;
#146 = LINE ( 'NONE', #118, #193 ) ;
#147 = ORIENTED_EDGE ( 'NONE', *, *, #19, .F. ) ;
#148 = ORIENTED_EDGE ( 'NONE', *, *, #330, .F. ) ;
#149 = AXIS2_PLACEMENT_3D ( 'NONE', #51, #333, #223 ) ;
#150 = EDGE_CURVE ( 'NONE', #286, #348, #220, .T. ) ;
#151 = DIRECTION ( 'NONE',  ( 4.188538737676972660E-17, 0.9396926207859089830, -0.3420201433256671031 ) ) ;
#152 = CYLINDRICAL_SURFACE ( 'NONE', #295, 2.000000000000000000 ) ;
#153 = ORIENTED_EDGE ( 'NONE', *, *, #130, .F. ) ;
#154 = AXIS2_PLACEMENT_3D ( 'NONE', #249, #127, #353 ) ;
#155 = DIRECTION ( 'NONE',  ( -0.000000000000000000, -1.000000000000000000, -0.000000000000000000 ) ) ;
#156 = PRODUCT ( '47712~0_S', '47712~0_S', '', ( #94 ) ) ;
#157 = CARTESIAN_POINT ( 'NONE',  ( 0.000000000000000000, -5.000000000000000888, 0.000000000000000000 ) ) ;
#158 = EDGE_CURVE ( 'NONE', #246, #180, #247, .T. ) ;
#159 = DIRECTION ( 'NONE',  ( -0.000000000000000000, 1.000000000000000000, -0.000000000000000000 ) ) ;
#160 = VERTEX_POINT ( 'NONE', #309 ) ;
#161 = LINE ( 'NONE', #362, #232 ) ;
#162 = DIRECTION ( 'NONE',  ( 0.000000000000000000, 0.000000000000000000, 1.000000000000000000 ) ) ;
#163 = DIRECTION ( 'NONE',  ( 0.000000000000000000, -1.000000000000000000, 0.000000000000000000 ) ) ;
#164 = ORIENTED_EDGE ( 'NONE', *, *, #130, .T. ) ;
#165 = DIRECTION ( 'NONE',  ( -0.000000000000000000, -1.000000000000000000, -0.000000000000000000 ) ) ;
#166 = DIRECTION ( 'NONE',  ( -0.000000000000000000, -1.000000000000000000, -0.000000000000000000 ) ) ;
#167 = CARTESIAN_POINT ( 'NONE',  ( 0.000000000000000000, 0.000000000000000000, 0.000000000000000000 ) ) ;
#168 = ORIENTED_EDGE ( 'NONE', *, *, #228, .T. ) ;
#169 = AXIS2_PLACEMENT_3D ( 'NONE', #311, #81, #255 ) ;
#170 = EDGE_CURVE ( 'NONE', #34, #282, #314, .T. ) ;
#171 = FACE_OUTER_BOUND ( 'NONE', #93, .T. ) ;
#172 = APPLICATION_CONTEXT ( 'automotive_design' ) ;
#173 = DIRECTION ( 'NONE',  ( 0.000000000000000000, 0.000000000000000000, 1.000000000000000000 ) ) ;
#174 = DIRECTION ( 'NONE',  ( 0.000000000000000000, -0.000000000000000000, 1.000000000000000000 ) ) ;
#175 = AXIS2_PLACEMENT_3D ( 'NONE', #106, #80, #196 ) ;
#176 = DIRECTION ( 'NONE',  ( 2.204388753117123719E-17, -1.000000000000000222, 5.551115123125782702E-17 ) ) ;
#177 = APPLICATION_CONTEXT ( 'automotive_design' ) ;
#178 = EDGE_CURVE ( 'NONE', #275, #260, #206, .T. ) ;
#179 = ORIENTED_EDGE ( 'NONE', *, *, #43, .F. ) ;
#180 = VERTEX_POINT ( 'NONE', #312 ) ;
#181 = FACE_OUTER_BOUND ( 'NONE', #336, .T. ) ;
#182 = AXIS2_PLACEMENT_3D ( 'NONE', #136, #173, #349 ) ;
#183 = SHAPE_REPRESENTATION ( '47712~0_S', ( #224 ), #6 ) ;
#184 = ORIENTED_EDGE ( 'NONE', *, *, #116, .F. ) ;
#185 = SHAPE_DEFINITION_REPRESENTATION ( #96, #201 ) ;
#186 = ORIENTED_EDGE ( 'NONE', *, *, #43, .T. ) ;
#187 = DIRECTION ( 'NONE',  ( 0.000000000000000000, 0.000000000000000000, 1.000000000000000000 ) ) ;
#188 = ADVANCED_FACE ( 'NONE', ( #215, #8 ), #195, .F. ) ;
#189 = AXIS2_PLACEMENT_3D ( 'NONE', #320, #90, #334 ) ;
#190 = FILL_AREA_STYLE ('',( #107 ) ) ;
#191 = SURFACE_STYLE_FILL_AREA ( #1 ) ;
#192 = SURFACE_SIDE_STYLE ('',( #239 ) ) ;
#193 = VECTOR ( 'NONE', #115, 1000.000000000000000 ) ;
#194 = AXIS2_PLACEMENT_3D ( 'NONE', #301, #15, #305 ) ;
#195 = PLANE ( 'NONE',  #149 ) ;
#196 = DIRECTION ( 'NONE',  ( 0.000000000000000000, 0.000000000000000000, 1.000000000000000000 ) ) ;
#197 = AXIS2_PLACEMENT_3D ( 'NONE', #23, #163, #162 ) ;
#198 = CARTESIAN_POINT ( 'NONE',  ( 2.226426107105199455E-16, -6.000000000000000000, -1.636029765733799879 ) ) ;
#199 = EDGE_LOOP ( 'NONE', ( #243, #266, #268, #139 ) ) ;
#200 = DIRECTION ( 'NONE',  ( 0.000000000000000000, 0.000000000000000000, 1.000000000000000000 ) ) ;
#201 = SHAPE_REPRESENTATION ( 'INGUN_47730', ( #182, #189, #299 ), #298 ) ;
#202 = DIRECTION ( 'NONE',  ( 0.000000000000000000, 1.000000000000000000, 0.000000000000000000 ) ) ;
#203 =( NAMED_UNIT ( * ) PLANE_ANGLE_UNIT ( ) SI_UNIT ( $, .RADIAN. ) );
#204 = DIRECTION ( 'NONE',  ( 0.000000000000000000, 0.000000000000000000, 1.000000000000000000 ) ) ;
#205 = ORIENTED_EDGE ( 'NONE', *, *, #307, .T. ) ;
#206 = CIRCLE ( 'NONE', #197, 4.500000000000000000 ) ;
#207 = ORIENTED_EDGE ( 'NONE', *, *, #237, .F. ) ;
#208 = LINE ( 'NONE', #16, #13 ) ;
#209 =( REPRESENTATION_RELATIONSHIP ('NONE','NONE', #201, #183 ) REPRESENTATION_RELATIONSHIP_WITH_TRANSFORMATION ( #351 )SHAPE_REPRESENTATION_RELATIONSHIP( ) );
#210 = ORIENTED_EDGE ( 'NONE', *, *, #318, .T. ) ;
#211 = UNCERTAINTY_MEASURE_WITH_UNIT (LENGTH_MEASURE( 1.000000000000000082E-05 ), #58, 'distance_accuracy_value', 'NONE');
#212 = DIRECTION ( 'NONE',  ( 0.000000000000000000, 0.000000000000000000, 1.000000000000000000 ) ) ;
#213 = EDGE_LOOP ( 'NONE', ( #205, #293, #20, #147 ) ) ;
#214 = CIRCLE ( 'NONE', #276, 2.000000000000000000 ) ;
#215 = FACE_OUTER_BOUND ( 'NONE', #328, .T. ) ;
#216 = AXIS2_PLACEMENT_3D ( 'NONE', #358, #202, #200 ) ;
#217 = DIRECTION ( 'NONE',  ( -0.000000000000000000, 1.000000000000000000, -0.000000000000000000 ) ) ;
#218 = DIRECTION ( 'NONE',  ( 0.000000000000000000, 1.000000000000000000, 0.000000000000000000 ) ) ;
#219 = ORIENTED_EDGE ( 'NONE', *, *, #178, .F. ) ;
#220 = CIRCLE ( 'NONE', #175, 1.636029765733799879 ) ;
#221 = DIRECTION ( 'NONE',  ( 0.000000000000000000, 0.000000000000000000, 1.000000000000000000 ) ) ;
#222 = MANIFOLD_SOLID_BREP ( 'Fase2', #359 ) ;
#223 = DIRECTION ( 'NONE',  ( 0.000000000000000000, -0.000000000000000000, 1.000000000000000000 ) ) ;
#224 = AXIS2_PLACEMENT_3D ( 'NONE', #167, #141, #28 ) ;
#225 = DIRECTION ( 'NONE',  ( 0.000000000000000000, 0.000000000000000000, 1.000000000000000000 ) ) ;
#226 = FACE_OUTER_BOUND ( 'NONE', #88, .T. ) ;
#227 = ORIENTED_EDGE ( 'NONE', *, *, #237, .T. ) ;
#228 = EDGE_CURVE ( 'NONE', #282, #34, #140, .T. ) ;
#229 = CARTESIAN_POINT ( 'NONE',  ( 0.000000000000000000, 6.000000000000000000, 0.000000000000000000 ) ) ;
#230 = CARTESIAN_POINT ( 'NONE',  ( 0.000000000000000000, 0.000000000000000000, 0.000000000000000000 ) ) ;
#231 = DIRECTION ( 'NONE',  ( -0.000000000000000000, -1.000000000000000000, -0.000000000000000000 ) ) ;
#232 = VECTOR ( 'NONE', #165, 1000.000000000000000 ) ;
#233 = CARTESIAN_POINT ( 'NONE',  ( 0.000000000000000000, 7.900000000000000355, -3.499999999999985789 ) ) ;
#234 = PRODUCT_RELATED_PRODUCT_CATEGORY ( 'part', '', ( #156 ) ) ;
#235 = DIRECTION ( 'NONE',  ( 0.000000000000000000, 0.000000000000000000, -1.000000000000000000 ) ) ;
#236 =( NAMED_UNIT ( * ) PLANE_ANGLE_UNIT ( ) SI_UNIT ( $, .RADIAN. ) );
#237 = EDGE_CURVE ( 'NONE', #180, #14, #161, .T. ) ;
#238 = ORIENTED_EDGE ( 'NONE', *, *, #67, .T. ) ;
#239 = SURFACE_STYLE_FILL_AREA ( #190 ) ;
#240 = MECHANICAL_DESIGN_GEOMETRIC_PRESENTATION_REPRESENTATION (  '', ( #41 ), #257 ) ;
#241 = APPLICATION_PROTOCOL_DEFINITION ( 'draft international standard', 'automotive_design', 1998, #172 ) ;
#242 = ORIENTED_EDGE ( 'NONE', *, *, #116, .T. ) ;
#243 = ORIENTED_EDGE ( 'NONE', *, *, #86, .F. ) ;
#244 = AXIS2_PLACEMENT_3D ( 'NONE', #316, #159, #187 ) ;
#245 = COLOUR_RGB ( '',0.9882352941176471006, 0.7372549019607843590, 0.5176470588235293491 ) ;
#246 = VERTEX_POINT ( 'NONE', #284 ) ;
#247 = CIRCLE ( 'NONE', #350, 2.000000000000000000 ) ;
#248 = EDGE_LOOP ( 'NONE', ( #148, #25, #109, #210 ) ) ;
#249 = CARTESIAN_POINT ( 'NONE',  ( 0.000000000000000000, -5.000000000000000888, 0.000000000000000000 ) ) ;
#250 = CARTESIAN_POINT ( 'NONE',  ( 0.000000000000000000, 6.000000000000000000, 0.000000000000000000 ) ) ;
#251 = PRODUCT_DEFINITION ( 'UNKNOWN', '', #11, #279 ) ;
#252 = ADVANCED_FACE ( 'NONE', ( #4 ), #21, .T. ) ;
#253 =( LENGTH_UNIT ( ) NAMED_UNIT ( * ) SI_UNIT ( .MILLI., .METRE. ) );
#254 = PRESENTATION_STYLE_ASSIGNMENT (( #50 ) ) ;
#255 = DIRECTION ( 'NONE',  ( 0.000000000000000000, 0.000000000000000000, -1.000000000000000000 ) ) ;
#256 = PRODUCT_DEFINITION_SHAPE ( 'NONE', 'NONE',  #366 ) ;
#257 =( GEOMETRIC_REPRESENTATION_CONTEXT ( 3 ) GLOBAL_UNCERTAINTY_ASSIGNED_CONTEXT ( ( #277 ) ) GLOBAL_UNIT_ASSIGNED_CONTEXT ( ( #253, #104, #278 ) ) REPRESENTATION_CONTEXT ( 'NONE', 'WORKASPACE' ) );
#258 = DIRECTION ( 'NONE',  ( 0.000000000000000000, 1.000000000000000000, 0.000000000000000000 ) ) ;
#259 = CARTESIAN_POINT ( 'NONE',  ( 0.000000000000000000, -5.000000000000000888, -2.000000000000000000 ) ) ;
#260 = VERTEX_POINT ( 'NONE', #84 ) ;
#261 = ORIENTED_EDGE ( 'NONE', *, *, #73, .T. ) ;
#262 = PLANE ( 'NONE',  #83 ) ;
#263 =( NAMED_UNIT ( * ) PLANE_ANGLE_UNIT ( ) SI_UNIT ( $, .RADIAN. ) );
#264 = CARTESIAN_POINT ( 'NONE',  ( 0.000000000000000000, 6.000000000000000000, -4.500000000000000000 ) ) ;
#265 = CARTESIAN_POINT ( 'NONE',  ( 5.510910596163087583E-16, 7.900000000000000355, 4.500000000000000000 ) ) ;
#266 = ORIENTED_EDGE ( 'NONE', *, *, #150, .F. ) ;
#267 = APPLICATION_PROTOCOL_DEFINITION ( 'draft international standard', 'automotive_design', 1998, #35 ) ;
#268 = ORIENTED_EDGE ( 'NONE', *, *, #323, .T. ) ;
#269 = APPLICATION_PROTOCOL_DEFINITION ( 'draft international standard', 'automotive_design', 1998, #5 ) ;
#270 = CIRCLE ( 'NONE', #57, 4.500000000000000000 ) ;
#271 = EDGE_CURVE ( 'NONE', #160, #26, #341, .T. ) ;
#272 = CARTESIAN_POINT ( 'NONE',  ( 0.000000000000000000, -6.000000000000000000, 0.000000000000000000 ) ) ;
#273 = MECHANICAL_DESIGN_GEOMETRIC_PRESENTATION_REPRESENTATION (  '', ( #119 ), #103 ) ;
#274 = FACE_OUTER_BOUND ( 'NONE', #66, .T. ) ;
#275 = VERTEX_POINT ( 'NONE', #329 ) ;
#276 = AXIS2_PLACEMENT_3D ( 'NONE', #250, #18, #281 ) ;
#277 = UNCERTAINTY_MEASURE_WITH_UNIT (LENGTH_MEASURE( 1.000000000000000082E-05 ), #253, 'distance_accuracy_value', 'NONE');
#278 =( NAMED_UNIT ( * ) SI_UNIT ( $, .STERADIAN. ) SOLID_ANGLE_UNIT ( ) );
#279 = PRODUCT_DEFINITION_CONTEXT ( 'detailed design', #5, 'design' ) ;
#280 = ADVANCED_FACE ( 'NONE', ( #71 ), #61, .T. ) ;
#281 = DIRECTION ( 'NONE',  ( 0.000000000000000000, 0.000000000000000000, 1.000000000000000000 ) ) ;
#282 = VERTEX_POINT ( 'NONE', #233 ) ;
#283 = CIRCLE ( 'NONE', #154, 2.000000000000000000 ) ;
#284 = CARTESIAN_POINT ( 'NONE',  ( 0.000000000000000000, 6.000000000000000000, -2.000000000000000000 ) ) ;
#285 = DIRECTION ( 'NONE',  ( 0.000000000000000000, 1.000000000000000000, 0.000000000000000000 ) ) ;
#286 = VERTEX_POINT ( 'NONE', #335 ) ;
#287 = CONICAL_SURFACE ( 'NONE', #194, 3.499999999999985789, 1.221730476396034160 ) ;
#288 = CARTESIAN_POINT ( 'NONE',  ( 0.000000000000000000, 6.000000000000000000, 0.000000000000000000 ) ) ;
#289 = PRODUCT_DEFINITION_CONTEXT ( 'detailed design', #172, 'design' ) ;
#290 = DIRECTION ( 'NONE',  ( 0.000000000000000000, 0.000000000000000000, -1.000000000000000000 ) ) ;
#291 = CARTESIAN_POINT ( 'NONE',  ( 0.000000000000000000, -5.000000000000000888, 2.000000000000000000 ) ) ;
#292 = PRESENTATION_STYLE_ASSIGNMENT (( #56 ) ) ;
#293 = ORIENTED_EDGE ( 'NONE', *, *, #330, .T. ) ;
#294 = FACE_OUTER_BOUND ( 'NONE', #248, .T. ) ;
#295 = AXIS2_PLACEMENT_3D ( 'NONE', #288, #114, #235 ) ;
#296 = FILL_AREA_STYLE_COLOUR ( '', #245 ) ;
#297 = VECTOR ( 'NONE', #319, 1000.000000000000000 ) ;
#298 =( GEOMETRIC_REPRESENTATION_CONTEXT ( 3 ) GLOBAL_UNCERTAINTY_ASSIGNED_CONTEXT ( ( #9 ) ) GLOBAL_UNIT_ASSIGNED_CONTEXT ( ( #142, #236, #33 ) ) REPRESENTATION_CONTEXT ( 'NONE', 'WORKASPACE' ) );
#299 = AXIS2_PLACEMENT_3D ( 'NONE', #32, #322, #176 ) ;
#300 = DIRECTION ( 'NONE',  ( -0.000000000000000000, 1.000000000000000000, -0.000000000000000000 ) ) ;
#301 = CARTESIAN_POINT ( 'NONE',  ( 0.000000000000000000, 7.900000000000000355, 0.000000000000000000 ) ) ;
#302 = ADVANCED_FACE ( 'NONE', ( #171 ), #134, .T. ) ;
#303 = ORIENTED_EDGE ( 'NONE', *, *, #170, .F. ) ;
#304 = VECTOR ( 'NONE', #231, 1000.000000000000000 ) ;
#305 = DIRECTION ( 'NONE',  ( 0.000000000000000000, 0.000000000000000000, -1.000000000000000000 ) ) ;
#306 = ORIENTED_EDGE ( 'NONE', *, *, #158, .F. ) ;
#307 = EDGE_CURVE ( 'NONE', #260, #275, #129, .T. ) ;
#308 = ADVANCED_FACE ( 'NONE', ( #226 ), #347, .T. ) ;
#309 = CARTESIAN_POINT ( 'NONE',  ( 5.510910596163087583E-16, 6.000000000000000000, 4.500000000000000000 ) ) ;
#310 = CIRCLE ( 'NONE', #22, 1.636029765733799879 ) ;
#311 = CARTESIAN_POINT ( 'NONE',  ( 0.000000000000000000, 7.900000000000000355, 0.000000000000000000 ) ) ;
#312 = CARTESIAN_POINT ( 'NONE',  ( 2.449293598294706414E-16, 6.000000000000000000, 2.000000000000000000 ) ) ;
#313 = ORIENTED_EDGE ( 'NONE', *, *, #228, .F. ) ;
#314 = CIRCLE ( 'NONE', #98, 3.499999999999985789 ) ;
#315 = ORIENTED_EDGE ( 'NONE', *, *, #158, .T. ) ;
#316 = CARTESIAN_POINT ( 'NONE',  ( 0.000000000000000000, -5.000000000000000888, 0.000000000000000000 ) ) ;
#317 = DIRECTION ( 'NONE',  ( 0.000000000000000000, 0.000000000000000000, 1.000000000000000000 ) ) ;
#318 = EDGE_CURVE ( 'NONE', #26, #160, #270, .T. ) ;
#319 = DIRECTION ( 'NONE',  ( 0.000000000000000000, -0.3420201433256655488, -0.9396926207859095381 ) ) ;
#320 = CARTESIAN_POINT ( 'NONE',  ( 5.999999999999999112, 0.000000000000000000, -4.625326157679306051E-17 ) ) ;
#321 = AXIS2_PLACEMENT_3D ( 'NONE', #108, #85, #55 ) ;
#322 = DIRECTION ( 'NONE',  ( -1.166877231310014266E-16, 5.551115123125782702E-17, 1.000000000000000222 ) ) ;
#323 = EDGE_CURVE ( 'NONE', #286, #14, #355, .T. ) ;
#324 = CARTESIAN_POINT ( 'NONE',  ( 0.000000000000000000, -5.000000000000000888, 0.000000000000000000 ) ) ;
#325 = ORIENTED_EDGE ( 'NONE', *, *, #86, .T. ) ;
#326 = AXIS2_PLACEMENT_3D ( 'NONE', #364, #166, #290 ) ;
#327 = CONICAL_SURFACE ( 'NONE', #123, 2.000000000000000000, 0.3490658503988642303 ) ;
#328 = EDGE_LOOP ( 'NONE', ( #95, #100 ) ) ;
#329 = CARTESIAN_POINT ( 'NONE',  ( 5.510910596163087583E-16, 7.536029765733797348, 4.500000000000000000 ) ) ;
#330 = EDGE_CURVE ( 'NONE', #275, #160, #40, .T. ) ;
#331 = FACE_OUTER_BOUND ( 'NONE', #356, .T. ) ;
#332 = PRODUCT_DEFINITION_FORMATION_WITH_SPECIFIED_SOURCE ( 'ANY', '', #69, .NOT_KNOWN. ) ;
#333 = DIRECTION ( 'NONE',  ( 0.000000000000000000, 1.000000000000000000, 0.000000000000000000 ) ) ;
#334 = DIRECTION ( 'NONE',  ( -5.204170427930421283E-17, 1.000000000000000222, 6.245004513516505540E-17 ) ) ;
#335 = CARTESIAN_POINT ( 'NONE',  ( 0.000000000000000000, -6.000000000000000000, 1.636029765733799879 ) ) ;
#336 = EDGE_LOOP ( 'NONE', ( #168, #110 ) ) ;
#337 = EDGE_LOOP ( 'NONE', ( #315, #44 ) ) ;
#338 = DIRECTION ( 'NONE',  ( 0.000000000000000000, 0.9396926207859089830, 0.3420201433256671031 ) ) ;
#339 = DIRECTION ( 'NONE',  ( 0.000000000000000000, 1.000000000000000000, 0.000000000000000000 ) ) ;
#340 =( NAMED_UNIT ( * ) SI_UNIT ( $, .STERADIAN. ) SOLID_ANGLE_UNIT ( ) );
#341 = CIRCLE ( 'NONE', #216, 4.500000000000000000 ) ;
#342 = CARTESIAN_POINT ( 'NONE',  ( 4.898587196589403954E-16, 7.900000000000000355, 3.499999999999985789 ) ) ;
#343 = PRODUCT_CONTEXT ( 'NONE', #35, 'mechanical' ) ;
#344 = APPLICATION_PROTOCOL_DEFINITION ( 'draft international standard', 'automotive_design', 1998, #177 ) ;
#345 = CARTESIAN_POINT ( 'NONE',  ( 0.000000000000000000, -6.000000000000000000, 0.000000000000000000 ) ) ;
#346 = VERTEX_POINT ( 'NONE', #259 ) ;
#347 = CYLINDRICAL_SURFACE ( 'NONE', #326, 2.000000000000000000 ) ;
#348 = VERTEX_POINT ( 'NONE', #198 ) ;
#349 = DIRECTION ( 'NONE',  ( 1.000000000000000000, 0.000000000000000000, 0.000000000000000000 ) ) ;
#350 = AXIS2_PLACEMENT_3D ( 'NONE', #132, #218, #225 ) ;
#351 = ITEM_DEFINED_TRANSFORMATION ( 'NONE', 'NONE', #299,  #224 ) ;
#352 = LINE ( 'NONE', #76, #92 ) ;
#353 = DIRECTION ( 'NONE',  ( 0.000000000000000000, 0.000000000000000000, 1.000000000000000000 ) ) ;
#354 = ADVANCED_FACE ( 'NONE', ( #181 ), #262, .T. ) ;
#355 = LINE ( 'NONE', #291, #78 ) ;
#356 = EDGE_LOOP ( 'NONE', ( #121, #227, #242, #82 ) ) ;
#357 = DIRECTION ( 'NONE',  ( -0.000000000000000000, -1.000000000000000000, -0.000000000000000000 ) ) ;
#358 = CARTESIAN_POINT ( 'NONE',  ( 0.000000000000000000, 6.000000000000000000, 0.000000000000000000 ) ) ;
#359 = CLOSED_SHELL ( 'NONE', ( #97, #302, #252, #361, #308, #47, #188, #102, #354, #75, #280 ) ) ;
#360 = FACE_OUTER_BOUND ( 'NONE', #145, .T. ) ;
#361 = ADVANCED_FACE ( 'NONE', ( #331 ), #152, .T. ) ;
#362 = CARTESIAN_POINT ( 'NONE',  ( 2.449293598294706414E-16, 6.000000000000000000, 2.000000000000000000 ) ) ;
#363 = CARTESIAN_POINT ( 'NONE',  ( 0.000000000000000000, 7.900000000000000355, 0.000000000000000000 ) ) ;
#364 = CARTESIAN_POINT ( 'NONE',  ( 0.000000000000000000, 6.000000000000000000, 0.000000000000000000 ) ) ;
#365 = NEXT_ASSEMBLY_USAGE_OCCURRENCE ( 'NAUO1', ' ', ' ', #113, #251, $ ) ;
#366 = NEXT_ASSEMBLY_USAGE_OCCURRENCE ( 'NAUO2', ' ', ' ', #113, #251, $ ) ;
ENDSEC;
END-ISO-10303-21;
