ISO-10303-21;
HEADER;
FILE_DESCRIPTION (( 'STEP AP214' ),
    '1' );
FILE_NAME ('46758~0.STEP',
    '2020-02-17T12:05:45',
    ( '' ),
    ( '' ),
    'SwSTEP 2.0',
    'SolidWorks 2018',
    '' );
FILE_SCHEMA (( 'AUTOMOTIVE_DESIGN' ));
ENDSEC;

DATA;
#1 = DIRECTION ( 'NONE',  ( 0.0000000000000000000, 0.0000000000000000000, -1.000000000000000000 ) ) ;
#2 = ORIENTED_EDGE ( 'NONE', *, *, #15, .T. ) ;
#3 = DIRECTION ( 'NONE',  ( 0.0000000000000000000, 0.0000000000000000000, -1.000000000000000000 ) ) ;
#4 = EDGE_CURVE ( 'NONE', #307, #9, #123, .T. ) ;
#5 = CARTESIAN_POINT ( 'NONE',  ( 0.0000000000000000000, -1.353190020973723754E-15, 0.0000000000000000000 ) ) ;
#6 = FILL_AREA_STYLE_COLOUR ( '', #287 ) ;
#7 = CIRCLE ( 'NONE', #179, 1.649999999999989919 ) ;
#8 = DIRECTION ( 'NONE',  ( 0.0000000000000000000, 0.0000000000000000000, -1.000000000000000000 ) ) ;
#9 = VERTEX_POINT ( 'NONE', #191 ) ;
#10 = CARTESIAN_POINT ( 'NONE',  ( 0.0000000000000000000, 44.00000000000000000, 0.0000000000000000000 ) ) ;
#11 = DIRECTION ( 'NONE',  ( -0.0000000000000000000, -1.000000000000000000, -0.0000000000000000000 ) ) ;
#12 = AXIS2_PLACEMENT_3D ( 'NONE', #113, #203, #294 ) ;
#13 = CYLINDRICAL_SURFACE ( 'NONE', #19, 5.999999999999999112 ) ;
#14 = ORIENTED_EDGE ( 'NONE', *, *, #92, .F. ) ;
#15 = EDGE_CURVE ( 'NONE', #77, #76, #193, .T. ) ;
#16 = CARTESIAN_POINT ( 'NONE',  ( 0.0000000000000000000, 0.0000000000000000000, 0.0000000000000000000 ) ) ;
#17 = VECTOR ( 'NONE', #140, 1000.000000000000000 ) ;
#18 = PRODUCT_DEFINITION_FORMATION_WITH_SPECIFIED_SOURCE ( 'ANY', '', #327, .NOT_KNOWN. ) ;
#19 = AXIS2_PLACEMENT_3D ( 'NONE', #141, #28, #107 ) ;
#20 = SURFACE_STYLE_FILL_AREA ( #353 ) ;
#21 = EDGE_CURVE ( 'NONE', #186, #339, #36, .T. ) ;
#22 = ORIENTED_EDGE ( 'NONE', *, *, #131, .F. ) ;
#23 = DIRECTION ( 'NONE',  ( 0.0000000000000000000, 0.0000000000000000000, -1.000000000000000000 ) ) ;
#24 = AXIS2_PLACEMENT_3D ( 'NONE', #5, #119, #322 ) ;
#25 = CARTESIAN_POINT ( 'NONE',  ( 0.0000000000000000000, 15.50000000000000000, -1.649999999999996803 ) ) ;
#26 = VERTEX_POINT ( 'NONE', #190 ) ;
#27 = ORIENTED_EDGE ( 'NONE', *, *, #21, .F. ) ;
#28 = DIRECTION ( 'NONE',  ( -0.0000000000000000000, -1.000000000000000000, -0.0000000000000000000 ) ) ;
#29 = ORIENTED_EDGE ( 'NONE', *, *, #309, .T. ) ;
#30 = DIRECTION ( 'NONE',  ( 0.0000000000000000000, 0.0000000000000000000, -1.000000000000000000 ) ) ;
#31 = CARTESIAN_POINT ( 'NONE',  ( 4.460860555992904681E-16, 49.69134171618254214, 3.642569073057415174 ) ) ;
#32 = SURFACE_SIDE_STYLE ('',( #20 ) ) ;
#33 = STYLED_ITEM ( 'NONE', ( #335 ), #55 ) ;
#34 = PLANE ( 'NONE',  #144 ) ;
#35 =( GEOMETRIC_REPRESENTATION_CONTEXT ( 3 ) GLOBAL_UNCERTAINTY_ASSIGNED_CONTEXT ( ( #211 ) ) GLOBAL_UNIT_ASSIGNED_CONTEXT ( ( #58, #265, #241 ) ) REPRESENTATION_CONTEXT ( 'NONE', 'WORKASPACE' ) );
#36 = LINE ( 'NONE', #221, #228 ) ;
#37 = EDGE_CURVE ( 'NONE', #157, #186, #270, .T. ) ;
#38 = EDGE_CURVE ( 'NONE', #9, #233, #306, .T. ) ;
#39 =( LENGTH_UNIT ( ) NAMED_UNIT ( * ) SI_UNIT ( .MILLI., .METRE. ) );
#40 = FILL_AREA_STYLE ('',( #217 ) ) ;
#41 = DIRECTION ( 'NONE',  ( 0.0000000000000000000, -0.9238795325112862944, -0.3826834323650910030 ) ) ;
#42 = ORIENTED_EDGE ( 'NONE', *, *, #4, .T. ) ;
#43 = UNCERTAINTY_MEASURE_WITH_UNIT (LENGTH_MEASURE( 1.000000000000000082E-05 ), #63, 'distance_accuracy_value', 'NONE');
#44 = DIRECTION ( 'NONE',  ( -0.0000000000000000000, -1.000000000000000000, -0.0000000000000000000 ) ) ;
#45 = PRESENTATION_STYLE_ASSIGNMENT (( #132 ) ) ;
#46 = ORIENTED_EDGE ( 'NONE', *, *, #131, .T. ) ;
#47 = PRESENTATION_LAYER_ASSIGNMENT (  '', '', ( #33 ) ) ;
#48 = CARTESIAN_POINT ( 'NONE',  ( 0.0000000000000000000, 49.69134171618254214, 0.0000000000000000000 ) ) ;
#49 = FACE_OUTER_BOUND ( 'NONE', #51, .T. ) ;
#50 = CARTESIAN_POINT ( 'NONE',  ( 7.347880794884118750E-16, 0.0000000000000000000, 5.999999999999998224 ) ) ;
#51 = EDGE_LOOP ( 'NONE', ( #176, #299 ) ) ;
#52 = EDGE_LOOP ( 'NONE', ( #331, #356 ) ) ;
#53 = FILL_AREA_STYLE ('',( #235 ) ) ;
#54 = CONICAL_SURFACE ( 'NONE', #375, 1.649999999999996803, 1.047197551196594967 ) ;
#55 = ADVANCED_BREP_SHAPE_REPRESENTATION ( '46758~0', ( #112, #69 ), #35 ) ;
#56 = DIRECTION ( 'NONE',  ( 1.000000000000000000, 0.0000000000000000000, -1.224646799147353207E-16 ) ) ;
#57 = AXIS2_PLACEMENT_3D ( 'NONE', #341, #230, #166 ) ;
#58 =( LENGTH_UNIT ( ) NAMED_UNIT ( * ) SI_UNIT ( .MILLI., .METRE. ) );
#59 = SURFACE_STYLE_USAGE ( .BOTH. , #32 ) ;
#60 = CARTESIAN_POINT ( 'NONE',  ( 0.0000000000000000000, 0.0000000000000000000, 0.0000000000000000000 ) ) ;
#61 = CIRCLE ( 'NONE', #187, 3.180629306801772138 ) ;
#62 = ORIENTED_EDGE ( 'NONE', *, *, #37, .F. ) ;
#63 =( LENGTH_UNIT ( ) NAMED_UNIT ( * ) SI_UNIT ( .MILLI., .METRE. ) );
#64 = AXIS2_PLACEMENT_3D ( 'NONE', #310, #365, #23 ) ;
#65 = PRESENTATION_STYLE_ASSIGNMENT (( #346 ) ) ;
#66 = LINE ( 'NONE', #72, #127 ) ;
#67 = ORIENTED_EDGE ( 'NONE', *, *, #367, .T. ) ;
#68 = ADVANCED_FACE ( 'NONE', ( #260 ), #236, .F. ) ;
#69 = AXIS2_PLACEMENT_3D ( 'NONE', #60, #88, #269 ) ;
#70 = CARTESIAN_POINT ( 'NONE',  ( 0.0000000000000000000, 49.69134171618254214, -3.642569073057415174 ) ) ;
#71 = EDGE_CURVE ( 'NONE', #26, #157, #105, .T. ) ;
#72 = CARTESIAN_POINT ( 'NONE',  ( 0.0000000000000000000, 0.0000000000000000000, -1.649999999999993472 ) ) ;
#73 = DIRECTION ( 'NONE',  ( -0.0000000000000000000, -1.000000000000000000, -0.0000000000000000000 ) ) ;
#74 = AXIS2_PLACEMENT_3D ( 'NONE', #368, #304, #168 ) ;
#75 =( NAMED_UNIT ( * ) PLANE_ANGLE_UNIT ( ) SI_UNIT ( $, .RADIAN. ) );
#76 = VERTEX_POINT ( 'NONE', #25 ) ;
#77 = VERTEX_POINT ( 'NONE', #223 ) ;
#78 = DIRECTION ( 'NONE',  ( 0.0000000000000000000, 0.0000000000000000000, -1.000000000000000000 ) ) ;
#79 = FACE_OUTER_BOUND ( 'NONE', #209, .T. ) ;
#80 = SURFACE_STYLE_FILL_AREA ( #40 ) ;
#81 = AXIS2_PLACEMENT_3D ( 'NONE', #16, #247, #250 ) ;
#82 = ORIENTED_EDGE ( 'NONE', *, *, #120, .F. ) ;
#83 = CARTESIAN_POINT ( 'NONE',  ( 0.0000000000000000000, 49.50000000000000000, 0.0000000000000000000 ) ) ;
#84 = CARTESIAN_POINT ( 'NONE',  ( 0.0000000000000000000, 49.50000000000000000, 0.0000000000000000000 ) ) ;
#85 = EDGE_LOOP ( 'NONE', ( #165, #42, #257, #62 ) ) ;
#86 = ORIENTED_EDGE ( 'NONE', *, *, #38, .F. ) ;
#87 = AXIS2_PLACEMENT_3D ( 'NONE', #48, #44, #106 ) ;
#88 = DIRECTION ( 'NONE',  ( 0.0000000000000000000, 0.0000000000000000000, 1.000000000000000000 ) ) ;
#89 = APPLICATION_PROTOCOL_DEFINITION ( 'draft international standard', 'automotive_design', 1998, #118 ) ;
#90 = PRODUCT_DEFINITION ( 'UNKNOWN', '', #18, #98 ) ;
#91 = VERTEX_POINT ( 'NONE', #338 ) ;
#92 = EDGE_CURVE ( 'NONE', #255, #26, #321, .T. ) ;
#93 = MECHANICAL_DESIGN_GEOMETRIC_PRESENTATION_REPRESENTATION (  '', ( #297 ), #360 ) ;
#94 = SURFACE_STYLE_FILL_AREA ( #53 ) ;
#95 = ORIENTED_EDGE ( 'NONE', *, *, #38, .T. ) ;
#96 = EDGE_LOOP ( 'NONE', ( #232, #189, #362 ) ) ;
#97 = CARTESIAN_POINT ( 'NONE',  ( 0.0000000000000000000, 44.00000000000000000, -6.000000000000000000 ) ) ;
#98 = PRODUCT_DEFINITION_CONTEXT ( 'detailed design', #323, 'design' ) ;
#99 = CARTESIAN_POINT ( 'NONE',  ( 7.347880794884118750E-16, -2.999999999999999112, 5.999999999999999112 ) ) ;
#100 = PRESENTATION_STYLE_ASSIGNMENT (( #276 ) ) ;
#101 = CARTESIAN_POINT ( 'NONE',  ( 0.0000000000000000000, 50.00000000000000000, 0.0000000000000000000 ) ) ;
#102 = ADVANCED_FACE ( 'NONE', ( #219 ), #298, .T. ) ;
#103 = EDGE_CURVE ( 'NONE', #233, #339, #153, .T. ) ;
#104 = CARTESIAN_POINT ( 'NONE',  ( 2.020667218593129057E-16, 15.50000000000000000, 1.649999999999996803 ) ) ;
#105 = CIRCLE ( 'NONE', #74, 0.4999999999999987232 ) ;
#106 = DIRECTION ( 'NONE',  ( 0.0000000000000000000, 0.0000000000000000000, -1.000000000000000000 ) ) ;
#107 = DIRECTION ( 'NONE',  ( 0.0000000000000000000, 0.0000000000000000000, -1.000000000000000000 ) ) ;
#108 = CIRCLE ( 'NONE', #24, 1.649999999999989919 ) ;
#109 =( GEOMETRIC_REPRESENTATION_CONTEXT ( 3 ) GLOBAL_UNCERTAINTY_ASSIGNED_CONTEXT ( ( #43 ) ) GLOBAL_UNIT_ASSIGNED_CONTEXT ( ( #63, #147, #184 ) ) REPRESENTATION_CONTEXT ( 'NONE', 'WORKASPACE' ) );
#110 = VECTOR ( 'NONE', #160, 1000.000000000000000 ) ;
#111 = EDGE_LOOP ( 'NONE', ( #374, #372, #261, #82 ) ) ;
#112 = MANIFOLD_SOLID_BREP ( 'M4x0.7 Gewindekernloch1', #366 ) ;
#113 = CARTESIAN_POINT ( 'NONE',  ( 0.0000000000000000000, 0.0000000000000000000, 0.0000000000000000000 ) ) ;
#114 = EDGE_CURVE ( 'NONE', #76, #91, #66, .T. ) ;
#115 = DIRECTION ( 'NONE',  ( -1.224646799147353700E-16, 0.0000000000000000000, -1.000000000000000000 ) ) ;
#116 = EDGE_CURVE ( 'NONE', #26, #255, #61, .T. ) ;
#117 = ORIENTED_EDGE ( 'NONE', *, *, #240, .F. ) ;
#118 = APPLICATION_CONTEXT ( 'automotive_design' ) ;
#119 = DIRECTION ( 'NONE',  ( -0.0000000000000000000, -1.000000000000000000, -0.0000000000000000000 ) ) ;
#120 = EDGE_CURVE ( 'NONE', #307, #157, #148, .T. ) ;
#121 = FACE_OUTER_BOUND ( 'NONE', #128, .T. ) ;
#122 = DIRECTION ( 'NONE',  ( -0.0000000000000000000, -1.000000000000000000, -0.0000000000000000000 ) ) ;
#123 = LINE ( 'NONE', #162, #344 ) ;
#124 = AXIS2_PLACEMENT_3D ( 'NONE', #195, #73, #256 ) ;
#125 = CIRCLE ( 'NONE', #292, 6.000000000000000000 ) ;
#126 = VERTEX_POINT ( 'NONE', #104 ) ;
#127 = VECTOR ( 'NONE', #314, 1000.000000000000000 ) ;
#128 = EDGE_LOOP ( 'NONE', ( #246, #14 ) ) ;
#129 = AXIS2_PLACEMENT_3D ( 'NONE', #231, #332, #164 ) ;
#130 =( NAMED_UNIT ( * ) SI_UNIT ( $, .STERADIAN. ) SOLID_ANGLE_UNIT ( ) );
#131 = EDGE_CURVE ( 'NONE', #9, #186, #207, .T. ) ;
#132 = SURFACE_STYLE_USAGE ( .BOTH. , #369 ) ;
#133 = FACE_BOUND ( 'NONE', #52, .T. ) ;
#134 = ADVANCED_FACE ( 'NONE', ( #371 ), #243, .F. ) ;
#135 = ORIENTED_EDGE ( 'NONE', *, *, #37, .T. ) ;
#136 = CARTESIAN_POINT ( 'NONE',  ( 0.0000000000000000000, 44.00000000000000000, 0.0000000000000000000 ) ) ;
#137 = AXIS2_PLACEMENT_3D ( 'NONE', #202, #234, #1 ) ;
#138 = ADVANCED_FACE ( 'NONE', ( #348 ), #214, .T. ) ;
#139 = DIRECTION ( 'NONE',  ( 0.0000000000000000000, 0.0000000000000000000, -1.000000000000000000 ) ) ;
#140 = DIRECTION ( 'NONE',  ( -0.0000000000000000000, -1.000000000000000000, -0.0000000000000000000 ) ) ;
#141 = CARTESIAN_POINT ( 'NONE',  ( 0.0000000000000000000, -2.999999999999999112, 0.0000000000000000000 ) ) ;
#142 = DIRECTION ( 'NONE',  ( -0.0000000000000000000, -1.000000000000000000, -0.0000000000000000000 ) ) ;
#143 = CIRCLE ( 'NONE', #175, 0.4999999999999987232 ) ;
#144 = AXIS2_PLACEMENT_3D ( 'NONE', #267, #291, #290 ) ;
#145 = DIRECTION ( 'NONE',  ( 0.0000000000000000000, 0.0000000000000000000, -1.000000000000000000 ) ) ;
#146 = APPLICATION_PROTOCOL_DEFINITION ( 'draft international standard', 'automotive_design', 1998, #323 ) ;
#147 =( NAMED_UNIT ( * ) PLANE_ANGLE_UNIT ( ) SI_UNIT ( $, .RADIAN. ) );
#148 = CIRCLE ( 'NONE', #87, 3.642569073057414286 ) ;
#149 = VERTEX_POINT ( 'NONE', #254 ) ;
#150 = DIRECTION ( 'NONE',  ( 0.0000000000000000000, 0.0000000000000000000, -1.000000000000000000 ) ) ;
#151 = MECHANICAL_DESIGN_GEOMETRIC_PRESENTATION_REPRESENTATION (  '', ( #33 ), #109 ) ;
#152 = CYLINDRICAL_SURFACE ( 'NONE', #12, 1.649999999999993472 ) ;
#153 = CIRCLE ( 'NONE', #124, 5.999999999999998224 ) ;
#154 = EDGE_CURVE ( 'NONE', #126, #149, #284, .T. ) ;
#155 = ORIENTED_EDGE ( 'NONE', *, *, #355, .F. ) ;
#156 = PRESENTATION_LAYER_ASSIGNMENT (  '', '', ( #249 ) ) ;
#157 = VERTEX_POINT ( 'NONE', #70 ) ;
#158 = EDGE_CURVE ( 'NONE', #77, #126, #354, .T. ) ;
#159 = ORIENTED_EDGE ( 'NONE', *, *, #351, .T. ) ;
#160 = DIRECTION ( 'NONE',  ( 0.0000000000000000000, -0.5000000000000024425, -0.8660254037844372643 ) ) ;
#161 = ADVANCED_FACE ( 'NONE', ( #133, #49 ), #317, .T. ) ;
#162 = CARTESIAN_POINT ( 'NONE',  ( 7.347880794884119736E-16, 44.00000000000000000, 6.000000000000000000 ) ) ;
#163 = COLOUR_RGB ( '',0.5019607843137254832, 0.5019607843137254832, 0.5019607843137254832 ) ;
#164 = DIRECTION ( 'NONE',  ( 0.0000000000000000000, 0.0000000000000000000, -1.000000000000000000 ) ) ;
#165 = ORIENTED_EDGE ( 'NONE', *, *, #240, .T. ) ;
#166 = DIRECTION ( 'NONE',  ( 0.0000000000000000000, 0.0000000000000000000, -1.000000000000000000 ) ) ;
#167 = ADVANCED_FACE ( 'NONE', ( #180 ), #170, .T. ) ;
#168 = DIRECTION ( 'NONE',  ( 0.0000000000000000000, 0.0000000000000000000, 1.000000000000000000 ) ) ;
#169 = CIRCLE ( 'NONE', #330, 5.999999999999998224 ) ;
#170 = TOROIDAL_SURFACE ( 'NONE', #204, 3.180629306801772138, 0.4999999999999989453 ) ;
#171 = CARTESIAN_POINT ( 'NONE',  ( 2.020667218593128811E-16, 15.50000000000000000, 1.649999999999996803 ) ) ;
#172 = ORIENTED_EDGE ( 'NONE', *, *, #103, .F. ) ;
#173 = DIRECTION ( 'NONE',  ( 0.0000000000000000000, -1.000000000000000000, -0.0000000000000000000 ) ) ;
#174 = CARTESIAN_POINT ( 'NONE',  ( 0.0000000000000000000, 15.50000000000000000, 0.0000000000000000000 ) ) ;
#175 = AXIS2_PLACEMENT_3D ( 'NONE', #268, #56, #115 ) ;
#176 = ORIENTED_EDGE ( 'NONE', *, *, #355, .T. ) ;
#177 = EDGE_CURVE ( 'NONE', #91, #149, #7, .T. ) ;
#178 = CARTESIAN_POINT ( 'NONE',  ( 4.178004027920979678E-16, 50.00000000000000000, 3.180629306801772138 ) ) ;
#179 = AXIS2_PLACEMENT_3D ( 'NONE', #347, #200, #258 ) ;
#180 = FACE_OUTER_BOUND ( 'NONE', #293, .T. ) ;
#181 =( NAMED_UNIT ( * ) SI_UNIT ( $, .STERADIAN. ) SOLID_ANGLE_UNIT ( ) );
#182 = ORIENTED_EDGE ( 'NONE', *, *, #4, .F. ) ;
#183 = ORIENTED_EDGE ( 'NONE', *, *, #120, .T. ) ;
#184 =( NAMED_UNIT ( * ) SI_UNIT ( $, .STERADIAN. ) SOLID_ANGLE_UNIT ( ) );
#185 =( NAMED_UNIT ( * ) PLANE_ANGLE_UNIT ( ) SI_UNIT ( $, .RADIAN. ) );
#186 = VERTEX_POINT ( 'NONE', #342 ) ;
#187 = AXIS2_PLACEMENT_3D ( 'NONE', #101, #198, #308 ) ;
#188 = DIRECTION ( 'NONE',  ( -0.0000000000000000000, -1.000000000000000000, -0.0000000000000000000 ) ) ;
#189 = ORIENTED_EDGE ( 'NONE', *, *, #158, .T. ) ;
#190 = CARTESIAN_POINT ( 'NONE',  ( 0.0000000000000000000, 50.00000000000000000, -3.180629306801772138 ) ) ;
#191 = CARTESIAN_POINT ( 'NONE',  ( 7.347880794884119736E-16, 44.00000000000000000, 6.000000000000000000 ) ) ;
#192 = TOROIDAL_SURFACE ( 'NONE', #345, 3.180629306801772138, 0.4999999999999989453 ) ;
#193 = LINE ( 'NONE', #218, #110 ) ;
#194 = AXIS2_PLACEMENT_3D ( 'NONE', #229, #199, #280 ) ;
#195 = CARTESIAN_POINT ( 'NONE',  ( 0.0000000000000000000, 0.0000000000000000000, 0.0000000000000000000 ) ) ;
#196 = ADVANCED_FACE ( 'NONE', ( #336 ), #54, .F. ) ;
#197 = AXIS2_PLACEMENT_3D ( 'NONE', #10, #122, #349 ) ;
#198 = DIRECTION ( 'NONE',  ( -0.0000000000000000000, -1.000000000000000000, -0.0000000000000000000 ) ) ;
#199 = DIRECTION ( 'NONE',  ( -0.0000000000000000000, -1.000000000000000000, -0.0000000000000000000 ) ) ;
#200 = DIRECTION ( 'NONE',  ( -0.0000000000000000000, -1.000000000000000000, -0.0000000000000000000 ) ) ;
#201 = EDGE_LOOP ( 'NONE', ( #273, #222, #29, #271 ) ) ;
#202 = CARTESIAN_POINT ( 'NONE',  ( 0.0000000000000000000, 15.50000000000000000, 0.0000000000000000000 ) ) ;
#203 = DIRECTION ( 'NONE',  ( -0.0000000000000000000, -1.000000000000000000, -0.0000000000000000000 ) ) ;
#204 = AXIS2_PLACEMENT_3D ( 'NONE', #83, #283, #78 ) ;
#205 = DIRECTION ( 'NONE',  ( 0.0000000000000000000, 0.0000000000000000000, -1.000000000000000000 ) ) ;
#206 = CARTESIAN_POINT ( 'NONE',  ( 0.0000000000000000000, 0.0000000000000000000, 0.0000000000000000000 ) ) ;
#207 = CIRCLE ( 'NONE', #272, 6.000000000000000000 ) ;
#208 = CARTESIAN_POINT ( 'NONE',  ( 0.0000000000000000000, 44.00000000000000000, 0.0000000000000000000 ) ) ;
#209 = EDGE_LOOP ( 'NONE', ( #220, #326, #337, #289 ) ) ;
#210 = PRODUCT_CONTEXT ( 'NONE', #118, 'mechanical' ) ;
#211 = UNCERTAINTY_MEASURE_WITH_UNIT (LENGTH_MEASURE( 1.000000000000000082E-05 ), #58, 'distance_accuracy_value', 'NONE');
#212 = AXIS2_PLACEMENT_3D ( 'NONE', #316, #173, #373 ) ;
#213 = PRODUCT_DEFINITION_SHAPE ( 'NONE', 'NONE',  #90 ) ;
#214 = CYLINDRICAL_SURFACE ( 'NONE', #57, 5.999999999999999112 ) ;
#215 = VECTOR ( 'NONE', #41, 1000.000000000000000 ) ;
#216 = EDGE_CURVE ( 'NONE', #126, #76, #359, .T. ) ;
#217 = FILL_AREA_STYLE_COLOUR ( '', #163 ) ;
#218 = CARTESIAN_POINT ( 'NONE',  ( 0.0000000000000000000, 15.50000000000000000, -1.649999999999996803 ) ) ;
#219 = FACE_OUTER_BOUND ( 'NONE', #85, .T. ) ;
#220 = ORIENTED_EDGE ( 'NONE', *, *, #154, .F. ) ;
#221 = CARTESIAN_POINT ( 'NONE',  ( 0.0000000000000000000, -2.999999999999999112, -5.999999999999999112 ) ) ;
#222 = ORIENTED_EDGE ( 'NONE', *, *, #154, .T. ) ;
#223 = CARTESIAN_POINT ( 'NONE',  ( -4.029598543499493580E-15, 16.45262794416288443, 0.0000000000000000000 ) ) ;
#224 = ADVANCED_FACE ( 'NONE', ( #313 ), #13, .T. ) ;
#225 = FILL_AREA_STYLE ('',( #364 ) ) ;
#226 = SHAPE_DEFINITION_REPRESENTATION ( #213, #55 ) ;
#227 = STYLED_ITEM ( 'NONE', ( #100 ), #68 ) ;
#228 = VECTOR ( 'NONE', #188, 1000.000000000000000 ) ;
#229 = CARTESIAN_POINT ( 'NONE',  ( 0.0000000000000000000, 44.00000000000000000, 0.0000000000000000000 ) ) ;
#230 = DIRECTION ( 'NONE',  ( -0.0000000000000000000, -1.000000000000000000, -0.0000000000000000000 ) ) ;
#231 = CARTESIAN_POINT ( 'NONE',  ( 0.0000000000000000000, 50.00000000000000000, 0.0000000000000000000 ) ) ;
#232 = ORIENTED_EDGE ( 'NONE', *, *, #15, .F. ) ;
#233 = VERTEX_POINT ( 'NONE', #50 ) ;
#234 = DIRECTION ( 'NONE',  ( -0.0000000000000000000, -1.000000000000000000, -0.0000000000000000000 ) ) ;
#235 = FILL_AREA_STYLE_COLOUR ( '', #305 ) ;
#236 = CYLINDRICAL_SURFACE ( 'NONE', #81, 1.649999999999993472 ) ;
#237 = MECHANICAL_DESIGN_GEOMETRIC_PRESENTATION_REPRESENTATION (  '', ( #249 ), #320 ) ;
#238 = CIRCLE ( 'NONE', #137, 1.649999999999996803 ) ;
#239 = ORIENTED_EDGE ( 'NONE', *, *, #158, .F. ) ;
#240 = EDGE_CURVE ( 'NONE', #157, #307, #295, .T. ) ;
#241 =( NAMED_UNIT ( * ) SI_UNIT ( $, .STERADIAN. ) SOLID_ANGLE_UNIT ( ) );
#242 = UNCERTAINTY_MEASURE_WITH_UNIT (LENGTH_MEASURE( 1.000000000000000082E-05 ), #252, 'distance_accuracy_value', 'NONE');
#243 = CONICAL_SURFACE ( 'NONE', #64, 1.649999999999996803, 1.047197551196594967 ) ;
#244 = ORIENTED_EDGE ( 'NONE', *, *, #116, .T. ) ;
#245 = EDGE_CURVE ( 'NONE', #76, #126, #238, .T. ) ;
#246 = ORIENTED_EDGE ( 'NONE', *, *, #116, .F. ) ;
#247 = DIRECTION ( 'NONE',  ( -0.0000000000000000000, -1.000000000000000000, -0.0000000000000000000 ) ) ;
#248 =( NAMED_UNIT ( * ) PLANE_ANGLE_UNIT ( ) SI_UNIT ( $, .RADIAN. ) );
#249 = STYLED_ITEM ( 'NONE', ( #45 ), #112 ) ;
#250 = DIRECTION ( 'NONE',  ( 0.0000000000000000000, 0.0000000000000000000, -1.000000000000000000 ) ) ;
#251 = ORIENTED_EDGE ( 'NONE', *, *, #71, .F. ) ;
#252 =( LENGTH_UNIT ( ) NAMED_UNIT ( * ) SI_UNIT ( .MILLI., .METRE. ) );
#253 = DIRECTION ( 'NONE',  ( -0.0000000000000000000, -1.000000000000000000, -0.0000000000000000000 ) ) ;
#254 = CARTESIAN_POINT ( 'NONE',  ( 2.020667218593122894E-16, -1.353190020973723754E-15, 1.649999999999989919 ) ) ;
#255 = VERTEX_POINT ( 'NONE', #178 ) ;
#256 = DIRECTION ( 'NONE',  ( 0.0000000000000000000, 0.0000000000000000000, -1.000000000000000000 ) ) ;
#257 = ORIENTED_EDGE ( 'NONE', *, *, #351, .F. ) ;
#258 = DIRECTION ( 'NONE',  ( 0.0000000000000000000, 0.0000000000000000000, -1.000000000000000000 ) ) ;
#259 = CARTESIAN_POINT ( 'NONE',  ( 0.0000000000000000000, 15.50000000000000000, 0.0000000000000000000 ) ) ;
#260 = FACE_OUTER_BOUND ( 'NONE', #201, .T. ) ;
#261 = ORIENTED_EDGE ( 'NONE', *, *, #71, .T. ) ;
#262 = DIRECTION ( 'NONE',  ( 1.060575238724905189E-16, -0.5000000000000024425, 0.8660254037844372643 ) ) ;
#263 = CARTESIAN_POINT ( 'NONE',  ( 0.0000000000000000000, 0.0000000000000000000, -5.999999999999998224 ) ) ;
#264 = CONICAL_SURFACE ( 'NONE', #197, 6.000000000000000000, 0.3926990816987254718 ) ;
#265 =( NAMED_UNIT ( * ) PLANE_ANGLE_UNIT ( ) SI_UNIT ( $, .RADIAN. ) );
#266 = EDGE_LOOP ( 'NONE', ( #182, #183, #135, #22 ) ) ;
#267 = CARTESIAN_POINT ( 'NONE',  ( 3.180629306801772138, 50.00000000000000000, 0.0000000000000000000 ) ) ;
#268 = CARTESIAN_POINT ( 'NONE',  ( 3.895147499849055167E-16, 49.50000000000000000, 3.180629306801772138 ) ) ;
#269 = DIRECTION ( 'NONE',  ( 1.000000000000000000, 0.0000000000000000000, 0.0000000000000000000 ) ) ;
#270 = LINE ( 'NONE', #97, #215 ) ;
#271 = ORIENTED_EDGE ( 'NONE', *, *, #114, .F. ) ;
#272 = AXIS2_PLACEMENT_3D ( 'NONE', #136, #253, #139 ) ;
#273 = ORIENTED_EDGE ( 'NONE', *, *, #216, .F. ) ;
#274 = AXIS2_PLACEMENT_3D ( 'NONE', #288, #376, #205 ) ;
#275 = DIRECTION ( 'NONE',  ( 4.686520405326313376E-17, -0.9238795325112862944, 0.3826834323650910030 ) ) ;
#276 = SURFACE_STYLE_USAGE ( .BOTH. , #301 ) ;
#277 = VECTOR ( 'NONE', #262, 1000.000000000000000 ) ;
#278 = UNCERTAINTY_MEASURE_WITH_UNIT (LENGTH_MEASURE( 1.000000000000000082E-05 ), #352, 'distance_accuracy_value', 'NONE');
#279 = ADVANCED_FACE ( 'NONE', ( #79 ), #152, .F. ) ;
#280 = DIRECTION ( 'NONE',  ( 0.0000000000000000000, 0.0000000000000000000, -1.000000000000000000 ) ) ;
#281 = AXIS2_PLACEMENT_3D ( 'NONE', #174, #142, #3 ) ;
#282 =( NAMED_UNIT ( * ) SI_UNIT ( $, .STERADIAN. ) SOLID_ANGLE_UNIT ( ) );
#283 = DIRECTION ( 'NONE',  ( -0.0000000000000000000, -1.000000000000000000, -0.0000000000000000000 ) ) ;
#284 = LINE ( 'NONE', #311, #17 ) ;
#285 = PRODUCT_RELATED_PRODUCT_CATEGORY ( 'part', '', ( #327 ) ) ;
#286 = DIRECTION ( 'NONE',  ( -0.0000000000000000000, -1.000000000000000000, -0.0000000000000000000 ) ) ;
#287 = COLOUR_RGB ( '',1.000000000000000000, 1.000000000000000000, 1.000000000000000000 ) ;
#288 = CARTESIAN_POINT ( 'NONE',  ( 0.0000000000000000000, 49.69134171618254214, 0.0000000000000000000 ) ) ;
#289 = ORIENTED_EDGE ( 'NONE', *, *, #177, .T. ) ;
#290 = DIRECTION ( 'NONE',  ( 0.0000000000000000000, -0.0000000000000000000, 1.000000000000000000 ) ) ;
#291 = DIRECTION ( 'NONE',  ( 0.0000000000000000000, 1.000000000000000000, 0.0000000000000000000 ) ) ;
#292 = AXIS2_PLACEMENT_3D ( 'NONE', #208, #324, #8 ) ;
#293 = EDGE_LOOP ( 'NONE', ( #244, #67, #117, #251 ) ) ;
#294 = DIRECTION ( 'NONE',  ( 0.0000000000000000000, 0.0000000000000000000, -1.000000000000000000 ) ) ;
#295 = CIRCLE ( 'NONE', #274, 3.642569073057414286 ) ;
#296 = EDGE_LOOP ( 'NONE', ( #86, #46, #315, #172 ) ) ;
#297 = STYLED_ITEM ( 'NONE', ( #65 ), #279 ) ;
#298 = CONICAL_SURFACE ( 'NONE', #194, 6.000000000000000000, 0.3926990816987254718 ) ;
#299 = ORIENTED_EDGE ( 'NONE', *, *, #103, .T. ) ;
#300 = ADVANCED_FACE ( 'NONE', ( #325 ), #192, .T. ) ;
#301 = SURFACE_SIDE_STYLE ('',( #80 ) ) ;
#302 = UNCERTAINTY_MEASURE_WITH_UNIT (LENGTH_MEASURE( 1.000000000000000082E-05 ), #39, 'distance_accuracy_value', 'NONE');
#303 = DIRECTION ( 'NONE',  ( -0.0000000000000000000, -1.000000000000000000, -0.0000000000000000000 ) ) ;
#304 = DIRECTION ( 'NONE',  ( -1.000000000000000000, 0.0000000000000000000, 0.0000000000000000000 ) ) ;
#305 = COLOUR_RGB ( '',0.5019607843137254832, 0.5019607843137254832, 0.5019607843137254832 ) ;
#306 = LINE ( 'NONE', #99, #318 ) ;
#307 = VERTEX_POINT ( 'NONE', #31 ) ;
#308 = DIRECTION ( 'NONE',  ( 0.0000000000000000000, 0.0000000000000000000, -1.000000000000000000 ) ) ;
#309 = EDGE_CURVE ( 'NONE', #149, #91, #108, .T. ) ;
#310 = CARTESIAN_POINT ( 'NONE',  ( 0.0000000000000000000, 15.50000000000000000, 0.0000000000000000000 ) ) ;
#311 = CARTESIAN_POINT ( 'NONE',  ( 2.020667218593124866E-16, 0.0000000000000000000, 1.649999999999993472 ) ) ;
#312 = MECHANICAL_DESIGN_GEOMETRIC_PRESENTATION_REPRESENTATION (  '', ( #227 ), #363 ) ;
#313 = FACE_OUTER_BOUND ( 'NONE', #296, .T. ) ;
#314 = DIRECTION ( 'NONE',  ( -0.0000000000000000000, -1.000000000000000000, -0.0000000000000000000 ) ) ;
#315 = ORIENTED_EDGE ( 'NONE', *, *, #21, .T. ) ;
#316 = CARTESIAN_POINT ( 'NONE',  ( 0.0000000000000000000, 0.0000000000000000000, 0.0000000000000000000 ) ) ;
#317 = PLANE ( 'NONE',  #212 ) ;
#318 = VECTOR ( 'NONE', #303, 1000.000000000000000 ) ;
#319 = SURFACE_SIDE_STYLE ('',( #94 ) ) ;
#320 =( GEOMETRIC_REPRESENTATION_CONTEXT ( 3 ) GLOBAL_UNCERTAINTY_ASSIGNED_CONTEXT ( ( #242 ) ) GLOBAL_UNIT_ASSIGNED_CONTEXT ( ( #252, #75, #282 ) ) REPRESENTATION_CONTEXT ( 'NONE', 'WORKASPACE' ) );
#321 = CIRCLE ( 'NONE', #129, 3.180629306801772138 ) ;
#322 = DIRECTION ( 'NONE',  ( 0.0000000000000000000, 0.0000000000000000000, -1.000000000000000000 ) ) ;
#323 = APPLICATION_CONTEXT ( 'automotive_design' ) ;
#324 = DIRECTION ( 'NONE',  ( -0.0000000000000000000, -1.000000000000000000, -0.0000000000000000000 ) ) ;
#325 = FACE_OUTER_BOUND ( 'NONE', #111, .T. ) ;
#326 = ORIENTED_EDGE ( 'NONE', *, *, #245, .F. ) ;
#327 = PRODUCT ( '46758~0', '46758~0', '', ( #210 ) ) ;
#328 = COLOUR_RGB ( '',1.000000000000000000, 1.000000000000000000, 1.000000000000000000 ) ;
#329 = ORIENTED_EDGE ( 'NONE', *, *, #245, .T. ) ;
#330 = AXIS2_PLACEMENT_3D ( 'NONE', #206, #11, #145 ) ;
#331 = ORIENTED_EDGE ( 'NONE', *, *, #177, .F. ) ;
#332 = DIRECTION ( 'NONE',  ( -0.0000000000000000000, -1.000000000000000000, -0.0000000000000000000 ) ) ;
#333 = PRESENTATION_LAYER_ASSIGNMENT (  '', '', ( #297 ) ) ;
#334 = ADVANCED_FACE ( 'NONE', ( #343 ), #264, .T. ) ;
#335 = PRESENTATION_STYLE_ASSIGNMENT (( #59 ) ) ;
#336 = FACE_OUTER_BOUND ( 'NONE', #96, .T. ) ;
#337 = ORIENTED_EDGE ( 'NONE', *, *, #114, .T. ) ;
#338 = CARTESIAN_POINT ( 'NONE',  ( 0.0000000000000000000, -1.353190020973723754E-15, -1.649999999999989919 ) ) ;
#339 = VERTEX_POINT ( 'NONE', #263 ) ;
#340 = ADVANCED_FACE ( 'NONE', ( #121 ), #34, .T. ) ;
#341 = CARTESIAN_POINT ( 'NONE',  ( 0.0000000000000000000, -2.999999999999999112, 0.0000000000000000000 ) ) ;
#342 = CARTESIAN_POINT ( 'NONE',  ( 0.0000000000000000000, 44.00000000000000000, -6.000000000000000000 ) ) ;
#343 = FACE_OUTER_BOUND ( 'NONE', #266, .T. ) ;
#344 = VECTOR ( 'NONE', #275, 1000.000000000000000 ) ;
#345 = AXIS2_PLACEMENT_3D ( 'NONE', #84, #358, #150 ) ;
#346 = SURFACE_STYLE_USAGE ( .BOTH. , #319 ) ;
#347 = CARTESIAN_POINT ( 'NONE',  ( 0.0000000000000000000, -1.353190020973723754E-15, 0.0000000000000000000 ) ) ;
#348 = FACE_OUTER_BOUND ( 'NONE', #350, .T. ) ;
#349 = DIRECTION ( 'NONE',  ( 0.0000000000000000000, 0.0000000000000000000, -1.000000000000000000 ) ) ;
#350 = EDGE_LOOP ( 'NONE', ( #159, #95, #155, #27 ) ) ;
#351 = EDGE_CURVE ( 'NONE', #186, #9, #125, .T. ) ;
#352 =( LENGTH_UNIT ( ) NAMED_UNIT ( * ) SI_UNIT ( .MILLI., .METRE. ) );
#353 = FILL_AREA_STYLE ('',( #6 ) ) ;
#354 = LINE ( 'NONE', #171, #277 ) ;
#355 = EDGE_CURVE ( 'NONE', #339, #233, #169, .T. ) ;
#356 = ORIENTED_EDGE ( 'NONE', *, *, #309, .F. ) ;
#357 = EDGE_LOOP ( 'NONE', ( #239, #2, #329 ) ) ;
#358 = DIRECTION ( 'NONE',  ( -0.0000000000000000000, -1.000000000000000000, -0.0000000000000000000 ) ) ;
#359 = CIRCLE ( 'NONE', #281, 1.649999999999996803 ) ;
#360 =( GEOMETRIC_REPRESENTATION_CONTEXT ( 3 ) GLOBAL_UNCERTAINTY_ASSIGNED_CONTEXT ( ( #278 ) ) GLOBAL_UNIT_ASSIGNED_CONTEXT ( ( #352, #185, #181 ) ) REPRESENTATION_CONTEXT ( 'NONE', 'WORKASPACE' ) );
#361 = SURFACE_STYLE_FILL_AREA ( #225 ) ;
#362 = ORIENTED_EDGE ( 'NONE', *, *, #216, .T. ) ;
#363 =( GEOMETRIC_REPRESENTATION_CONTEXT ( 3 ) GLOBAL_UNCERTAINTY_ASSIGNED_CONTEXT ( ( #302 ) ) GLOBAL_UNIT_ASSIGNED_CONTEXT ( ( #39, #248, #130 ) ) REPRESENTATION_CONTEXT ( 'NONE', 'WORKASPACE' ) );
#364 = FILL_AREA_STYLE_COLOUR ( '', #328 ) ;
#365 = DIRECTION ( 'NONE',  ( -0.0000000000000000000, -1.000000000000000000, -0.0000000000000000000 ) ) ;
#366 = CLOSED_SHELL ( 'NONE', ( #196, #68, #138, #102, #167, #340, #300, #334, #224, #161, #279, #134 ) ) ;
#367 = EDGE_CURVE ( 'NONE', #255, #307, #143, .T. ) ;
#368 = CARTESIAN_POINT ( 'NONE',  ( 0.0000000000000000000, 49.50000000000000000, -3.180629306801772138 ) ) ;
#369 = SURFACE_SIDE_STYLE ('',( #361 ) ) ;
#370 = PRESENTATION_LAYER_ASSIGNMENT (  '', '', ( #227 ) ) ;
#371 = FACE_OUTER_BOUND ( 'NONE', #357, .T. ) ;
#372 = ORIENTED_EDGE ( 'NONE', *, *, #92, .T. ) ;
#373 = DIRECTION ( 'NONE',  ( 0.0000000000000000000, 0.0000000000000000000, -1.000000000000000000 ) ) ;
#374 = ORIENTED_EDGE ( 'NONE', *, *, #367, .F. ) ;
#375 = AXIS2_PLACEMENT_3D ( 'NONE', #259, #286, #30 ) ;
#376 = DIRECTION ( 'NONE',  ( -0.0000000000000000000, -1.000000000000000000, -0.0000000000000000000 ) ) ;
ENDSEC;
END-ISO-10303-21;
