ISO-10303-21;
HEADER;
FILE_DESCRIPTION (( 'STEP AP214' ),
    '1' );
FILE_NAME ('44253~1.STEP',
    '2017-07-04T13:53:52',
    ( '' ),
    ( '' ),
    'SwSTEP 2.0',
    'SolidWorks 2016',
    '' );
FILE_SCHEMA (( 'AUTOMOTIVE_DESIGN' ));
ENDSEC;

DATA;
#1 = FILL_AREA_STYLE_COLOUR ( '', #215 ) ;
#2 = TOROIDAL_SURFACE ( 'NONE', #252, 3.180629306801772600, 0.5000000000000013300 ) ;
#3 = FACE_OUTER_BOUND ( 'NONE', #9, .T. ) ;
#4 = EDGE_CURVE ( 'NONE', #190, #303, #260, .T. ) ;
#5 = ORIENTED_EDGE ( 'NONE', *, *, #111, .T. ) ;
#6 = EDGE_CURVE ( 'NONE', #285, #87, #353, .T. ) ;
#7 = DIRECTION ( 'NONE',  ( 0.0000000000000000000, -0.5000000000000024400, -0.8660254037844372600 ) ) ;
#8 = VECTOR ( 'NONE', #85, 1000.000000000000000 ) ;
#9 = EDGE_LOOP ( 'NONE', ( #120, #318 ) ) ;
#10 = DIRECTION ( 'NONE',  ( 0.0000000000000000000, 0.0000000000000000000, -1.000000000000000000 ) ) ;
#11 = ADVANCED_BREP_SHAPE_REPRESENTATION ( '44253~1', ( #30, #115 ), #125 ) ;
#12 = EDGE_CURVE ( 'NONE', #175, #107, #281, .T. ) ;
#13 = DIRECTION ( 'NONE',  ( -0.0000000000000000000, -1.000000000000000000, -0.0000000000000000000 ) ) ;
#14 = SURFACE_STYLE_FILL_AREA ( #248 ) ;
#15 = CONICAL_SURFACE ( 'NONE', #327, 6.000000000000000000, 0.3926990816987242000 ) ;
#16 = EDGE_LOOP ( 'NONE', ( #289, #29, #142, #180 ) ) ;
#17 = DIRECTION ( 'NONE',  ( -0.0000000000000000000, -1.000000000000000000, -0.0000000000000000000 ) ) ;
#18 = CARTESIAN_POINT ( 'NONE',  ( 0.0000000000000000000, 0.0000000000000000000, -5.999999999999998200 ) ) ;
#19 = MECHANICAL_DESIGN_GEOMETRIC_PRESENTATION_REPRESENTATION (  '', ( #266 ), #98 ) ;
#20 = CARTESIAN_POINT ( 'NONE',  ( 0.0000000000000000000, 41.50000000000000000, -3.180629306801772600 ) ) ;
#21 = FILL_AREA_STYLE_COLOUR ( '', #312 ) ;
#22 = CARTESIAN_POINT ( 'NONE',  ( 0.0000000000000000000, 0.0000000000000000000, 0.0000000000000000000 ) ) ;
#23 = AXIS2_PLACEMENT_3D ( 'NONE', #345, #291, #112 ) ;
#24 = COLOUR_RGB ( '',0.9568627450980391500, 0.9568627450980391500, 0.0000000000000000000 ) ;
#25 = DIRECTION ( 'NONE',  ( 0.0000000000000000000, 0.0000000000000000000, -1.000000000000000000 ) ) ;
#26 = ORIENTED_EDGE ( 'NONE', *, *, #349, .F. ) ;
#27 = EDGE_CURVE ( 'NONE', #297, #107, #347, .T. ) ;
#28 = APPLICATION_CONTEXT ( 'automotive_design' ) ;
#29 = ORIENTED_EDGE ( 'NONE', *, *, #118, .F. ) ;
#30 = MANIFOLD_SOLID_BREP ( 'M4x0.7 Gewindekernloch1', #157 ) ;
#31 = EDGE_CURVE ( 'NONE', #83, #147, #316, .T. ) ;
#32 = VERTEX_POINT ( 'NONE', #223 ) ;
#33 = ORIENTED_EDGE ( 'NONE', *, *, #365, .F. ) ;
#34 = CARTESIAN_POINT ( 'NONE',  ( 0.0000000000000000000, 41.99999999999999300, 0.0000000000000000000 ) ) ;
#35 = PRESENTATION_STYLE_ASSIGNMENT (( #369 ) ) ;
#36 = AXIS2_PLACEMENT_3D ( 'NONE', #208, #348, #25 ) ;
#37 = DIRECTION ( 'NONE',  ( -0.0000000000000000000, -1.000000000000000000, -0.0000000000000000000 ) ) ;
#38 = CARTESIAN_POINT ( 'NONE',  ( 0.0000000000000000000, 35.99999999999999300, 0.0000000000000000000 ) ) ;
#39 = PRODUCT ( '44253~1', '44253~1', '', ( #246 ) ) ;
#40 = DIRECTION ( 'NONE',  ( 0.0000000000000000000, 0.0000000000000000000, -1.000000000000000000 ) ) ;
#41 = MECHANICAL_DESIGN_GEOMETRIC_PRESENTATION_REPRESENTATION (  '', ( #245 ), #104 ) ;
#42 = ORIENTED_EDGE ( 'NONE', *, *, #230, .T. ) ;
#43 = CARTESIAN_POINT ( 'NONE',  ( 0.0000000000000000000, 41.69134171618254900, 0.0000000000000000000 ) ) ;
#44 = DIRECTION ( 'NONE',  ( -0.0000000000000000000, -1.000000000000000000, -0.0000000000000000000 ) ) ;
#45 = DIRECTION ( 'NONE',  ( 0.0000000000000000000, 0.0000000000000000000, -1.000000000000000000 ) ) ;
#46 = FACE_OUTER_BOUND ( 'NONE', #242, .T. ) ;
#47 = AXIS2_PLACEMENT_3D ( 'NONE', #34, #129, #97 ) ;
#48 = CARTESIAN_POINT ( 'NONE',  ( 0.0000000000000000000, 35.99999999999999300, -6.000000000000000000 ) ) ;
#49 = DIRECTION ( 'NONE',  ( -0.0000000000000000000, -1.000000000000000000, -0.0000000000000000000 ) ) ;
#50 = DIRECTION ( 'NONE',  ( -1.000000000000000000, 0.0000000000000000000, 0.0000000000000000000 ) ) ;
#51 = PRESENTATION_LAYER_ASSIGNMENT (  '', '', ( #237 ) ) ;
#52 = ADVANCED_FACE ( 'NONE', ( #284 ), #374, .T. ) ;
#53 = ORIENTED_EDGE ( 'NONE', *, *, #127, .F. ) ;
#54 = EDGE_CURVE ( 'NONE', #370, #147, #277, .T. ) ;
#55 = DIRECTION ( 'NONE',  ( 0.0000000000000000000, 0.0000000000000000000, -1.000000000000000000 ) ) ;
#56 = CARTESIAN_POINT ( 'NONE',  ( 0.0000000000000000000, -1.353190020973723800E-015, -1.649999999999989900 ) ) ;
#57 =( LENGTH_UNIT ( ) NAMED_UNIT ( * ) SI_UNIT ( .MILLI., .METRE. ) );
#58 = ORIENTED_EDGE ( 'NONE', *, *, #331, .F. ) ;
#59 = ORIENTED_EDGE ( 'NONE', *, *, #171, .F. ) ;
#60 = ADVANCED_FACE ( 'NONE', ( #144 ), #15, .T. ) ;
#61 = AXIS2_PLACEMENT_3D ( 'NONE', #315, #238, #55 ) ;
#62 = APPLICATION_PROTOCOL_DEFINITION ( 'draft international standard', 'automotive_design', 1998, #153 ) ;
#63 = ADVANCED_FACE ( 'NONE', ( #254 ), #162, .F. ) ;
#64 = CARTESIAN_POINT ( 'NONE',  ( 0.0000000000000000000, 35.99999999999999300, 0.0000000000000000000 ) ) ;
#65 = VECTOR ( 'NONE', #283, 1000.000000000000000 ) ;
#66 = EDGE_LOOP ( 'NONE', ( #26, #5, #176, #59 ) ) ;
#67 = CYLINDRICAL_SURFACE ( 'NONE', #290, 1.649999999999993500 ) ;
#68 = VERTEX_POINT ( 'NONE', #18 ) ;
#69 = AXIS2_PLACEMENT_3D ( 'NONE', #132, #160, #305 ) ;
#70 =( LENGTH_UNIT ( ) NAMED_UNIT ( * ) SI_UNIT ( .MILLI., .METRE. ) );
#71 = DIRECTION ( 'NONE',  ( 4.686520405326299200E-017, -0.9238795325112867400, 0.3826834323650898400 ) ) ;
#72 = ORIENTED_EDGE ( 'NONE', *, *, #89, .T. ) ;
#73 = CARTESIAN_POINT ( 'NONE',  ( 7.347880794884119700E-016, 35.99999999999999300, 6.000000000000000000 ) ) ;
#74 = DIRECTION ( 'NONE',  ( -0.0000000000000000000, -1.000000000000000000, -0.0000000000000000000 ) ) ;
#75 = PRESENTATION_STYLE_ASSIGNMENT (( #121 ) ) ;
#76 = LINE ( 'NONE', #201, #81 ) ;
#77 = ORIENTED_EDGE ( 'NONE', *, *, #292, .T. ) ;
#78 = CARTESIAN_POINT ( 'NONE',  ( 0.0000000000000000000, 15.50000000000000000, -1.649999999999996800 ) ) ;
#79 = CARTESIAN_POINT ( 'NONE',  ( 0.0000000000000000000, 15.50000000000000000, 0.0000000000000000000 ) ) ;
#80 = AXIS2_PLACEMENT_3D ( 'NONE', #209, #126, #241 ) ;
#81 = VECTOR ( 'NONE', #225, 1000.000000000000000 ) ;
#82 = EDGE_CURVE ( 'NONE', #314, #83, #76, .T. ) ;
#83 = VERTEX_POINT ( 'NONE', #48 ) ;
#84 = PLANE ( 'NONE',  #61 ) ;
#85 = DIRECTION ( 'NONE',  ( 1.060575238724905200E-016, -0.5000000000000024400, 0.8660254037844372600 ) ) ;
#86 = AXIS2_PLACEMENT_3D ( 'NONE', #79, #336, #228 ) ;
#87 = VERTEX_POINT ( 'NONE', #78 ) ;
#88 = ADVANCED_FACE ( 'NONE', ( #91 ), #2, .T. ) ;
#89 = EDGE_CURVE ( 'NONE', #107, #297, #334, .T. ) ;
#90 = ADVANCED_FACE ( 'NONE', ( #302 ), #202, .T. ) ;
#91 = FACE_OUTER_BOUND ( 'NONE', #66, .T. ) ;
#92 = DIRECTION ( 'NONE',  ( -0.0000000000000000000, -1.000000000000000000, -0.0000000000000000000 ) ) ;
#93 = COLOUR_RGB ( '',0.5019607843137254800, 0.5019607843137254800, 0.5019607843137254800 ) ;
#94 = ORIENTED_EDGE ( 'NONE', *, *, #127, .T. ) ;
#95 = AXIS2_PLACEMENT_3D ( 'NONE', #20, #50, #261 ) ;
#96 = ORIENTED_EDGE ( 'NONE', *, *, #331, .T. ) ;
#97 = DIRECTION ( 'NONE',  ( 0.0000000000000000000, 0.0000000000000000000, -1.000000000000000000 ) ) ;
#98 =( GEOMETRIC_REPRESENTATION_CONTEXT ( 3 ) GLOBAL_UNCERTAINTY_ASSIGNED_CONTEXT ( ( #295 ) ) GLOBAL_UNIT_ASSIGNED_CONTEXT ( ( #263, #119, #148 ) ) REPRESENTATION_CONTEXT ( 'NONE', 'WORKASPACE' ) );
#99 = LINE ( 'NONE', #373, #8 ) ;
#100 =( NAMED_UNIT ( * ) SI_UNIT ( $, .STERADIAN. ) SOLID_ANGLE_UNIT ( ) );
#101 = PRODUCT_DEFINITION_SHAPE ( 'NONE', 'NONE',  #346 ) ;
#102 = DIRECTION ( 'NONE',  ( 0.0000000000000000000, 0.0000000000000000000, -1.000000000000000000 ) ) ;
#103 = CARTESIAN_POINT ( 'NONE',  ( 0.0000000000000000000, 0.0000000000000000000, 0.0000000000000000000 ) ) ;
#104 =( GEOMETRIC_REPRESENTATION_CONTEXT ( 3 ) GLOBAL_UNCERTAINTY_ASSIGNED_CONTEXT ( ( #172 ) ) GLOBAL_UNIT_ASSIGNED_CONTEXT ( ( #270, #324, #375 ) ) REPRESENTATION_CONTEXT ( 'NONE', 'WORKASPACE' ) );
#105 = EDGE_LOOP ( 'NONE', ( #236, #216 ) ) ;
#106 = CARTESIAN_POINT ( 'NONE',  ( 0.0000000000000000000, 15.50000000000000000, 0.0000000000000000000 ) ) ;
#107 = VERTEX_POINT ( 'NONE', #195 ) ;
#108 = AXIS2_PLACEMENT_3D ( 'NONE', #366, #13, #10 ) ;
#109 = UNCERTAINTY_MEASURE_WITH_UNIT (LENGTH_MEASURE( 1.000000000000000100E-005 ), #57, 'distance_accuracy_value', 'NONE');
#110 = PLANE ( 'NONE',  #194 ) ;
#111 = EDGE_CURVE ( 'NONE', #303, #190, #307, .T. ) ;
#112 = DIRECTION ( 'NONE',  ( 0.0000000000000000000, 0.0000000000000000000, -1.000000000000000000 ) ) ;
#113 = SURFACE_SIDE_STYLE ('',( #240 ) ) ;
#114 =( LENGTH_UNIT ( ) NAMED_UNIT ( * ) SI_UNIT ( .MILLI., .METRE. ) );
#115 = AXIS2_PLACEMENT_3D ( 'NONE', #352, #322, #351 ) ;
#116 = VECTOR ( 'NONE', #49, 1000.000000000000000 ) ;
#117 = ORIENTED_EDGE ( 'NONE', *, *, #349, .T. ) ;
#118 = EDGE_CURVE ( 'NONE', #87, #175, #233, .T. ) ;
#119 =( NAMED_UNIT ( * ) PLANE_ANGLE_UNIT ( ) SI_UNIT ( $, .RADIAN. ) );
#120 = ORIENTED_EDGE ( 'NONE', *, *, #4, .F. ) ;
#121 = SURFACE_STYLE_USAGE ( .BOTH. , #296 ) ;
#122 = DIRECTION ( 'NONE',  ( -0.0000000000000000000, -1.000000000000000000, -0.0000000000000000000 ) ) ;
#123 = APPLICATION_PROTOCOL_DEFINITION ( 'draft international standard', 'automotive_design', 1998, #28 ) ;
#124 = LINE ( 'NONE', #258, #219 ) ;
#125 =( GEOMETRIC_REPRESENTATION_CONTEXT ( 3 ) GLOBAL_UNCERTAINTY_ASSIGNED_CONTEXT ( ( #109 ) ) GLOBAL_UNIT_ASSIGNED_CONTEXT ( ( #57, #155, #267 ) ) REPRESENTATION_CONTEXT ( 'NONE', 'WORKASPACE' ) );
#126 = DIRECTION ( 'NONE',  ( -0.0000000000000000000, -1.000000000000000000, -0.0000000000000000000 ) ) ;
#127 = EDGE_CURVE ( 'NONE', #147, #32, #124, .T. ) ;
#128 = EDGE_LOOP ( 'NONE', ( #321, #360, #220, #159 ) ) ;
#129 = DIRECTION ( 'NONE',  ( -0.0000000000000000000, -1.000000000000000000, -0.0000000000000000000 ) ) ;
#130 = AXIS2_PLACEMENT_3D ( 'NONE', #243, #122, #328 ) ;
#131 = FILL_AREA_STYLE_COLOUR ( '', #93 ) ;
#132 = CARTESIAN_POINT ( 'NONE',  ( 0.0000000000000000000, -1.353190020973723800E-015, 0.0000000000000000000 ) ) ;
#133 = PRESENTATION_LAYER_ASSIGNMENT (  '', '', ( #269 ) ) ;
#134 = CARTESIAN_POINT ( 'NONE',  ( 7.347880794884119700E-016, 35.99999999999999300, 6.000000000000000000 ) ) ;
#135 = DIRECTION ( 'NONE',  ( -0.0000000000000000000, -1.000000000000000000, -0.0000000000000000000 ) ) ;
#136 = ORIENTED_EDGE ( 'NONE', *, *, #54, .T. ) ;
#137 = DIRECTION ( 'NONE',  ( 0.0000000000000000000, 0.0000000000000000000, -1.000000000000000000 ) ) ;
#138 = CARTESIAN_POINT ( 'NONE',  ( 0.0000000000000000000, -2.999999999999999100, 0.0000000000000000000 ) ) ;
#139 = ORIENTED_EDGE ( 'NONE', *, *, #31, .F. ) ;
#140 = DIRECTION ( 'NONE',  ( 0.0000000000000000000, 1.000000000000000000, 0.0000000000000000000 ) ) ;
#141 = ORIENTED_EDGE ( 'NONE', *, *, #343, .T. ) ;
#142 = ORIENTED_EDGE ( 'NONE', *, *, #218, .T. ) ;
#143 = DIRECTION ( 'NONE',  ( 0.0000000000000000000, 0.0000000000000000000, -1.000000000000000000 ) ) ;
#144 = FACE_OUTER_BOUND ( 'NONE', #234, .T. ) ;
#145 = TOROIDAL_SURFACE ( 'NONE', #130, 3.180629306801772600, 0.5000000000000013300 ) ;
#146 = CARTESIAN_POINT ( 'NONE',  ( 0.0000000000000000000, -2.999999999999999100, 0.0000000000000000000 ) ) ;
#147 = VERTEX_POINT ( 'NONE', #73 ) ;
#148 =( NAMED_UNIT ( * ) SI_UNIT ( $, .STERADIAN. ) SOLID_ANGLE_UNIT ( ) );
#149 = PRODUCT_DEFINITION_FORMATION_WITH_SPECIFIED_SOURCE ( 'ANY', '', #39, .NOT_KNOWN. ) ;
#150 = DIRECTION ( 'NONE',  ( -1.224646799147353000E-016, 0.0000000000000000000, -1.000000000000000000 ) ) ;
#151 = ORIENTED_EDGE ( 'NONE', *, *, #333, .F. ) ;
#152 = ORIENTED_EDGE ( 'NONE', *, *, #275, .F. ) ;
#153 = APPLICATION_CONTEXT ( 'automotive_design' ) ;
#154 = MECHANICAL_DESIGN_GEOMETRIC_PRESENTATION_REPRESENTATION (  '', ( #269 ), #214 ) ;
#155 =( NAMED_UNIT ( * ) PLANE_ANGLE_UNIT ( ) SI_UNIT ( $, .RADIAN. ) );
#156 = CONICAL_SURFACE ( 'NONE', #323, 1.649999999999996800, 1.047197551196595000 ) ;
#157 = CLOSED_SHELL ( 'NONE', ( #63, #293, #326, #60, #371, #181, #88, #52, #90, #262, #244, #182 ) ) ;
#158 = FACE_OUTER_BOUND ( 'NONE', #364, .T. ) ;
#159 = ORIENTED_EDGE ( 'NONE', *, *, #354, .F. ) ;
#160 = DIRECTION ( 'NONE',  ( -0.0000000000000000000, -1.000000000000000000, -0.0000000000000000000 ) ) ;
#161 = SURFACE_STYLE_USAGE ( .BOTH. , #278 ) ;
#162 = CONICAL_SURFACE ( 'NONE', #367, 1.649999999999996800, 1.047197551196595000 ) ;
#163 = DIRECTION ( 'NONE',  ( 0.0000000000000000000, 0.0000000000000000000, -1.000000000000000000 ) ) ;
#164 = ORIENTED_EDGE ( 'NONE', *, *, #82, .F. ) ;
#165 = DIRECTION ( 'NONE',  ( 0.0000000000000000000, 0.0000000000000000000, -1.000000000000000000 ) ) ;
#166 = AXIS2_PLACEMENT_3D ( 'NONE', #64, #92, #185 ) ;
#167 = CARTESIAN_POINT ( 'NONE',  ( 2.020667218593129100E-016, 15.50000000000000000, 1.649999999999996800 ) ) ;
#168 = ORIENTED_EDGE ( 'NONE', *, *, #292, .F. ) ;
#169 = CARTESIAN_POINT ( 'NONE',  ( 0.0000000000000000000, 41.99999999999999300, 0.0000000000000000000 ) ) ;
#170 = CARTESIAN_POINT ( 'NONE',  ( 0.0000000000000000000, 0.0000000000000000000, -1.649999999999993500 ) ) ;
#171 = EDGE_CURVE ( 'NONE', #370, #314, #300, .T. ) ;
#172 = UNCERTAINTY_MEASURE_WITH_UNIT (LENGTH_MEASURE( 1.000000000000000100E-005 ), #270, 'distance_accuracy_value', 'NONE');
#173 = CIRCLE ( 'NONE', #298, 5.999999999999998200 ) ;
#174 = FILL_AREA_STYLE ('',( #178 ) ) ;
#175 = VERTEX_POINT ( 'NONE', #167 ) ;
#176 = ORIENTED_EDGE ( 'NONE', *, *, #333, .T. ) ;
#177 =( NAMED_UNIT ( * ) SI_UNIT ( $, .STERADIAN. ) SOLID_ANGLE_UNIT ( ) );
#178 = FILL_AREA_STYLE_COLOUR ( '', #24 ) ;
#179 = CARTESIAN_POINT ( 'NONE',  ( -4.029598543499493600E-015, 16.45262794416288400, 0.0000000000000000000 ) ) ;
#180 = ORIENTED_EDGE ( 'NONE', *, *, #27, .T. ) ;
#181 = ADVANCED_FACE ( 'NONE', ( #3 ), #110, .T. ) ;
#182 = ADVANCED_FACE ( 'NONE', ( #222 ), #156, .F. ) ;
#183 = CARTESIAN_POINT ( 'NONE',  ( 4.460860555992905700E-016, 41.69134171618254900, 3.642569073057416500 ) ) ;
#184 = PRESENTATION_LAYER_ASSIGNMENT (  '', '', ( #266 ) ) ;
#185 = DIRECTION ( 'NONE',  ( 0.0000000000000000000, 0.0000000000000000000, -1.000000000000000000 ) ) ;
#186 = ORIENTED_EDGE ( 'NONE', *, *, #6, .T. ) ;
#187 = ORIENTED_EDGE ( 'NONE', *, *, #6, .F. ) ;
#188 = CARTESIAN_POINT ( 'NONE',  ( 3.895147499849055700E-016, 41.50000000000000000, 3.180629306801772600 ) ) ;
#189 = PRODUCT_DEFINITION_CONTEXT ( 'detailed design', #153, 'design' ) ;
#190 = VERTEX_POINT ( 'NONE', #341 ) ;
#191 =( NAMED_UNIT ( * ) PLANE_ANGLE_UNIT ( ) SI_UNIT ( $, .RADIAN. ) );
#192 = SURFACE_STYLE_FILL_AREA ( #253 ) ;
#193 = DIRECTION ( 'NONE',  ( -0.0000000000000000000, -1.000000000000000000, -0.0000000000000000000 ) ) ;
#194 = AXIS2_PLACEMENT_3D ( 'NONE', #362, #140, #339 ) ;
#195 = CARTESIAN_POINT ( 'NONE',  ( 2.020667218593122900E-016, -1.353190020973723800E-015, 1.649999999999989900 ) ) ;
#196 = CIRCLE ( 'NONE', #210, 0.5000000000000013300 ) ;
#197 = DIRECTION ( 'NONE',  ( -0.0000000000000000000, -1.000000000000000000, -0.0000000000000000000 ) ) ;
#198 = EDGE_LOOP ( 'NONE', ( #213, #117, #152, #151 ) ) ;
#199 = CARTESIAN_POINT ( 'NONE',  ( 0.0000000000000000000, 35.99999999999999300, 0.0000000000000000000 ) ) ;
#200 = FACE_OUTER_BOUND ( 'NONE', #250, .T. ) ;
#201 = CARTESIAN_POINT ( 'NONE',  ( 0.0000000000000000000, 35.99999999999999300, -6.000000000000000000 ) ) ;
#202 = CYLINDRICAL_SURFACE ( 'NONE', #203, 5.999999999999999100 ) ;
#203 = AXIS2_PLACEMENT_3D ( 'NONE', #138, #135, #313 ) ;
#204 = DIRECTION ( 'NONE',  ( 0.0000000000000000000, 0.0000000000000000000, -1.000000000000000000 ) ) ;
#205 = PRESENTATION_STYLE_ASSIGNMENT (( #161 ) ) ;
#206 = SURFACE_SIDE_STYLE ('',( #249 ) ) ;
#207 = ORIENTED_EDGE ( 'NONE', *, *, #354, .T. ) ;
#208 = CARTESIAN_POINT ( 'NONE',  ( 0.0000000000000000000, 0.0000000000000000000, 0.0000000000000000000 ) ) ;
#209 = CARTESIAN_POINT ( 'NONE',  ( 0.0000000000000000000, 15.50000000000000000, 0.0000000000000000000 ) ) ;
#210 = AXIS2_PLACEMENT_3D ( 'NONE', #188, #299, #150 ) ;
#211 = LINE ( 'NONE', #231, #116 ) ;
#212 = FACE_OUTER_BOUND ( 'NONE', #16, .T. ) ;
#213 = ORIENTED_EDGE ( 'NONE', *, *, #4, .T. ) ;
#214 =( GEOMETRIC_REPRESENTATION_CONTEXT ( 3 ) GLOBAL_UNCERTAINTY_ASSIGNED_CONTEXT ( ( #330 ) ) GLOBAL_UNIT_ASSIGNED_CONTEXT ( ( #70, #191, #100 ) ) REPRESENTATION_CONTEXT ( 'NONE', 'WORKASPACE' ) );
#215 = COLOUR_RGB ( '',0.5019607843137254800, 0.5019607843137254800, 0.5019607843137254800 ) ;
#216 = ORIENTED_EDGE ( 'NONE', *, *, #89, .F. ) ;
#217 = ORIENTED_EDGE ( 'NONE', *, *, #275, .T. ) ;
#218 = EDGE_CURVE ( 'NONE', #87, #297, #227, .T. ) ;
#219 = VECTOR ( 'NONE', #17, 1000.000000000000000 ) ;
#220 = ORIENTED_EDGE ( 'NONE', *, *, #82, .T. ) ;
#221 = CARTESIAN_POINT ( 'NONE',  ( 0.0000000000000000000, 15.50000000000000000, -1.649999999999996800 ) ) ;
#222 = FACE_OUTER_BOUND ( 'NONE', #257, .T. ) ;
#223 = CARTESIAN_POINT ( 'NONE',  ( 7.347880794884118800E-016, 0.0000000000000000000, 5.999999999999998200 ) ) ;
#224 = ORIENTED_EDGE ( 'NONE', *, *, #12, .T. ) ;
#225 = DIRECTION ( 'NONE',  ( 0.0000000000000000000, -0.9238795325112867400, -0.3826834323650898400 ) ) ;
#226 = DIRECTION ( 'NONE',  ( -0.0000000000000000000, -1.000000000000000000, -0.0000000000000000000 ) ) ;
#227 = LINE ( 'NONE', #170, #65 ) ;
#228 = DIRECTION ( 'NONE',  ( 0.0000000000000000000, 0.0000000000000000000, -1.000000000000000000 ) ) ;
#229 = CARTESIAN_POINT ( 'NONE',  ( 0.0000000000000000000, 15.50000000000000000, 0.0000000000000000000 ) ) ;
#230 = EDGE_CURVE ( 'NONE', #68, #32, #173, .T. ) ;
#231 = CARTESIAN_POINT ( 'NONE',  ( 0.0000000000000000000, -2.999999999999999100, -5.999999999999999100 ) ) ;
#232 = DIRECTION ( 'NONE',  ( -0.0000000000000000000, -1.000000000000000000, -0.0000000000000000000 ) ) ;
#233 = CIRCLE ( 'NONE', #86, 1.649999999999996800 ) ;
#234 = EDGE_LOOP ( 'NONE', ( #217, #136, #139, #164 ) ) ;
#235 =( NAMED_UNIT ( * ) PLANE_ANGLE_UNIT ( ) SI_UNIT ( $, .RADIAN. ) );
#236 = ORIENTED_EDGE ( 'NONE', *, *, #27, .F. ) ;
#237 = STYLED_ITEM ( 'NONE', ( #35 ), #244 ) ;
#238 = DIRECTION ( 'NONE',  ( 0.0000000000000000000, -1.000000000000000000, -0.0000000000000000000 ) ) ;
#239 = DIRECTION ( 'NONE',  ( 0.0000000000000000000, 0.0000000000000000000, -1.000000000000000000 ) ) ;
#240 = SURFACE_STYLE_FILL_AREA ( #372 ) ;
#241 = DIRECTION ( 'NONE',  ( 0.0000000000000000000, 0.0000000000000000000, -1.000000000000000000 ) ) ;
#242 = EDGE_LOOP ( 'NONE', ( #342, #224, #72, #282 ) ) ;
#243 = CARTESIAN_POINT ( 'NONE',  ( 0.0000000000000000000, 41.50000000000000000, 0.0000000000000000000 ) ) ;
#244 = ADVANCED_FACE ( 'NONE', ( #212 ), #67, .F. ) ;
#245 = STYLED_ITEM ( 'NONE', ( #75 ), #11 ) ;
#246 = PRODUCT_CONTEXT ( 'NONE', #28, 'mechanical' ) ;
#247 = VECTOR ( 'NONE', #71, 1000.000000000000000 ) ;
#248 = FILL_AREA_STYLE ('',( #1 ) ) ;
#249 = SURFACE_STYLE_FILL_AREA ( #174 ) ;
#250 = EDGE_LOOP ( 'NONE', ( #337, #94, #265, #58 ) ) ;
#251 = UNCERTAINTY_MEASURE_WITH_UNIT (LENGTH_MEASURE( 1.000000000000000100E-005 ), #114, 'distance_accuracy_value', 'NONE');
#252 = AXIS2_PLACEMENT_3D ( 'NONE', #256, #44, #40 ) ;
#253 = FILL_AREA_STYLE ('',( #131 ) ) ;
#254 = FACE_OUTER_BOUND ( 'NONE', #329, .T. ) ;
#255 = AXIS2_PLACEMENT_3D ( 'NONE', #294, #350, #325 ) ;
#256 = CARTESIAN_POINT ( 'NONE',  ( 0.0000000000000000000, 41.50000000000000000, 0.0000000000000000000 ) ) ;
#257 = EDGE_LOOP ( 'NONE', ( #168, #186, #274 ) ) ;
#258 = CARTESIAN_POINT ( 'NONE',  ( 7.347880794884118800E-016, -2.999999999999999100, 5.999999999999999100 ) ) ;
#259 = CIRCLE ( 'NONE', #23, 3.642569073057417000 ) ;
#260 = CIRCLE ( 'NONE', #47, 3.180629306801772600 ) ;
#261 = DIRECTION ( 'NONE',  ( 0.0000000000000000000, 0.0000000000000000000, 1.000000000000000000 ) ) ;
#262 = ADVANCED_FACE ( 'NONE', ( #320, #158 ), #84, .T. ) ;
#263 =( LENGTH_UNIT ( ) NAMED_UNIT ( * ) SI_UNIT ( .MILLI., .METRE. ) );
#264 = CARTESIAN_POINT ( 'NONE',  ( 4.178004027920980700E-016, 41.99999999999999300, 3.180629306801772600 ) ) ;
#265 = ORIENTED_EDGE ( 'NONE', *, *, #230, .F. ) ;
#266 = STYLED_ITEM ( 'NONE', ( #355 ), #293 ) ;
#267 =( NAMED_UNIT ( * ) SI_UNIT ( $, .STERADIAN. ) SOLID_ANGLE_UNIT ( ) );
#268 = VECTOR ( 'NONE', #37, 1000.000000000000000 ) ;
#269 = STYLED_ITEM ( 'NONE', ( #205 ), #30 ) ;
#270 =( LENGTH_UNIT ( ) NAMED_UNIT ( * ) SI_UNIT ( .MILLI., .METRE. ) );
#271 = AXIS2_PLACEMENT_3D ( 'NONE', #43, #338, #102 ) ;
#272 = FACE_OUTER_BOUND ( 'NONE', #198, .T. ) ;
#273 = CYLINDRICAL_SURFACE ( 'NONE', #310, 5.999999999999999100 ) ;
#274 = ORIENTED_EDGE ( 'NONE', *, *, #118, .T. ) ;
#275 = EDGE_CURVE ( 'NONE', #314, #370, #259, .T. ) ;
#276 = CIRCLE ( 'NONE', #95, 0.5000000000000013300 ) ;
#277 = LINE ( 'NONE', #134, #247 ) ;
#278 = SURFACE_SIDE_STYLE ('',( #192 ) ) ;
#279 = DIRECTION ( 'NONE',  ( 0.0000000000000000000, 0.0000000000000000000, -1.000000000000000000 ) ) ;
#280 = CYLINDRICAL_SURFACE ( 'NONE', #36, 1.649999999999993500 ) ;
#281 = LINE ( 'NONE', #356, #268 ) ;
#282 = ORIENTED_EDGE ( 'NONE', *, *, #218, .F. ) ;
#283 = DIRECTION ( 'NONE',  ( -0.0000000000000000000, -1.000000000000000000, -0.0000000000000000000 ) ) ;
#284 = FACE_OUTER_BOUND ( 'NONE', #128, .T. ) ;
#285 = VERTEX_POINT ( 'NONE', #179 ) ;
#286 = CARTESIAN_POINT ( 'NONE',  ( 0.0000000000000000000, 41.69134171618254900, -3.642569073057416500 ) ) ;
#287 = AXIS2_PLACEMENT_3D ( 'NONE', #335, #193, #279 ) ;
#288 = CIRCLE ( 'NONE', #255, 5.999999999999998200 ) ;
#289 = ORIENTED_EDGE ( 'NONE', *, *, #12, .F. ) ;
#290 = AXIS2_PLACEMENT_3D ( 'NONE', #103, #363, #143 ) ;
#291 = DIRECTION ( 'NONE',  ( -0.0000000000000000000, -1.000000000000000000, -0.0000000000000000000 ) ) ;
#292 = EDGE_CURVE ( 'NONE', #285, #175, #99, .T. ) ;
#293 = ADVANCED_FACE ( 'NONE', ( #46 ), #280, .F. ) ;
#294 = CARTESIAN_POINT ( 'NONE',  ( 0.0000000000000000000, 0.0000000000000000000, 0.0000000000000000000 ) ) ;
#295 = UNCERTAINTY_MEASURE_WITH_UNIT (LENGTH_MEASURE( 1.000000000000000100E-005 ), #263, 'distance_accuracy_value', 'NONE');
#296 = SURFACE_SIDE_STYLE ('',( #14 ) ) ;
#297 = VERTEX_POINT ( 'NONE', #56 ) ;
#298 = AXIS2_PLACEMENT_3D ( 'NONE', #22, #232, #204 ) ;
#299 = DIRECTION ( 'NONE',  ( 1.000000000000000000, 0.0000000000000000000, -1.224646799147353200E-016 ) ) ;
#300 = CIRCLE ( 'NONE', #271, 3.642569073057417000 ) ;
#301 = CIRCLE ( 'NONE', #166, 6.000000000000000000 ) ;
#302 = FACE_OUTER_BOUND ( 'NONE', #358, .T. ) ;
#303 = VERTEX_POINT ( 'NONE', #264 ) ;
#304 = AXIS2_PLACEMENT_3D ( 'NONE', #169, #197, #45 ) ;
#305 = DIRECTION ( 'NONE',  ( 0.0000000000000000000, 0.0000000000000000000, -1.000000000000000000 ) ) ;
#306 = AXIS2_PLACEMENT_3D ( 'NONE', #38, #308, #163 ) ;
#307 = CIRCLE ( 'NONE', #304, 3.180629306801772600 ) ;
#308 = DIRECTION ( 'NONE',  ( -0.0000000000000000000, -1.000000000000000000, -0.0000000000000000000 ) ) ;
#309 = DIRECTION ( 'NONE',  ( 0.0000000000000000000, 0.0000000000000000000, -1.000000000000000000 ) ) ;
#310 = AXIS2_PLACEMENT_3D ( 'NONE', #146, #344, #239 ) ;
#311 = DIRECTION ( 'NONE',  ( -0.0000000000000000000, -1.000000000000000000, -0.0000000000000000000 ) ) ;
#312 = COLOUR_RGB ( '',0.9568627450980391500, 0.9568627450980391500, 0.0000000000000000000 ) ;
#313 = DIRECTION ( 'NONE',  ( 0.0000000000000000000, 0.0000000000000000000, -1.000000000000000000 ) ) ;
#314 = VERTEX_POINT ( 'NONE', #286 ) ;
#315 = CARTESIAN_POINT ( 'NONE',  ( 0.0000000000000000000, 0.0000000000000000000, 0.0000000000000000000 ) ) ;
#316 = CIRCLE ( 'NONE', #287, 6.000000000000000000 ) ;
#317 = PRESENTATION_LAYER_ASSIGNMENT (  '', '', ( #245 ) ) ;
#318 = ORIENTED_EDGE ( 'NONE', *, *, #111, .F. ) ;
#319 = SURFACE_STYLE_USAGE ( .BOTH. , #206 ) ;
#320 = FACE_BOUND ( 'NONE', #105, .T. ) ;
#321 = ORIENTED_EDGE ( 'NONE', *, *, #54, .F. ) ;
#322 = DIRECTION ( 'NONE',  ( 0.0000000000000000000, 0.0000000000000000000, 1.000000000000000000 ) ) ;
#323 = AXIS2_PLACEMENT_3D ( 'NONE', #229, #74, #309 ) ;
#324 =( NAMED_UNIT ( * ) PLANE_ANGLE_UNIT ( ) SI_UNIT ( $, .RADIAN. ) );
#325 = DIRECTION ( 'NONE',  ( 0.0000000000000000000, 0.0000000000000000000, -1.000000000000000000 ) ) ;
#326 = ADVANCED_FACE ( 'NONE', ( #200 ), #273, .T. ) ;
#327 = AXIS2_PLACEMENT_3D ( 'NONE', #199, #311, #137 ) ;
#328 = DIRECTION ( 'NONE',  ( 0.0000000000000000000, 0.0000000000000000000, -1.000000000000000000 ) ) ;
#329 = EDGE_LOOP ( 'NONE', ( #187, #77, #141 ) ) ;
#330 = UNCERTAINTY_MEASURE_WITH_UNIT (LENGTH_MEASURE( 1.000000000000000100E-005 ), #70, 'distance_accuracy_value', 'NONE');
#331 = EDGE_CURVE ( 'NONE', #83, #68, #211, .T. ) ;
#332 = ORIENTED_EDGE ( 'NONE', *, *, #365, .T. ) ;
#333 = EDGE_CURVE ( 'NONE', #190, #314, #276, .T. ) ;
#334 = CIRCLE ( 'NONE', #108, 1.649999999999989900 ) ;
#335 = CARTESIAN_POINT ( 'NONE',  ( 0.0000000000000000000, 35.99999999999999300, 0.0000000000000000000 ) ) ;
#336 = DIRECTION ( 'NONE',  ( -0.0000000000000000000, -1.000000000000000000, -0.0000000000000000000 ) ) ;
#337 = ORIENTED_EDGE ( 'NONE', *, *, #31, .T. ) ;
#338 = DIRECTION ( 'NONE',  ( -0.0000000000000000000, -1.000000000000000000, -0.0000000000000000000 ) ) ;
#339 = DIRECTION ( 'NONE',  ( 0.0000000000000000000, -0.0000000000000000000, 1.000000000000000000 ) ) ;
#340 = VECTOR ( 'NONE', #7, 1000.000000000000000 ) ;
#341 = CARTESIAN_POINT ( 'NONE',  ( 0.0000000000000000000, 41.99999999999999300, -3.180629306801772600 ) ) ;
#342 = ORIENTED_EDGE ( 'NONE', *, *, #343, .F. ) ;
#343 = EDGE_CURVE ( 'NONE', #175, #87, #359, .T. ) ;
#344 = DIRECTION ( 'NONE',  ( -0.0000000000000000000, -1.000000000000000000, -0.0000000000000000000 ) ) ;
#345 = CARTESIAN_POINT ( 'NONE',  ( 0.0000000000000000000, 41.69134171618254900, 0.0000000000000000000 ) ) ;
#346 = PRODUCT_DEFINITION ( 'UNKNOWN', '', #149, #189 ) ;
#347 = CIRCLE ( 'NONE', #69, 1.649999999999989900 ) ;
#348 = DIRECTION ( 'NONE',  ( -0.0000000000000000000, -1.000000000000000000, -0.0000000000000000000 ) ) ;
#349 = EDGE_CURVE ( 'NONE', #303, #370, #196, .T. ) ;
#350 = DIRECTION ( 'NONE',  ( -0.0000000000000000000, -1.000000000000000000, -0.0000000000000000000 ) ) ;
#351 = DIRECTION ( 'NONE',  ( 1.000000000000000000, 0.0000000000000000000, 0.0000000000000000000 ) ) ;
#352 = CARTESIAN_POINT ( 'NONE',  ( 0.0000000000000000000, 0.0000000000000000000, 0.0000000000000000000 ) ) ;
#353 = LINE ( 'NONE', #221, #340 ) ;
#354 = EDGE_CURVE ( 'NONE', #147, #83, #301, .T. ) ;
#355 = PRESENTATION_STYLE_ASSIGNMENT (( #319 ) ) ;
#356 = CARTESIAN_POINT ( 'NONE',  ( 2.020667218593124900E-016, 0.0000000000000000000, 1.649999999999993500 ) ) ;
#357 = MECHANICAL_DESIGN_GEOMETRIC_PRESENTATION_REPRESENTATION (  '', ( #237 ), #376 ) ;
#358 = EDGE_LOOP ( 'NONE', ( #53, #207, #96, #33 ) ) ;
#359 = CIRCLE ( 'NONE', #80, 1.649999999999996800 ) ;
#360 = ORIENTED_EDGE ( 'NONE', *, *, #171, .T. ) ;
#361 = PRODUCT_RELATED_PRODUCT_CATEGORY ( 'part', '', ( #39 ) ) ;
#362 = CARTESIAN_POINT ( 'NONE',  ( 3.180629306801772600, 42.00000000000000000, 0.0000000000000000000 ) ) ;
#363 = DIRECTION ( 'NONE',  ( -0.0000000000000000000, -1.000000000000000000, -0.0000000000000000000 ) ) ;
#364 = EDGE_LOOP ( 'NONE', ( #42, #332 ) ) ;
#365 = EDGE_CURVE ( 'NONE', #32, #68, #288, .T. ) ;
#366 = CARTESIAN_POINT ( 'NONE',  ( 0.0000000000000000000, -1.353190020973723800E-015, 0.0000000000000000000 ) ) ;
#367 = AXIS2_PLACEMENT_3D ( 'NONE', #106, #226, #165 ) ;
#368 = SHAPE_DEFINITION_REPRESENTATION ( #101, #11 ) ;
#369 = SURFACE_STYLE_USAGE ( .BOTH. , #113 ) ;
#370 = VERTEX_POINT ( 'NONE', #183 ) ;
#371 = ADVANCED_FACE ( 'NONE', ( #272 ), #145, .T. ) ;
#372 = FILL_AREA_STYLE ('',( #21 ) ) ;
#373 = CARTESIAN_POINT ( 'NONE',  ( 2.020667218593128800E-016, 15.50000000000000000, 1.649999999999996800 ) ) ;
#374 = CONICAL_SURFACE ( 'NONE', #306, 6.000000000000000000, 0.3926990816987242000 ) ;
#375 =( NAMED_UNIT ( * ) SI_UNIT ( $, .STERADIAN. ) SOLID_ANGLE_UNIT ( ) );
#376 =( GEOMETRIC_REPRESENTATION_CONTEXT ( 3 ) GLOBAL_UNCERTAINTY_ASSIGNED_CONTEXT ( ( #251 ) ) GLOBAL_UNIT_ASSIGNED_CONTEXT ( ( #114, #235, #177 ) ) REPRESENTATION_CONTEXT ( 'NONE', 'WORKASPACE' ) );
ENDSEC;
END-ISO-10303-21;
