ISO-10303-21;
HEADER;
FILE_DESCRIPTION (( 'STEP AP214' ),
    '1' );
FILE_NAME ('42760~0.STEP',
    '2017-07-04T09:12:18',
    ( '' ),
    ( '' ),
    'SwSTEP 2.0',
    'SolidWorks 2016',
    '' );
FILE_SCHEMA (( 'AUTOMOTIVE_DESIGN' ));
ENDSEC;

DATA;
#1 = EDGE_LOOP ( 'NONE', ( #247, #362 ) ) ;
#2 = EDGE_CURVE ( 'NONE', #305, #293, #237, .T. ) ;
#3 = FACE_OUTER_BOUND ( 'NONE', #117, .T. ) ;
#4 = CIRCLE ( 'NONE', #56, 2.950000000000000200 ) ;
#5 = ORIENTED_EDGE ( 'NONE', *, *, #315, .F. ) ;
#6 = VECTOR ( 'NONE', #37, 1000.000000000000000 ) ;
#7 = MECHANICAL_DESIGN_GEOMETRIC_PRESENTATION_REPRESENTATION (  '', ( #193 ), #59 ) ;
#8 = CIRCLE ( 'NONE', #353, 2.545854811567261200 ) ;
#9 = CARTESIAN_POINT ( 'NONE',  ( 0.0000000000000000000, 0.0000000000000000000, -2.950000000000000200 ) ) ;
#10 = CIRCLE ( 'NONE', #21, 0.5000000000000038900 ) ;
#11 = ORIENTED_EDGE ( 'NONE', *, *, #331, .F. ) ;
#12 = FACE_OUTER_BOUND ( 'NONE', #322, .T. ) ;
#13 = CARTESIAN_POINT ( 'NONE',  ( 0.0000000000000000000, 13.00000000000000200, -2.950000000000000200 ) ) ;
#14 = MECHANICAL_DESIGN_GEOMETRIC_PRESENTATION_REPRESENTATION (  '', ( #160 ), #137 ) ;
#15 = CARTESIAN_POINT ( 'NONE',  ( 0.0000000000000000000, 13.00000000000000200, -2.950000000000000200 ) ) ;
#16 = DIRECTION ( 'NONE',  ( 0.0000000000000000000, 0.0000000000000000000, -1.000000000000000000 ) ) ;
#17 = ORIENTED_EDGE ( 'NONE', *, *, #331, .T. ) ;
#18 = DIRECTION ( 'NONE',  ( -0.0000000000000000000, -1.000000000000000000, -0.0000000000000000000 ) ) ;
#19 = UNCERTAINTY_MEASURE_WITH_UNIT (LENGTH_MEASURE( 1.000000000000000100E-005 ), #339, 'distance_accuracy_value', 'NONE');
#20 = DIRECTION ( 'NONE',  ( -0.0000000000000000000, -1.000000000000000000, -0.0000000000000000000 ) ) ;
#21 = AXIS2_PLACEMENT_3D ( 'NONE', #262, #97, #100 ) ;
#22 = DIRECTION ( 'NONE',  ( 0.0000000000000000000, 1.000000000000000000, 0.0000000000000000000 ) ) ;
#23 = ORIENTED_EDGE ( 'NONE', *, *, #156, .F. ) ;
#24 = VERTEX_POINT ( 'NONE', #129 ) ;
#25 =( NAMED_UNIT ( * ) PLANE_ANGLE_UNIT ( ) SI_UNIT ( $, .RADIAN. ) );
#26 = DIRECTION ( 'NONE',  ( 1.000000000000000000, 0.0000000000000000000, 0.0000000000000000000 ) ) ;
#27 =( NAMED_UNIT ( * ) PLANE_ANGLE_UNIT ( ) SI_UNIT ( $, .RADIAN. ) );
#28 = AXIS2_PLACEMENT_3D ( 'NONE', #267, #325, #242 ) ;
#29 = SURFACE_STYLE_USAGE ( .BOTH. , #84 ) ;
#30 = VERTEX_POINT ( 'NONE', #208 ) ;
#31 = ORIENTED_EDGE ( 'NONE', *, *, #140, .F. ) ;
#32 = TOROIDAL_SURFACE ( 'NONE', #280, 2.026239569296599500, 0.5999999999999999800 ) ;
#33 = EDGE_CURVE ( 'NONE', #226, #123, #10, .T. ) ;
#34 = DIRECTION ( 'NONE',  ( -0.0000000000000000000, -1.000000000000000000, -0.0000000000000000000 ) ) ;
#35 = ORIENTED_EDGE ( 'NONE', *, *, #228, .F. ) ;
#36 = ORIENTED_EDGE ( 'NONE', *, *, #79, .F. ) ;
#37 = DIRECTION ( 'NONE',  ( 0.0000000000000000000, 0.7071067811865487900, 0.7071067811865463500 ) ) ;
#38 = CARTESIAN_POINT ( 'NONE',  ( 0.0000000000000000000, 13.70000000000000100, 0.0000000000000000000 ) ) ;
#39 = DIRECTION ( 'NONE',  ( 0.0000000000000000000, 0.0000000000000000000, -1.000000000000000000 ) ) ;
#40 = DIRECTION ( 'NONE',  ( 0.0000000000000000000, 1.000000000000000000, 0.0000000000000000000 ) ) ;
#41 = CARTESIAN_POINT ( 'NONE',  ( 0.0000000000000000000, 0.0000000000000000000, 0.0000000000000000000 ) ) ;
#42 = AXIS2_PLACEMENT_3D ( 'NONE', #181, #40, #155 ) ;
#43 = DIRECTION ( 'NONE',  ( 0.0000000000000000000, -0.0000000000000000000, 1.000000000000000000 ) ) ;
#44 = DIRECTION ( 'NONE',  ( 0.0000000000000000000, 1.000000000000000000, 0.0000000000000000000 ) ) ;
#45 = CIRCLE ( 'NONE', #306, 1.000000000000000000 ) ;
#46 = EDGE_LOOP ( 'NONE', ( #344, #11, #334, #199 ) ) ;
#47 = ORIENTED_EDGE ( 'NONE', *, *, #197, .F. ) ;
#48 = FILL_AREA_STYLE_COLOUR ( '', #263 ) ;
#49 = PRODUCT_DEFINITION_CONTEXT ( 'detailed design', #250, 'design' ) ;
#50 = CARTESIAN_POINT ( 'NONE',  ( 0.0000000000000000000, 0.0000000000000000000, 0.0000000000000000000 ) ) ;
#51 = AXIS2_PLACEMENT_3D ( 'NONE', #311, #167, #336 ) ;
#52 = ORIENTED_EDGE ( 'NONE', *, *, #213, .T. ) ;
#53 = EDGE_CURVE ( 'NONE', #293, #220, #4, .T. ) ;
#54 = ORIENTED_EDGE ( 'NONE', *, *, #295, .T. ) ;
#55 = FACE_OUTER_BOUND ( 'NONE', #89, .T. ) ;
#56 = AXIS2_PLACEMENT_3D ( 'NONE', #178, #317, #231 ) ;
#57 = SURFACE_STYLE_FILL_AREA ( #338 ) ;
#58 = ORIENTED_EDGE ( 'NONE', *, *, #348, .T. ) ;
#59 =( GEOMETRIC_REPRESENTATION_CONTEXT ( 3 ) GLOBAL_UNCERTAINTY_ASSIGNED_CONTEXT ( ( #19 ) ) GLOBAL_UNIT_ASSIGNED_CONTEXT ( ( #339, #25, #369 ) ) REPRESENTATION_CONTEXT ( 'NONE', 'WORKASPACE' ) );
#60 = ORIENTED_EDGE ( 'NONE', *, *, #315, .T. ) ;
#61 = LINE ( 'NONE', #360, #363 ) ;
#62 = SHAPE_DEFINITION_REPRESENTATION ( #96, #210 ) ;
#63 = CARTESIAN_POINT ( 'NONE',  ( 0.0000000000000000000, 0.0000000000000000000, 0.5000000000000038900 ) ) ;
#64 = LINE ( 'NONE', #207, #314 ) ;
#65 = DIRECTION ( 'NONE',  ( -0.0000000000000000000, -1.000000000000000000, -0.0000000000000000000 ) ) ;
#66 = CARTESIAN_POINT ( 'NONE',  ( 0.0000000000000000000, 0.0000000000000000000, 0.5000000000000038900 ) ) ;
#67 = DIRECTION ( 'NONE',  ( 0.0000000000000000000, 0.0000000000000000000, 1.000000000000000000 ) ) ;
#68 = ORIENTED_EDGE ( 'NONE', *, *, #116, .T. ) ;
#69 = VECTOR ( 'NONE', #132, 1000.000000000000000 ) ;
#70 = CARTESIAN_POINT ( 'NONE',  ( 0.0000000000000000000, 7.000000000000000000, 0.0000000000000000000 ) ) ;
#71 = EDGE_CURVE ( 'NONE', #24, #264, #224, .T. ) ;
#72 = CARTESIAN_POINT ( 'NONE',  ( 0.0000000000000000000, 0.0000000000000000000, 0.0000000000000000000 ) ) ;
#73 = AXIS2_PLACEMENT_3D ( 'NONE', #297, #203, #241 ) ;
#74 = CYLINDRICAL_SURFACE ( 'NONE', #261, 1.000000000000000000 ) ;
#75 = ORIENTED_EDGE ( 'NONE', *, *, #150, .F. ) ;
#76 = LINE ( 'NONE', #15, #131 ) ;
#77 = ADVANCED_FACE ( 'NONE', ( #200 ), #90, .T. ) ;
#78 =( LENGTH_UNIT ( ) NAMED_UNIT ( * ) SI_UNIT ( .MILLI., .METRE. ) );
#79 = EDGE_CURVE ( 'NONE', #124, #238, #304, .T. ) ;
#80 = AXIS2_PLACEMENT_3D ( 'NONE', #38, #355, #290 ) ;
#81 = CARTESIAN_POINT ( 'NONE',  ( 0.0000000000000000000, 13.70000000000000100, 0.0000000000000000000 ) ) ;
#82 = ORIENTED_EDGE ( 'NONE', *, *, #277, .F. ) ;
#83 = UNCERTAINTY_MEASURE_WITH_UNIT (LENGTH_MEASURE( 1.000000000000000100E-005 ), #78, 'distance_accuracy_value', 'NONE');
#84 = SURFACE_SIDE_STYLE ('',( #57 ) ) ;
#85 = VECTOR ( 'NONE', #234, 999.9999999999998900 ) ;
#86 = EDGE_LOOP ( 'NONE', ( #265, #349, #106, #75 ) ) ;
#87 = TOROIDAL_SURFACE ( 'NONE', #144, 2.026239569296599500, 0.5999999999999999800 ) ;
#88 = LINE ( 'NONE', #9, #251 ) ;
#89 = EDGE_LOOP ( 'NONE', ( #142, #52 ) ) ;
#90 = PLANE ( 'NONE',  #28 ) ;
#91 = EDGE_CURVE ( 'NONE', #226, #30, #61, .T. ) ;
#92 = DIRECTION ( 'NONE',  ( -0.0000000000000000000, -1.000000000000000000, -0.0000000000000000000 ) ) ;
#93 = ORIENTED_EDGE ( 'NONE', *, *, #277, .T. ) ;
#94 = AXIS2_PLACEMENT_3D ( 'NONE', #154, #34, #98 ) ;
#95 = ORIENTED_EDGE ( 'NONE', *, *, #233, .F. ) ;
#96 = PRODUCT_DEFINITION_SHAPE ( 'NONE', 'NONE',  #227 ) ;
#97 = DIRECTION ( 'NONE',  ( -0.0000000000000000000, -1.000000000000000000, -0.0000000000000000000 ) ) ;
#98 = DIRECTION ( 'NONE',  ( 0.0000000000000000000, 0.0000000000000000000, -1.000000000000000000 ) ) ;
#99 = EDGE_LOOP ( 'NONE', ( #180, #17, #321, #248 ) ) ;
#100 = DIRECTION ( 'NONE',  ( 0.0000000000000000000, 0.0000000000000000000, -1.000000000000000000 ) ) ;
#101 = DIRECTION ( 'NONE',  ( 0.0000000000000000000, 1.000000000000000000, 0.0000000000000000000 ) ) ;
#102 = DIRECTION ( 'NONE',  ( 8.659560562354919300E-017, 0.7071067811865487900, -0.7071067811865463500 ) ) ;
#103 = CARTESIAN_POINT ( 'NONE',  ( 0.0000000000000000000, 13.99999999999999800, 0.0000000000000000000 ) ) ;
#104 = DIRECTION ( 'NONE',  ( 0.0000000000000000000, 0.0000000000000000000, -1.000000000000000000 ) ) ;
#105 = EDGE_LOOP ( 'NONE', ( #58, #173, #283, #313 ) ) ;
#106 = ORIENTED_EDGE ( 'NONE', *, *, #310, .F. ) ;
#107 = CARTESIAN_POINT ( 'NONE',  ( 0.0000000000000000000, 13.00000000000000200, 0.0000000000000000000 ) ) ;
#108 = ADVANCED_FACE ( 'NONE', ( #300 ), #351, .T. ) ;
#109 = CARTESIAN_POINT ( 'NONE',  ( 0.0000000000000000000, 13.70000000000000100, -2.545854811567261200 ) ) ;
#110 = AXIS2_PLACEMENT_3D ( 'NONE', #320, #184, #39 ) ;
#111 = ADVANCED_FACE ( 'NONE', ( #149 ), #209, .T. ) ;
#112 = FACE_OUTER_BOUND ( 'NONE', #105, .T. ) ;
#113 = PRODUCT_CONTEXT ( 'NONE', #252, 'mechanical' ) ;
#114 = PRODUCT ( '42760~0', '42760~0', '', ( #113 ) ) ;
#115 = DIRECTION ( 'NONE',  ( 0.0000000000000000000, 0.0000000000000000000, 1.000000000000000000 ) ) ;
#116 = EDGE_CURVE ( 'NONE', #333, #305, #135, .T. ) ;
#117 = EDGE_LOOP ( 'NONE', ( #244, #170, #23, #47 ) ) ;
#118 = LINE ( 'NONE', #159, #239 ) ;
#119 = AXIS2_PLACEMENT_3D ( 'NONE', #103, #364, #301 ) ;
#120 = AXIS2_PLACEMENT_3D ( 'NONE', #330, #189, #270 ) ;
#121 = CYLINDRICAL_SURFACE ( 'NONE', #141, 1.000000000000000000 ) ;
#122 = AXIS2_PLACEMENT_3D ( 'NONE', #50, #115, #26 ) ;
#123 = VERTEX_POINT ( 'NONE', #66 ) ;
#124 = VERTEX_POINT ( 'NONE', #268 ) ;
#125 = CARTESIAN_POINT ( 'NONE',  ( 0.0000000000000000000, 13.39999999999999900, 2.026239569296599500 ) ) ;
#126 = CARTESIAN_POINT ( 'NONE',  ( 1.224646799147353200E-016, 0.4999999999999978400, 1.000000000000000000 ) ) ;
#127 = DIRECTION ( 'NONE',  ( 0.0000000000000000000, 1.000000000000000000, 0.0000000000000000000 ) ) ;
#128 = CONICAL_SURFACE ( 'NONE', #120, 2.950000000000000200, 0.5235987755983002600 ) ;
#129 = CARTESIAN_POINT ( 'NONE',  ( 2.799600374462263200E-016, 13.99999999999999800, -2.026239569296599500 ) ) ;
#130 = AXIS2_PLACEMENT_3D ( 'NONE', #148, #356, #206 ) ;
#131 = VECTOR ( 'NONE', #350, 999.9999999999998900 ) ;
#132 = DIRECTION ( 'NONE',  ( -0.0000000000000000000, -1.000000000000000000, -0.0000000000000000000 ) ) ;
#133 = CARTESIAN_POINT ( 'NONE',  ( 3.612708057484692100E-016, 13.00000000000000200, 2.950000000000000200 ) ) ;
#134 = ORIENTED_EDGE ( 'NONE', *, *, #240, .F. ) ;
#135 = CIRCLE ( 'NONE', #80, 2.545854811567261200 ) ;
#136 = CARTESIAN_POINT ( 'NONE',  ( 0.0000000000000000000, 13.39999999999999900, 0.0000000000000000000 ) ) ;
#137 =( GEOMETRIC_REPRESENTATION_CONTEXT ( 3 ) GLOBAL_UNCERTAINTY_ASSIGNED_CONTEXT ( ( #83 ) ) GLOBAL_UNIT_ASSIGNED_CONTEXT ( ( #78, #27, #196 ) ) REPRESENTATION_CONTEXT ( 'NONE', 'WORKASPACE' ) );
#138 = CARTESIAN_POINT ( 'NONE',  ( 0.0000000000000000000, 13.00000000000000200, 0.0000000000000000000 ) ) ;
#139 = CONICAL_SURFACE ( 'NONE', #51, 0.5000000000000038900, 0.7853981633974466100 ) ;
#140 = EDGE_CURVE ( 'NONE', #293, #282, #118, .T. ) ;
#141 = AXIS2_PLACEMENT_3D ( 'NONE', #342, #370, #371 ) ;
#142 = ORIENTED_EDGE ( 'NONE', *, *, #240, .T. ) ;
#143 = EDGE_LOOP ( 'NONE', ( #68, #232, #201, #35 ) ) ;
#144 = AXIS2_PLACEMENT_3D ( 'NONE', #357, #127, #324 ) ;
#145 = VERTEX_POINT ( 'NONE', #326 ) ;
#146 = AXIS2_PLACEMENT_3D ( 'NONE', #186, #358, #43 ) ;
#147 = FACE_OUTER_BOUND ( 'NONE', #182, .T. ) ;
#148 = CARTESIAN_POINT ( 'NONE',  ( 0.0000000000000000000, 13.99999999999999800, 0.0000000000000000000 ) ) ;
#149 = FACE_OUTER_BOUND ( 'NONE', #266, .T. ) ;
#150 = EDGE_CURVE ( 'NONE', #305, #264, #202, .T. ) ;
#151 = PLANE ( 'NONE',  #110 ) ;
#152 = ORIENTED_EDGE ( 'NONE', *, *, #219, .T. ) ;
#153 = CYLINDRICAL_SURFACE ( 'NONE', #94, 2.950000000000000200 ) ;
#154 = CARTESIAN_POINT ( 'NONE',  ( 0.0000000000000000000, 0.0000000000000000000, 0.0000000000000000000 ) ) ;
#155 = DIRECTION ( 'NONE',  ( 0.0000000000000000000, 0.0000000000000000000, -1.000000000000000000 ) ) ;
#156 = EDGE_CURVE ( 'NONE', #238, #30, #221, .T. ) ;
#157 = CIRCLE ( 'NONE', #119, 2.026239569296599500 ) ;
#158 = DIRECTION ( 'NONE',  ( -0.0000000000000000000, -1.000000000000000000, -0.0000000000000000000 ) ) ;
#159 = CARTESIAN_POINT ( 'NONE',  ( 3.612708057484692100E-016, 0.0000000000000000000, 2.950000000000000200 ) ) ;
#160 = STYLED_ITEM ( 'NONE', ( #205 ), #319 ) ;
#161 = DIRECTION ( 'NONE',  ( 0.0000000000000000000, 0.0000000000000000000, -1.000000000000000000 ) ) ;
#162 = ADVANCED_FACE ( 'NONE', ( #55, #164 ), #151, .T. ) ;
#163 = ORIENTED_EDGE ( 'NONE', *, *, #197, .T. ) ;
#164 = FACE_BOUND ( 'NONE', #1, .T. ) ;
#165 =( LENGTH_UNIT ( ) NAMED_UNIT ( * ) SI_UNIT ( .MILLI., .METRE. ) );
#166 = AXIS2_PLACEMENT_3D ( 'NONE', #354, #212, #302 ) ;
#167 = DIRECTION ( 'NONE',  ( 0.0000000000000000000, 1.000000000000000000, 0.0000000000000000000 ) ) ;
#168 = FACE_OUTER_BOUND ( 'NONE', #143, .T. ) ;
#169 = SURFACE_SIDE_STYLE ('',( #372 ) ) ;
#170 = ORIENTED_EDGE ( 'NONE', *, *, #91, .T. ) ;
#171 = CARTESIAN_POINT ( 'NONE',  ( 0.0000000000000000000, 6.999999999999999100, 0.0000000000000000000 ) ) ;
#172 = CLOSED_SHELL ( 'NONE', ( #273, #365, #253, #218, #281, #111, #278, #108, #162, #337, #77, #307, #217 ) ) ;
#173 = ORIENTED_EDGE ( 'NONE', *, *, #79, .T. ) ;
#174 = AXIS2_PLACEMENT_3D ( 'NONE', #171, #279, #255 ) ;
#175 = CIRCLE ( 'NONE', #274, 0.5000000000000038900 ) ;
#176 = EDGE_LOOP ( 'NONE', ( #60, #289 ) ) ;
#177 = PRODUCT_DEFINITION_FORMATION_WITH_SPECIFIED_SOURCE ( 'ANY', '', #114, .NOT_KNOWN. ) ;
#178 = CARTESIAN_POINT ( 'NONE',  ( 0.0000000000000000000, 13.00000000000000200, 0.0000000000000000000 ) ) ;
#179 = DIRECTION ( 'NONE',  ( -1.000000000000000000, 0.0000000000000000000, 0.0000000000000000000 ) ) ;
#180 = ORIENTED_EDGE ( 'NONE', *, *, #2, .F. ) ;
#181 = CARTESIAN_POINT ( 'NONE',  ( 0.0000000000000000000, 0.4999999999999978400, 0.0000000000000000000 ) ) ;
#182 = EDGE_LOOP ( 'NONE', ( #36, #259, #152, #93 ) ) ;
#183 = PRESENTATION_STYLE_ASSIGNMENT (( #29 ) ) ;
#184 = DIRECTION ( 'NONE',  ( 0.0000000000000000000, -1.000000000000000000, -0.0000000000000000000 ) ) ;
#185 = CARTESIAN_POINT ( 'NONE',  ( 3.365240501782212800E-016, 13.70000000000000100, 2.545854811567261200 ) ) ;
#186 = CARTESIAN_POINT ( 'NONE',  ( 2.372649730810373100, 13.99999999999999800, 0.0000000000000000000 ) ) ;
#187 = DIRECTION ( 'NONE',  ( -0.0000000000000000000, -1.000000000000000000, -0.0000000000000000000 ) ) ;
#188 = CARTESIAN_POINT ( 'NONE',  ( 0.0000000000000000000, 6.999999999999999100, -1.000000000000000000 ) ) ;
#189 = DIRECTION ( 'NONE',  ( -0.0000000000000000000, -1.000000000000000000, -0.0000000000000000000 ) ) ;
#190 = EDGE_LOOP ( 'NONE', ( #31, #286, #214, #215 ) ) ;
#191 = ORIENTED_EDGE ( 'NONE', *, *, #140, .T. ) ;
#192 = DIRECTION ( 'NONE',  ( 0.0000000000000000000, 0.0000000000000000000, -1.000000000000000000 ) ) ;
#193 = STYLED_ITEM ( 'NONE', ( #183 ), #210 ) ;
#194 =( NAMED_UNIT ( * ) SI_UNIT ( $, .STERADIAN. ) SOLID_ANGLE_UNIT ( ) );
#195 = CIRCLE ( 'NONE', #174, 1.000000000000000000 ) ;
#196 =( NAMED_UNIT ( * ) SI_UNIT ( $, .STERADIAN. ) SOLID_ANGLE_UNIT ( ) );
#197 = EDGE_CURVE ( 'NONE', #123, #238, #287, .T. ) ;
#198 = FILL_AREA_STYLE_COLOUR ( '', #288 ) ;
#199 = ORIENTED_EDGE ( 'NONE', *, *, #71, .F. ) ;
#200 = FACE_OUTER_BOUND ( 'NONE', #176, .T. ) ;
#201 = ORIENTED_EDGE ( 'NONE', *, *, #295, .F. ) ;
#202 = CIRCLE ( 'NONE', #346, 0.5999999999999998700 ) ;
#203 = DIRECTION ( 'NONE',  ( -0.0000000000000000000, -1.000000000000000000, -0.0000000000000000000 ) ) ;
#204 = PRESENTATION_LAYER_ASSIGNMENT (  '', '', ( #193 ) ) ;
#205 = PRESENTATION_STYLE_ASSIGNMENT (( #309 ) ) ;
#206 = DIRECTION ( 'NONE',  ( 0.0000000000000000000, 0.0000000000000000000, 1.000000000000000000 ) ) ;
#207 = CARTESIAN_POINT ( 'NONE',  ( 0.0000000000000000000, 0.0000000000000000000, -1.000000000000000000 ) ) ;
#208 = CARTESIAN_POINT ( 'NONE',  ( 0.0000000000000000000, 0.4999999999999978400, -1.000000000000000000 ) ) ;
#209 = PLANE ( 'NONE',  #146 ) ;
#210 = ADVANCED_BREP_SHAPE_REPRESENTATION ( '42760~0', ( #319, #122 ), #312 ) ;
#211 = FACE_OUTER_BOUND ( 'NONE', #86, .T. ) ;
#212 = DIRECTION ( 'NONE',  ( 1.000000000000000000, -0.0000000000000000000, 1.224646799147353200E-016 ) ) ;
#213 = EDGE_CURVE ( 'NONE', #282, #145, #368, .T. ) ;
#214 = ORIENTED_EDGE ( 'NONE', *, *, #233, .T. ) ;
#215 = ORIENTED_EDGE ( 'NONE', *, *, #213, .F. ) ;
#216 = DIRECTION ( 'NONE',  ( -0.0000000000000000000, -1.000000000000000000, -0.0000000000000000000 ) ) ;
#217 = ADVANCED_FACE ( 'NONE', ( #294 ), #87, .T. ) ;
#218 = ADVANCED_FACE ( 'NONE', ( #12 ), #153, .T. ) ;
#219 = EDGE_CURVE ( 'NONE', #271, #30, #64, .T. ) ;
#220 = VERTEX_POINT ( 'NONE', #13 ) ;
#221 = CIRCLE ( 'NONE', #42, 1.000000000000000000 ) ;
#222 = AXIS2_PLACEMENT_3D ( 'NONE', #327, #18, #299 ) ;
#223 = DIRECTION ( 'NONE',  ( 0.0000000000000000000, 0.0000000000000000000, 1.000000000000000000 ) ) ;
#224 = CIRCLE ( 'NONE', #130, 2.026239569296599500 ) ;
#225 = CIRCLE ( 'NONE', #257, 2.950000000000000200 ) ;
#226 = VERTEX_POINT ( 'NONE', #235 ) ;
#227 = PRODUCT_DEFINITION ( 'UNKNOWN', '', #177, #49 ) ;
#228 = EDGE_CURVE ( 'NONE', #333, #220, #76, .T. ) ;
#229 = CARTESIAN_POINT ( 'NONE',  ( 3.612708057484692100E-016, 13.00000000000000200, 2.950000000000000200 ) ) ;
#230 = CIRCLE ( 'NONE', #243, 2.950000000000000200 ) ;
#231 = DIRECTION ( 'NONE',  ( 0.0000000000000000000, 0.0000000000000000000, -1.000000000000000000 ) ) ;
#232 = ORIENTED_EDGE ( 'NONE', *, *, #2, .T. ) ;
#233 = EDGE_CURVE ( 'NONE', #220, #145, #88, .T. ) ;
#234 = DIRECTION ( 'NONE',  ( 6.123233995736782100E-017, -0.8660254037844380400, 0.5000000000000012200 ) ) ;
#235 = CARTESIAN_POINT ( 'NONE',  ( 9.184850993605171900E-017, 0.0000000000000000000, -0.5000000000000038900 ) ) ;
#236 = EDGE_CURVE ( 'NONE', #333, #24, #292, .T. ) ;
#237 = LINE ( 'NONE', #229, #85 ) ;
#238 = VERTEX_POINT ( 'NONE', #126 ) ;
#239 = VECTOR ( 'NONE', #65, 1000.000000000000000 ) ;
#240 = EDGE_CURVE ( 'NONE', #145, #282, #225, .T. ) ;
#241 = DIRECTION ( 'NONE',  ( 0.0000000000000000000, 0.0000000000000000000, -1.000000000000000000 ) ) ;
#242 = DIRECTION ( 'NONE',  ( 0.0000000000000000000, 0.0000000000000000000, -1.000000000000000000 ) ) ;
#243 = AXIS2_PLACEMENT_3D ( 'NONE', #107, #158, #245 ) ;
#244 = ORIENTED_EDGE ( 'NONE', *, *, #33, .F. ) ;
#245 = DIRECTION ( 'NONE',  ( 0.0000000000000000000, 0.0000000000000000000, -1.000000000000000000 ) ) ;
#246 = CARTESIAN_POINT ( 'NONE',  ( 0.0000000000000000000, 0.4999999999999978400, 0.0000000000000000000 ) ) ;
#247 = ORIENTED_EDGE ( 'NONE', *, *, #348, .F. ) ;
#248 = ORIENTED_EDGE ( 'NONE', *, *, #53, .F. ) ;
#249 = PRODUCT_RELATED_PRODUCT_CATEGORY ( 'part', '', ( #114 ) ) ;
#250 = APPLICATION_CONTEXT ( 'automotive_design' ) ;
#251 = VECTOR ( 'NONE', #92, 1000.000000000000000 ) ;
#252 = APPLICATION_CONTEXT ( 'automotive_design' ) ;
#253 = ADVANCED_FACE ( 'NONE', ( #112 ), #74, .T. ) ;
#254 = DIRECTION ( 'NONE',  ( -0.0000000000000000000, -1.000000000000000000, -0.0000000000000000000 ) ) ;
#255 = DIRECTION ( 'NONE',  ( 0.0000000000000000000, 0.0000000000000000000, -1.000000000000000000 ) ) ;
#256 = UNCERTAINTY_MEASURE_WITH_UNIT (LENGTH_MEASURE( 1.000000000000000100E-005 ), #165, 'distance_accuracy_value', 'NONE');
#257 = AXIS2_PLACEMENT_3D ( 'NONE', #70, #187, #361 ) ;
#258 = ORIENTED_EDGE ( 'NONE', *, *, #310, .T. ) ;
#259 = ORIENTED_EDGE ( 'NONE', *, *, #260, .T. ) ;
#260 = EDGE_CURVE ( 'NONE', #124, #271, #45, .T. ) ;
#261 = AXIS2_PLACEMENT_3D ( 'NONE', #291, #323, #192 ) ;
#262 = CARTESIAN_POINT ( 'NONE',  ( 0.0000000000000000000, 0.0000000000000000000, 0.0000000000000000000 ) ) ;
#263 = COLOUR_RGB ( '',0.7529411764705882200, 0.7529411764705882200, 0.7529411764705882200 ) ;
#264 = VERTEX_POINT ( 'NONE', #303 ) ;
#265 = ORIENTED_EDGE ( 'NONE', *, *, #116, .F. ) ;
#266 = EDGE_LOOP ( 'NONE', ( #258, #345 ) ) ;
#267 = CARTESIAN_POINT ( 'NONE',  ( 0.0000000000000000000, 0.0000000000000000000, 0.0000000000000000000 ) ) ;
#268 = CARTESIAN_POINT ( 'NONE',  ( 1.224646799147353200E-016, 6.999999999999999100, 1.000000000000000000 ) ) ;
#269 = CONICAL_SURFACE ( 'NONE', #316, 0.5000000000000038900, 0.7853981633974466100 ) ;
#270 = DIRECTION ( 'NONE',  ( 0.0000000000000000000, 0.0000000000000000000, -1.000000000000000000 ) ) ;
#271 = VERTEX_POINT ( 'NONE', #188 ) ;
#272 = ORIENTED_EDGE ( 'NONE', *, *, #91, .F. ) ;
#273 = ADVANCED_FACE ( 'NONE', ( #211 ), #32, .T. ) ;
#274 = AXIS2_PLACEMENT_3D ( 'NONE', #72, #275, #104 ) ;
#275 = DIRECTION ( 'NONE',  ( -0.0000000000000000000, -1.000000000000000000, -0.0000000000000000000 ) ) ;
#276 = DIRECTION ( 'NONE',  ( 0.0000000000000000000, 0.0000000000000000000, -1.000000000000000000 ) ) ;
#277 = EDGE_CURVE ( 'NONE', #30, #238, #359, .T. ) ;
#278 = ADVANCED_FACE ( 'NONE', ( #347 ), #284, .T. ) ;
#279 = DIRECTION ( 'NONE',  ( -0.0000000000000000000, -1.000000000000000000, -0.0000000000000000000 ) ) ;
#280 = AXIS2_PLACEMENT_3D ( 'NONE', #136, #44, #332 ) ;
#281 = ADVANCED_FACE ( 'NONE', ( #168 ), #128, .T. ) ;
#282 = VERTEX_POINT ( 'NONE', #335 ) ;
#283 = ORIENTED_EDGE ( 'NONE', *, *, #156, .T. ) ;
#284 = CONICAL_SURFACE ( 'NONE', #367, 2.950000000000000200, 0.5235987755983002600 ) ;
#285 = AXIS2_PLACEMENT_3D ( 'NONE', #246, #22, #276 ) ;
#286 = ORIENTED_EDGE ( 'NONE', *, *, #53, .T. ) ;
#287 = LINE ( 'NONE', #63, #6 ) ;
#288 = COLOUR_RGB ( '',0.7529411764705882200, 0.7529411764705882200, 0.7529411764705882200 ) ;
#289 = ORIENTED_EDGE ( 'NONE', *, *, #33, .T. ) ;
#290 = DIRECTION ( 'NONE',  ( 0.0000000000000000000, 0.0000000000000000000, 1.000000000000000000 ) ) ;
#291 = CARTESIAN_POINT ( 'NONE',  ( 0.0000000000000000000, 0.0000000000000000000, 0.0000000000000000000 ) ) ;
#292 = CIRCLE ( 'NONE', #166, 0.5999999999999998700 ) ;
#293 = VERTEX_POINT ( 'NONE', #133 ) ;
#294 = FACE_OUTER_BOUND ( 'NONE', #46, .T. ) ;
#295 = EDGE_CURVE ( 'NONE', #220, #293, #230, .T. ) ;
#296 = DIRECTION ( 'NONE',  ( -0.0000000000000000000, -1.000000000000000000, -0.0000000000000000000 ) ) ;
#297 = CARTESIAN_POINT ( 'NONE',  ( 0.0000000000000000000, 7.000000000000000000, 0.0000000000000000000 ) ) ;
#298 = FILL_AREA_STYLE ('',( #48 ) ) ;
#299 = DIRECTION ( 'NONE',  ( 0.0000000000000000000, 0.0000000000000000000, -1.000000000000000000 ) ) ;
#300 = FACE_OUTER_BOUND ( 'NONE', #190, .T. ) ;
#301 = DIRECTION ( 'NONE',  ( 0.0000000000000000000, 0.0000000000000000000, 1.000000000000000000 ) ) ;
#302 = DIRECTION ( 'NONE',  ( 1.224646799147353200E-016, 0.0000000000000000000, -1.000000000000000000 ) ) ;
#303 = CARTESIAN_POINT ( 'NONE',  ( 0.0000000000000000000, 13.99999999999999800, 2.026239569296599500 ) ) ;
#304 = LINE ( 'NONE', #329, #69 ) ;
#305 = VERTEX_POINT ( 'NONE', #185 ) ;
#306 = AXIS2_PLACEMENT_3D ( 'NONE', #328, #216, #161 ) ;
#307 = ADVANCED_FACE ( 'NONE', ( #343 ), #269, .T. ) ;
#308 =( NAMED_UNIT ( * ) PLANE_ANGLE_UNIT ( ) SI_UNIT ( $, .RADIAN. ) );
#309 = SURFACE_STYLE_USAGE ( .BOTH. , #169 ) ;
#310 = EDGE_CURVE ( 'NONE', #264, #24, #157, .T. ) ;
#311 = CARTESIAN_POINT ( 'NONE',  ( 0.0000000000000000000, 0.0000000000000000000, 0.0000000000000000000 ) ) ;
#312 =( GEOMETRIC_REPRESENTATION_CONTEXT ( 3 ) GLOBAL_UNCERTAINTY_ASSIGNED_CONTEXT ( ( #256 ) ) GLOBAL_UNIT_ASSIGNED_CONTEXT ( ( #165, #308, #194 ) ) REPRESENTATION_CONTEXT ( 'NONE', 'WORKASPACE' ) );
#313 = ORIENTED_EDGE ( 'NONE', *, *, #219, .F. ) ;
#314 = VECTOR ( 'NONE', #296, 1000.000000000000000 ) ;
#315 = EDGE_CURVE ( 'NONE', #123, #226, #175, .T. ) ;
#316 = AXIS2_PLACEMENT_3D ( 'NONE', #41, #101, #67 ) ;
#317 = DIRECTION ( 'NONE',  ( -0.0000000000000000000, -1.000000000000000000, -0.0000000000000000000 ) ) ;
#318 = EDGE_LOOP ( 'NONE', ( #272, #5, #163, #82 ) ) ;
#319 = MANIFOLD_SOLID_BREP ( 'Verrundung1', #172 ) ;
#320 = CARTESIAN_POINT ( 'NONE',  ( 1.000000000000000000, 6.999999999999999100, 0.0000000000000000000 ) ) ;
#321 = ORIENTED_EDGE ( 'NONE', *, *, #228, .T. ) ;
#322 = EDGE_LOOP ( 'NONE', ( #54, #191, #134, #95 ) ) ;
#323 = DIRECTION ( 'NONE',  ( -0.0000000000000000000, -1.000000000000000000, -0.0000000000000000000 ) ) ;
#324 = DIRECTION ( 'NONE',  ( 0.0000000000000000000, 0.0000000000000000000, 1.000000000000000000 ) ) ;
#325 = DIRECTION ( 'NONE',  ( 0.0000000000000000000, -1.000000000000000000, -0.0000000000000000000 ) ) ;
#326 = CARTESIAN_POINT ( 'NONE',  ( 0.0000000000000000000, 7.000000000000000000, -2.950000000000000200 ) ) ;
#327 = CARTESIAN_POINT ( 'NONE',  ( 0.0000000000000000000, 0.0000000000000000000, 0.0000000000000000000 ) ) ;
#328 = CARTESIAN_POINT ( 'NONE',  ( 0.0000000000000000000, 6.999999999999999100, 0.0000000000000000000 ) ) ;
#329 = CARTESIAN_POINT ( 'NONE',  ( 1.224646799147353200E-016, 0.0000000000000000000, 1.000000000000000000 ) ) ;
#330 = CARTESIAN_POINT ( 'NONE',  ( 0.0000000000000000000, 13.00000000000000200, 0.0000000000000000000 ) ) ;
#331 = EDGE_CURVE ( 'NONE', #305, #333, #8, .T. ) ;
#332 = DIRECTION ( 'NONE',  ( 0.0000000000000000000, 0.0000000000000000000, 1.000000000000000000 ) ) ;
#333 = VERTEX_POINT ( 'NONE', #109 ) ;
#334 = ORIENTED_EDGE ( 'NONE', *, *, #150, .T. ) ;
#335 = CARTESIAN_POINT ( 'NONE',  ( 3.612708057484692100E-016, 7.000000000000000000, 2.950000000000000200 ) ) ;
#336 = DIRECTION ( 'NONE',  ( 0.0000000000000000000, 0.0000000000000000000, 1.000000000000000000 ) ) ;
#337 = ADVANCED_FACE ( 'NONE', ( #147 ), #121, .T. ) ;
#338 = FILL_AREA_STYLE ('',( #198 ) ) ;
#339 =( LENGTH_UNIT ( ) NAMED_UNIT ( * ) SI_UNIT ( .MILLI., .METRE. ) );
#340 = PRESENTATION_LAYER_ASSIGNMENT (  '', '', ( #160 ) ) ;
#341 = APPLICATION_PROTOCOL_DEFINITION ( 'draft international standard', 'automotive_design', 1998, #250 ) ;
#342 = CARTESIAN_POINT ( 'NONE',  ( 0.0000000000000000000, 0.0000000000000000000, 0.0000000000000000000 ) ) ;
#343 = FACE_OUTER_BOUND ( 'NONE', #318, .T. ) ;
#344 = ORIENTED_EDGE ( 'NONE', *, *, #236, .F. ) ;
#345 = ORIENTED_EDGE ( 'NONE', *, *, #71, .T. ) ;
#346 = AXIS2_PLACEMENT_3D ( 'NONE', #125, #179, #352 ) ;
#347 = FACE_OUTER_BOUND ( 'NONE', #99, .T. ) ;
#348 = EDGE_CURVE ( 'NONE', #271, #124, #195, .T. ) ;
#349 = ORIENTED_EDGE ( 'NONE', *, *, #236, .T. ) ;
#350 = DIRECTION ( 'NONE',  ( 0.0000000000000000000, -0.8660254037844380400, -0.5000000000000012200 ) ) ;
#351 = CYLINDRICAL_SURFACE ( 'NONE', #222, 2.950000000000000200 ) ;
#352 = DIRECTION ( 'NONE',  ( 0.0000000000000000000, 0.0000000000000000000, 1.000000000000000000 ) ) ;
#353 = AXIS2_PLACEMENT_3D ( 'NONE', #81, #254, #223 ) ;
#354 = CARTESIAN_POINT ( 'NONE',  ( 2.481427802844791800E-016, 13.39999999999999900, -2.026239569296599500 ) ) ;
#355 = DIRECTION ( 'NONE',  ( -0.0000000000000000000, -1.000000000000000000, -0.0000000000000000000 ) ) ;
#356 = DIRECTION ( 'NONE',  ( 0.0000000000000000000, 1.000000000000000000, 0.0000000000000000000 ) ) ;
#357 = CARTESIAN_POINT ( 'NONE',  ( 0.0000000000000000000, 13.39999999999999900, 0.0000000000000000000 ) ) ;
#358 = DIRECTION ( 'NONE',  ( 0.0000000000000000000, 1.000000000000000000, 0.0000000000000000000 ) ) ;
#359 = CIRCLE ( 'NONE', #285, 1.000000000000000000 ) ;
#360 = CARTESIAN_POINT ( 'NONE',  ( 6.123233995736814100E-017, 0.0000000000000000000, -0.5000000000000038900 ) ) ;
#361 = DIRECTION ( 'NONE',  ( 0.0000000000000000000, 0.0000000000000000000, -1.000000000000000000 ) ) ;
#362 = ORIENTED_EDGE ( 'NONE', *, *, #260, .F. ) ;
#363 = VECTOR ( 'NONE', #102, 1000.000000000000000 ) ;
#364 = DIRECTION ( 'NONE',  ( 0.0000000000000000000, 1.000000000000000000, 0.0000000000000000000 ) ) ;
#365 = ADVANCED_FACE ( 'NONE', ( #3 ), #139, .T. ) ;
#366 = APPLICATION_PROTOCOL_DEFINITION ( 'draft international standard', 'automotive_design', 1998, #252 ) ;
#367 = AXIS2_PLACEMENT_3D ( 'NONE', #138, #20, #16 ) ;
#368 = CIRCLE ( 'NONE', #73, 2.950000000000000200 ) ;
#369 =( NAMED_UNIT ( * ) SI_UNIT ( $, .STERADIAN. ) SOLID_ANGLE_UNIT ( ) );
#370 = DIRECTION ( 'NONE',  ( -0.0000000000000000000, -1.000000000000000000, -0.0000000000000000000 ) ) ;
#371 = DIRECTION ( 'NONE',  ( 0.0000000000000000000, 0.0000000000000000000, -1.000000000000000000 ) ) ;
#372 = SURFACE_STYLE_FILL_AREA ( #298 ) ;
ENDSEC;
END-ISO-10303-21;
