ISO-10303-21;
HEADER;
FILE_DESCRIPTION (( 'STEP AP214' ),
    '1' );
FILE_NAME ('42750~0.STEP',
    '2017-07-04T09:11:03',
    ( '' ),
    ( '' ),
    'SwSTEP 2.0',
    'SolidWorks 2016',
    '' );
FILE_SCHEMA (( 'AUTOMOTIVE_DESIGN' ));
ENDSEC;

DATA;
#1 = AXIS2_PLACEMENT_3D ( 'NONE', #162, #253, #102 ) ;
#2 = VERTEX_POINT ( 'NONE', #200 ) ;
#3 = ORIENTED_EDGE ( 'NONE', *, *, #94, .T. ) ;
#4 = CARTESIAN_POINT ( 'NONE',  ( 0.0000000000000000000, 0.0000000000000000000, 0.4999999999999987200 ) ) ;
#5 = FACE_OUTER_BOUND ( 'NONE', #194, .T. ) ;
#6 = CARTESIAN_POINT ( 'NONE',  ( 0.0000000000000000000, 0.5000000000000030000, 0.0000000000000000000 ) ) ;
#7 = DIRECTION ( 'NONE',  ( -0.0000000000000000000, -1.000000000000000000, -0.0000000000000000000 ) ) ;
#8 =( LENGTH_UNIT ( ) NAMED_UNIT ( * ) SI_UNIT ( .MILLI., .METRE. ) );
#9 = VERTEX_POINT ( 'NONE', #65 ) ;
#10 = AXIS2_PLACEMENT_3D ( 'NONE', #334, #58, #187 ) ;
#11 = CARTESIAN_POINT ( 'NONE',  ( 0.0000000000000000000, 13.00000000000000200, -2.450000000000000200 ) ) ;
#12 = PRODUCT ( '42750~0', '42750~0', '', ( #220 ) ) ;
#13 = ADVANCED_FACE ( 'NONE', ( #368 ), #182, .T. ) ;
#14 = DIRECTION ( 'NONE',  ( 0.0000000000000000000, 0.0000000000000000000, 1.000000000000000000 ) ) ;
#15 = DIRECTION ( 'NONE',  ( 0.0000000000000000000, 0.0000000000000000000, -1.000000000000000000 ) ) ;
#16 = ADVANCED_FACE ( 'NONE', ( #40 ), #68, .T. ) ;
#17 = MECHANICAL_DESIGN_GEOMETRIC_PRESENTATION_REPRESENTATION (  '', ( #264 ), #147 ) ;
#18 = DIRECTION ( 'NONE',  ( 0.0000000000000000000, 0.7071067811865487900, 0.7071067811865463500 ) ) ;
#19 = CARTESIAN_POINT ( 'NONE',  ( 3.000384657911015900E-016, 13.00000000000000200, 2.450000000000000200 ) ) ;
#20 = FACE_OUTER_BOUND ( 'NONE', #127, .T. ) ;
#21 = ORIENTED_EDGE ( 'NONE', *, *, #172, .F. ) ;
#22 =( NAMED_UNIT ( * ) PLANE_ANGLE_UNIT ( ) SI_UNIT ( $, .RADIAN. ) );
#23 = CARTESIAN_POINT ( 'NONE',  ( 0.0000000000000000000, 13.69999999999999900, 0.0000000000000000000 ) ) ;
#24 =( NAMED_UNIT ( * ) SI_UNIT ( $, .STERADIAN. ) SOLID_ANGLE_UNIT ( ) );
#25 = AXIS2_PLACEMENT_3D ( 'NONE', #23, #226, #81 ) ;
#26 = ORIENTED_EDGE ( 'NONE', *, *, #172, .T. ) ;
#27 = DIRECTION ( 'NONE',  ( 0.0000000000000000000, 0.0000000000000000000, 1.000000000000000000 ) ) ;
#28 = ORIENTED_EDGE ( 'NONE', *, *, #215, .T. ) ;
#29 = ORIENTED_EDGE ( 'NONE', *, *, #255, .F. ) ;
#30 = LINE ( 'NONE', #370, #279 ) ;
#31 = DIRECTION ( 'NONE',  ( 0.0000000000000000000, 0.0000000000000000000, -1.000000000000000000 ) ) ;
#32 = DIRECTION ( 'NONE',  ( -0.0000000000000000000, -1.000000000000000000, -0.0000000000000000000 ) ) ;
#33 = DIRECTION ( 'NONE',  ( 0.0000000000000000000, 0.0000000000000000000, 1.000000000000000000 ) ) ;
#34 = LINE ( 'NONE', #359, #180 ) ;
#35 = EDGE_CURVE ( 'NONE', #276, #350, #144, .T. ) ;
#36 = DIRECTION ( 'NONE',  ( 0.0000000000000000000, 0.0000000000000000000, -1.000000000000000000 ) ) ;
#37 = DIRECTION ( 'NONE',  ( 0.0000000000000000000, 0.0000000000000000000, -1.000000000000000000 ) ) ;
#38 = FACE_BOUND ( 'NONE', #145, .T. ) ;
#39 = VERTEX_POINT ( 'NONE', #4 ) ;
#40 = FACE_OUTER_BOUND ( 'NONE', #90, .T. ) ;
#41 = DIRECTION ( 'NONE',  ( 0.0000000000000000000, 0.0000000000000000000, -1.000000000000000000 ) ) ;
#42 = ORIENTED_EDGE ( 'NONE', *, *, #94, .F. ) ;
#43 = DIRECTION ( 'NONE',  ( 0.0000000000000000000, 0.0000000000000000000, -1.000000000000000000 ) ) ;
#44 = ORIENTED_EDGE ( 'NONE', *, *, #148, .T. ) ;
#45 = ORIENTED_EDGE ( 'NONE', *, *, #155, .T. ) ;
#46 = AXIS2_PLACEMENT_3D ( 'NONE', #216, #178, #43 ) ;
#47 = DIRECTION ( 'NONE',  ( 0.0000000000000000000, 0.0000000000000000000, 1.000000000000000000 ) ) ;
#48 = CARTESIAN_POINT ( 'NONE',  ( 0.0000000000000000000, 7.000000000000000000, -2.450000000000000200 ) ) ;
#49 = CIRCLE ( 'NONE', #229, 1.000000000000000000 ) ;
#50 = UNCERTAINTY_MEASURE_WITH_UNIT (LENGTH_MEASURE( 1.000000000000000100E-005 ), #8, 'distance_accuracy_value', 'NONE');
#51 = CONICAL_SURFACE ( 'NONE', #278, 0.4999999999999987200, 0.7853981633974466100 ) ;
#52 = FACE_OUTER_BOUND ( 'NONE', #239, .T. ) ;
#53 = DIRECTION ( 'NONE',  ( 8.659560562354918100E-017, 0.7071067811865487900, -0.7071067811865463500 ) ) ;
#54 = PRODUCT_DEFINITION ( 'UNKNOWN', '', #304, #112 ) ;
#55 = EDGE_LOOP ( 'NONE', ( #42, #280, #71, #272 ) ) ;
#56 = FILL_AREA_STYLE ('',( #97 ) ) ;
#57 = LINE ( 'NONE', #19, #103 ) ;
#58 = DIRECTION ( 'NONE',  ( 1.000000000000000000, -0.0000000000000000000, 1.224646799147353200E-016 ) ) ;
#59 = CARTESIAN_POINT ( 'NONE',  ( 3.000384657911015900E-016, 7.000000000000000000, 2.450000000000000200 ) ) ;
#60 = AXIS2_PLACEMENT_3D ( 'NONE', #231, #260, #114 ) ;
#61 = VERTEX_POINT ( 'NONE', #340 ) ;
#62 = SURFACE_STYLE_FILL_AREA ( #120 ) ;
#63 = AXIS2_PLACEMENT_3D ( 'NONE', #202, #315, #33 ) ;
#64 = DIRECTION ( 'NONE',  ( -0.0000000000000000000, -1.000000000000000000, -0.0000000000000000000 ) ) ;
#65 = CARTESIAN_POINT ( 'NONE',  ( 0.0000000000000000000, 13.69999999999999900, -2.045854811567262100 ) ) ;
#66 = EDGE_CURVE ( 'NONE', #185, #312, #169, .T. ) ;
#67 = EDGE_CURVE ( 'NONE', #257, #201, #30, .T. ) ;
#68 = TOROIDAL_SURFACE ( 'NONE', #60, 1.526239569296599500, 0.5999999999999999800 ) ;
#69 = SHAPE_DEFINITION_REPRESENTATION ( #309, #219 ) ;
#70 = DIRECTION ( 'NONE',  ( 0.0000000000000000000, -0.8660254037844380400, -0.5000000000000012200 ) ) ;
#71 = ORIENTED_EDGE ( 'NONE', *, *, #193, .F. ) ;
#72 = DIRECTION ( 'NONE',  ( 0.0000000000000000000, 0.0000000000000000000, -1.000000000000000000 ) ) ;
#73 = ORIENTED_EDGE ( 'NONE', *, *, #284, .T. ) ;
#74 = ADVANCED_FACE ( 'NONE', ( #118 ), #186, .T. ) ;
#75 = CARTESIAN_POINT ( 'NONE',  ( 3.000384657911015900E-016, 13.00000000000000200, 2.450000000000000200 ) ) ;
#76 = CARTESIAN_POINT ( 'NONE',  ( 1.000000000000000000, 6.999999999999999100, 0.0000000000000000000 ) ) ;
#77 = DIRECTION ( 'NONE',  ( 0.0000000000000000000, 1.000000000000000000, 0.0000000000000000000 ) ) ;
#78 = PLANE ( 'NONE',  #128 ) ;
#79 = AXIS2_PLACEMENT_3D ( 'NONE', #211, #93, #295 ) ;
#80 = SURFACE_STYLE_USAGE ( .BOTH. , #164 ) ;
#81 = DIRECTION ( 'NONE',  ( 0.0000000000000000000, 0.0000000000000000000, 1.000000000000000000 ) ) ;
#82 = AXIS2_PLACEMENT_3D ( 'NONE', #173, #285, #119 ) ;
#83 = EDGE_CURVE ( 'NONE', #270, #312, #217, .T. ) ;
#84 = LINE ( 'NONE', #11, #369 ) ;
#85 = ORIENTED_EDGE ( 'NONE', *, *, #66, .T. ) ;
#86 = ORIENTED_EDGE ( 'NONE', *, *, #121, .T. ) ;
#87 = AXIS2_PLACEMENT_3D ( 'NONE', #174, #7, #72 ) ;
#88 = SURFACE_STYLE_FILL_AREA ( #56 ) ;
#89 = PRESENTATION_LAYER_ASSIGNMENT (  '', '', ( #264 ) ) ;
#90 = EDGE_LOOP ( 'NONE', ( #303, #345, #321, #29 ) ) ;
#91 = CARTESIAN_POINT ( 'NONE',  ( 0.0000000000000000000, 6.999999999999999100, 0.0000000000000000000 ) ) ;
#92 = AXIS2_PLACEMENT_3D ( 'NONE', #299, #129, #15 ) ;
#93 = DIRECTION ( 'NONE',  ( 0.0000000000000000000, 1.000000000000000000, 0.0000000000000000000 ) ) ;
#94 = EDGE_CURVE ( 'NONE', #198, #39, #204, .T. ) ;
#95 = MANIFOLD_SOLID_BREP ( 'Verrundung1', #143 ) ;
#96 = DIRECTION ( 'NONE',  ( 0.0000000000000000000, 1.000000000000000000, 0.0000000000000000000 ) ) ;
#97 = FILL_AREA_STYLE_COLOUR ( '', #316 ) ;
#98 = DIRECTION ( 'NONE',  ( 0.0000000000000000000, 0.0000000000000000000, -1.000000000000000000 ) ) ;
#99 = APPLICATION_PROTOCOL_DEFINITION ( 'draft international standard', 'automotive_design', 1998, #361 ) ;
#100 = AXIS2_PLACEMENT_3D ( 'NONE', #6, #203, #36 ) ;
#101 = VECTOR ( 'NONE', #124, 1000.000000000000000 ) ;
#102 = DIRECTION ( 'NONE',  ( 0.0000000000000000000, 0.0000000000000000000, -1.000000000000000000 ) ) ;
#103 = VECTOR ( 'NONE', #214, 999.9999999999998900 ) ;
#104 = ORIENTED_EDGE ( 'NONE', *, *, #237, .F. ) ;
#105 = AXIS2_PLACEMENT_3D ( 'NONE', #274, #77, #271 ) ;
#106 = EDGE_LOOP ( 'NONE', ( #86, #85, #141, #159 ) ) ;
#107 = VECTOR ( 'NONE', #53, 1000.000000000000000 ) ;
#108 = AXIS2_PLACEMENT_3D ( 'NONE', #243, #318, #238 ) ;
#109 = CARTESIAN_POINT ( 'NONE',  ( 0.0000000000000000000, 13.00000000000000200, 0.0000000000000000000 ) ) ;
#110 = ORIENTED_EDGE ( 'NONE', *, *, #148, .F. ) ;
#111 = ORIENTED_EDGE ( 'NONE', *, *, #83, .T. ) ;
#112 = PRODUCT_DEFINITION_CONTEXT ( 'detailed design', #361, 'design' ) ;
#113 =( GEOMETRIC_REPRESENTATION_CONTEXT ( 3 ) GLOBAL_UNCERTAINTY_ASSIGNED_CONTEXT ( ( #342 ) ) GLOBAL_UNIT_ASSIGNED_CONTEXT ( ( #332, #22, #189 ) ) REPRESENTATION_CONTEXT ( 'NONE', 'WORKASPACE' ) );
#114 = DIRECTION ( 'NONE',  ( 0.0000000000000000000, 0.0000000000000000000, 1.000000000000000000 ) ) ;
#115 = DIRECTION ( 'NONE',  ( 0.0000000000000000000, 0.0000000000000000000, -1.000000000000000000 ) ) ;
#116 = CARTESIAN_POINT ( 'NONE',  ( 0.0000000000000000000, 6.999999999999999100, 0.0000000000000000000 ) ) ;
#117 = CIRCLE ( 'NONE', #105, 1.526239569296599500 ) ;
#118 = FACE_OUTER_BOUND ( 'NONE', #55, .T. ) ;
#119 = DIRECTION ( 'NONE',  ( 0.0000000000000000000, 0.0000000000000000000, -1.000000000000000000 ) ) ;
#120 = FILL_AREA_STYLE ('',( #349 ) ) ;
#121 = EDGE_CURVE ( 'NONE', #183, #185, #139, .T. ) ;
#122 = CARTESIAN_POINT ( 'NONE',  ( 0.0000000000000000000, 13.00000000000000200, -2.450000000000000200 ) ) ;
#123 = DIRECTION ( 'NONE',  ( -0.0000000000000000000, -1.000000000000000000, -0.0000000000000000000 ) ) ;
#124 = DIRECTION ( 'NONE',  ( -0.0000000000000000000, -1.000000000000000000, -0.0000000000000000000 ) ) ;
#125 = CARTESIAN_POINT ( 'NONE',  ( 0.0000000000000000000, 6.999999999999999100, -1.000000000000000000 ) ) ;
#126 = ORIENTED_EDGE ( 'NONE', *, *, #67, .F. ) ;
#127 = EDGE_LOOP ( 'NONE', ( #188, #154 ) ) ;
#128 = AXIS2_PLACEMENT_3D ( 'NONE', #76, #181, #218 ) ;
#129 = DIRECTION ( 'NONE',  ( -0.0000000000000000000, -1.000000000000000000, -0.0000000000000000000 ) ) ;
#130 = EDGE_CURVE ( 'NONE', #312, #270, #158, .T. ) ;
#131 = COLOUR_RGB ( '',0.7529411764705882200, 0.7529411764705882200, 0.7529411764705882200 ) ;
#132 = DIRECTION ( 'NONE',  ( 1.000000000000000000, 0.0000000000000000000, 0.0000000000000000000 ) ) ;
#133 = STYLED_ITEM ( 'NONE', ( #311 ), #219 ) ;
#134 = CARTESIAN_POINT ( 'NONE',  ( 0.0000000000000000000, 13.99999999999999800, 1.526239569296599500 ) ) ;
#135 = FACE_OUTER_BOUND ( 'NONE', #106, .T. ) ;
#136 =( LENGTH_UNIT ( ) NAMED_UNIT ( * ) SI_UNIT ( .MILLI., .METRE. ) );
#137 = MECHANICAL_DESIGN_GEOMETRIC_PRESENTATION_REPRESENTATION (  '', ( #133 ), #168 ) ;
#138 = FACE_OUTER_BOUND ( 'NONE', #228, .T. ) ;
#139 = CIRCLE ( 'NONE', #310, 2.450000000000000200 ) ;
#140 = UNCERTAINTY_MEASURE_WITH_UNIT (LENGTH_MEASURE( 1.000000000000000100E-005 ), #136, 'distance_accuracy_value', 'NONE');
#141 = ORIENTED_EDGE ( 'NONE', *, *, #83, .F. ) ;
#142 = LINE ( 'NONE', #294, #362 ) ;
#143 = CLOSED_SHELL ( 'NONE', ( #179, #74, #269, #323, #152, #177, #13, #326, #207, #290, #353, #209, #16 ) ) ;
#144 = CIRCLE ( 'NONE', #317, 0.6000000000000000900 ) ;
#145 = EDGE_LOOP ( 'NONE', ( #170, #234 ) ) ;
#146 = VECTOR ( 'NONE', #64, 1000.000000000000000 ) ;
#147 =( GEOMETRIC_REPRESENTATION_CONTEXT ( 3 ) GLOBAL_UNCERTAINTY_ASSIGNED_CONTEXT ( ( #50 ) ) GLOBAL_UNIT_ASSIGNED_CONTEXT ( ( #8, #176, #351 ) ) REPRESENTATION_CONTEXT ( 'NONE', 'WORKASPACE' ) );
#148 = EDGE_CURVE ( 'NONE', #9, #183, #84, .T. ) ;
#149 = SURFACE_STYLE_USAGE ( .BOTH. , #319 ) ;
#150 = PRESENTATION_LAYER_ASSIGNMENT (  '', '', ( #133 ) ) ;
#151 = DIRECTION ( 'NONE',  ( -0.0000000000000000000, -1.000000000000000000, -0.0000000000000000000 ) ) ;
#152 = ADVANCED_FACE ( 'NONE', ( #320 ), #331, .T. ) ;
#153 = CARTESIAN_POINT ( 'NONE',  ( 0.0000000000000000000, 0.5000000000000030000, 0.0000000000000000000 ) ) ;
#154 = ORIENTED_EDGE ( 'NONE', *, *, #255, .T. ) ;
#155 = EDGE_CURVE ( 'NONE', #257, #227, #347, .T. ) ;
#156 = CARTESIAN_POINT ( 'NONE',  ( 0.0000000000000000000, 0.5000000000000030000, -1.000000000000000000 ) ) ;
#157 = APPLICATION_PROTOCOL_DEFINITION ( 'draft international standard', 'automotive_design', 1998, #224 ) ;
#158 = CIRCLE ( 'NONE', #236, 2.450000000000000200 ) ;
#159 = ORIENTED_EDGE ( 'NONE', *, *, #284, .F. ) ;
#160 = CARTESIAN_POINT ( 'NONE',  ( 6.123233995736750000E-017, 0.0000000000000000000, -0.4999999999999987200 ) ) ;
#161 = ORIENTED_EDGE ( 'NONE', *, *, #130, .F. ) ;
#162 = CARTESIAN_POINT ( 'NONE',  ( 0.0000000000000000000, 0.0000000000000000000, 0.0000000000000000000 ) ) ;
#163 = AXIS2_PLACEMENT_3D ( 'NONE', #109, #197, #31 ) ;
#164 = SURFACE_SIDE_STYLE ('',( #88 ) ) ;
#165 = EDGE_CURVE ( 'NONE', #227, #257, #167, .T. ) ;
#166 = CYLINDRICAL_SURFACE ( 'NONE', #46, 1.000000000000000000 ) ;
#167 = CIRCLE ( 'NONE', #213, 1.000000000000000000 ) ;
#168 =( GEOMETRIC_REPRESENTATION_CONTEXT ( 3 ) GLOBAL_UNCERTAINTY_ASSIGNED_CONTEXT ( ( #140 ) ) GLOBAL_UNIT_ASSIGNED_CONTEXT ( ( #136, #366, #24 ) ) REPRESENTATION_CONTEXT ( 'NONE', 'WORKASPACE' ) );
#169 = LINE ( 'NONE', #314, #146 ) ;
#170 = ORIENTED_EDGE ( 'NONE', *, *, #155, .F. ) ;
#171 = DIRECTION ( 'NONE',  ( -1.000000000000000000, 0.0000000000000000000, 0.0000000000000000000 ) ) ;
#172 = EDGE_CURVE ( 'NONE', #201, #61, #235, .T. ) ;
#173 = CARTESIAN_POINT ( 'NONE',  ( 0.0000000000000000000, 7.000000000000000000, 0.0000000000000000000 ) ) ;
#174 = CARTESIAN_POINT ( 'NONE',  ( 0.0000000000000000000, 0.0000000000000000000, 0.0000000000000000000 ) ) ;
#175 = EDGE_LOOP ( 'NONE', ( #45, #300, #190, #126 ) ) ;
#176 =( NAMED_UNIT ( * ) PLANE_ANGLE_UNIT ( ) SI_UNIT ( $, .RADIAN. ) );
#177 = ADVANCED_FACE ( 'NONE', ( #20 ), #206, .T. ) ;
#178 = DIRECTION ( 'NONE',  ( -0.0000000000000000000, -1.000000000000000000, -0.0000000000000000000 ) ) ;
#179 = ADVANCED_FACE ( 'NONE', ( #301 ), #308, .T. ) ;
#180 = VECTOR ( 'NONE', #18, 1000.000000000000000 ) ;
#181 = DIRECTION ( 'NONE',  ( 0.0000000000000000000, -1.000000000000000000, -0.0000000000000000000 ) ) ;
#182 = CONICAL_SURFACE ( 'NONE', #163, 2.450000000000000200, 0.5235987755983002600 ) ;
#183 = VERTEX_POINT ( 'NONE', #122 ) ;
#184 = CARTESIAN_POINT ( 'NONE',  ( 0.0000000000000000000, 13.39999999999999900, 0.0000000000000000000 ) ) ;
#185 = VERTEX_POINT ( 'NONE', #75 ) ;
#186 = CONICAL_SURFACE ( 'NONE', #63, 0.4999999999999987200, 0.7853981633974466100 ) ;
#187 = DIRECTION ( 'NONE',  ( 1.224646799147352700E-016, 0.0000000000000000000, -1.000000000000000000 ) ) ;
#188 = ORIENTED_EDGE ( 'NONE', *, *, #237, .T. ) ;
#189 =( NAMED_UNIT ( * ) SI_UNIT ( $, .STERADIAN. ) SOLID_ANGLE_UNIT ( ) );
#190 = ORIENTED_EDGE ( 'NONE', *, *, #193, .T. ) ;
#191 = DIRECTION ( 'NONE',  ( -0.0000000000000000000, -1.000000000000000000, -0.0000000000000000000 ) ) ;
#192 = AXIS2_PLACEMENT_3D ( 'NONE', #116, #324, #41 ) ;
#193 = EDGE_CURVE ( 'NONE', #61, #201, #49, .T. ) ;
#194 = EDGE_LOOP ( 'NONE', ( #111, #372 ) ) ;
#195 = ORIENTED_EDGE ( 'NONE', *, *, #121, .F. ) ;
#196 = LINE ( 'NONE', #160, #107 ) ;
#197 = DIRECTION ( 'NONE',  ( -0.0000000000000000000, -1.000000000000000000, -0.0000000000000000000 ) ) ;
#198 = VERTEX_POINT ( 'NONE', #210 ) ;
#199 = AXIS2_PLACEMENT_3D ( 'NONE', #184, #268, #47 ) ;
#200 = CARTESIAN_POINT ( 'NONE',  ( 2.187276974888587700E-016, 13.99999999999999800, -1.526239569296599500 ) ) ;
#201 = VERTEX_POINT ( 'NONE', #156 ) ;
#202 = CARTESIAN_POINT ( 'NONE',  ( 0.0000000000000000000, 0.0000000000000000000, 0.0000000000000000000 ) ) ;
#203 = DIRECTION ( 'NONE',  ( 0.0000000000000000000, 1.000000000000000000, 0.0000000000000000000 ) ) ;
#204 = CIRCLE ( 'NONE', #87, 0.4999999999999987200 ) ;
#205 = AXIS2_PLACEMENT_3D ( 'NONE', #338, #27, #132 ) ;
#206 = PLANE ( 'NONE',  #108 ) ;
#207 = ADVANCED_FACE ( 'NONE', ( #5, #38 ), #78, .T. ) ;
#208 = ORIENTED_EDGE ( 'NONE', *, *, #258, .F. ) ;
#209 = ADVANCED_FACE ( 'NONE', ( #327 ), #51, .T. ) ;
#210 = CARTESIAN_POINT ( 'NONE',  ( 9.184850993605141000E-017, 0.0000000000000000000, -0.4999999999999987200 ) ) ;
#211 = CARTESIAN_POINT ( 'NONE',  ( 0.0000000000000000000, 13.99999999999999800, 0.0000000000000000000 ) ) ;
#212 = ORIENTED_EDGE ( 'NONE', *, *, #293, .F. ) ;
#213 = AXIS2_PLACEMENT_3D ( 'NONE', #91, #266, #115 ) ;
#214 = DIRECTION ( 'NONE',  ( 6.123233995736782100E-017, -0.8660254037844380400, 0.5000000000000012200 ) ) ;
#215 = EDGE_CURVE ( 'NONE', #39, #61, #34, .T. ) ;
#216 = CARTESIAN_POINT ( 'NONE',  ( 0.0000000000000000000, 0.0000000000000000000, 0.0000000000000000000 ) ) ;
#217 = CIRCLE ( 'NONE', #82, 2.450000000000000200 ) ;
#218 = DIRECTION ( 'NONE',  ( 0.0000000000000000000, 0.0000000000000000000, -1.000000000000000000 ) ) ;
#219 = ADVANCED_BREP_SHAPE_REPRESENTATION ( '42750~0', ( #95, #205 ), #113 ) ;
#220 = PRODUCT_CONTEXT ( 'NONE', #224, 'mechanical' ) ;
#221 = LINE ( 'NONE', #245, #101 ) ;
#222 = DIRECTION ( 'NONE',  ( 0.0000000000000000000, 0.0000000000000000000, -1.000000000000000000 ) ) ;
#223 = EDGE_CURVE ( 'NONE', #276, #9, #364, .T. ) ;
#224 = APPLICATION_CONTEXT ( 'automotive_design' ) ;
#225 = AXIS2_PLACEMENT_3D ( 'NONE', #360, #358, #14 ) ;
#226 = DIRECTION ( 'NONE',  ( -0.0000000000000000000, -1.000000000000000000, -0.0000000000000000000 ) ) ;
#227 = VERTEX_POINT ( 'NONE', #246 ) ;
#228 = EDGE_LOOP ( 'NONE', ( #356, #339, #232, #26 ) ) ;
#229 = AXIS2_PLACEMENT_3D ( 'NONE', #153, #298, #329 ) ;
#230 = ORIENTED_EDGE ( 'NONE', *, *, #367, .T. ) ;
#231 = CARTESIAN_POINT ( 'NONE',  ( 0.0000000000000000000, 13.39999999999999900, 0.0000000000000000000 ) ) ;
#232 = ORIENTED_EDGE ( 'NONE', *, *, #67, .T. ) ;
#233 = CARTESIAN_POINT ( 'NONE',  ( 0.0000000000000000000, 13.39999999999999900, 1.526239569296599500 ) ) ;
#234 = ORIENTED_EDGE ( 'NONE', *, *, #165, .F. ) ;
#235 = CIRCLE ( 'NONE', #100, 1.000000000000000000 ) ;
#236 = AXIS2_PLACEMENT_3D ( 'NONE', #241, #263, #37 ) ;
#237 = EDGE_CURVE ( 'NONE', #350, #2, #117, .T. ) ;
#238 = DIRECTION ( 'NONE',  ( 0.0000000000000000000, -0.0000000000000000000, 1.000000000000000000 ) ) ;
#239 = EDGE_LOOP ( 'NONE', ( #247, #291, #73, #161 ) ) ;
#240 = ORIENTED_EDGE ( 'NONE', *, *, #223, .T. ) ;
#241 = CARTESIAN_POINT ( 'NONE',  ( 0.0000000000000000000, 7.000000000000000000, 0.0000000000000000000 ) ) ;
#242 = EDGE_CURVE ( 'NONE', #185, #183, #288, .T. ) ;
#243 = CARTESIAN_POINT ( 'NONE',  ( 1.872649730810373300, 13.99999999999999800, 0.0000000000000000000 ) ) ;
#244 = AXIS2_PLACEMENT_3D ( 'NONE', #365, #302, #222 ) ;
#245 = CARTESIAN_POINT ( 'NONE',  ( 0.0000000000000000000, 0.0000000000000000000, -2.450000000000000200 ) ) ;
#246 = CARTESIAN_POINT ( 'NONE',  ( 1.224646799147353200E-016, 6.999999999999999100, 1.000000000000000000 ) ) ;
#247 = ORIENTED_EDGE ( 'NONE', *, *, #66, .F. ) ;
#248 = CARTESIAN_POINT ( 'NONE',  ( 0.0000000000000000000, 0.0000000000000000000, 0.0000000000000000000 ) ) ;
#249 = DIRECTION ( 'NONE',  ( 0.0000000000000000000, 0.0000000000000000000, 1.000000000000000000 ) ) ;
#250 = PRODUCT_RELATED_PRODUCT_CATEGORY ( 'part', '', ( #12 ) ) ;
#251 = ORIENTED_EDGE ( 'NONE', *, *, #341, .T. ) ;
#252 = PLANE ( 'NONE',  #1 ) ;
#253 = DIRECTION ( 'NONE',  ( 0.0000000000000000000, -1.000000000000000000, -0.0000000000000000000 ) ) ;
#254 = AXIS2_PLACEMENT_3D ( 'NONE', #287, #265, #322 ) ;
#255 = EDGE_CURVE ( 'NONE', #2, #350, #277, .T. ) ;
#256 = EDGE_LOOP ( 'NONE', ( #352, #3 ) ) ;
#257 = VERTEX_POINT ( 'NONE', #125 ) ;
#258 = EDGE_CURVE ( 'NONE', #276, #185, #57, .T. ) ;
#259 = DIRECTION ( 'NONE',  ( 0.0000000000000000000, 0.0000000000000000000, 1.000000000000000000 ) ) ;
#260 = DIRECTION ( 'NONE',  ( 0.0000000000000000000, 1.000000000000000000, 0.0000000000000000000 ) ) ;
#261 = FACE_OUTER_BOUND ( 'NONE', #175, .T. ) ;
#262 = CIRCLE ( 'NONE', #10, 0.6000000000000000900 ) ;
#263 = DIRECTION ( 'NONE',  ( -0.0000000000000000000, -1.000000000000000000, -0.0000000000000000000 ) ) ;
#264 = STYLED_ITEM ( 'NONE', ( #273 ), #95 ) ;
#265 = DIRECTION ( 'NONE',  ( -0.0000000000000000000, -1.000000000000000000, -0.0000000000000000000 ) ) ;
#266 = DIRECTION ( 'NONE',  ( -0.0000000000000000000, -1.000000000000000000, -0.0000000000000000000 ) ) ;
#267 = EDGE_LOOP ( 'NONE', ( #230, #346, #195, #110 ) ) ;
#268 = DIRECTION ( 'NONE',  ( 0.0000000000000000000, 1.000000000000000000, 0.0000000000000000000 ) ) ;
#269 = ADVANCED_FACE ( 'NONE', ( #261 ), #330, .T. ) ;
#270 = VERTEX_POINT ( 'NONE', #48 ) ;
#271 = DIRECTION ( 'NONE',  ( 0.0000000000000000000, 0.0000000000000000000, 1.000000000000000000 ) ) ;
#272 = ORIENTED_EDGE ( 'NONE', *, *, #215, .F. ) ;
#273 = PRESENTATION_STYLE_ASSIGNMENT (( #149 ) ) ;
#274 = CARTESIAN_POINT ( 'NONE',  ( 0.0000000000000000000, 13.99999999999999800, 0.0000000000000000000 ) ) ;
#275 = CARTESIAN_POINT ( 'NONE',  ( 0.0000000000000000000, 0.0000000000000000000, 0.0000000000000000000 ) ) ;
#276 = VERTEX_POINT ( 'NONE', #354 ) ;
#277 = CIRCLE ( 'NONE', #79, 1.526239569296599500 ) ;
#278 = AXIS2_PLACEMENT_3D ( 'NONE', #248, #96, #249 ) ;
#279 = VECTOR ( 'NONE', #32, 1000.000000000000000 ) ;
#280 = ORIENTED_EDGE ( 'NONE', *, *, #335, .T. ) ;
#281 = AXIS2_PLACEMENT_3D ( 'NONE', #363, #191, #98 ) ;
#282 = ORIENTED_EDGE ( 'NONE', *, *, #335, .F. ) ;
#283 = EDGE_LOOP ( 'NONE', ( #282, #212, #28, #21 ) ) ;
#284 = EDGE_CURVE ( 'NONE', #183, #270, #221, .T. ) ;
#285 = DIRECTION ( 'NONE',  ( -0.0000000000000000000, -1.000000000000000000, -0.0000000000000000000 ) ) ;
#286 = CARTESIAN_POINT ( 'NONE',  ( 0.0000000000000000000, 13.00000000000000200, 0.0000000000000000000 ) ) ;
#287 = CARTESIAN_POINT ( 'NONE',  ( 0.0000000000000000000, 13.00000000000000200, 0.0000000000000000000 ) ) ;
#288 = CIRCLE ( 'NONE', #92, 2.450000000000000200 ) ;
#289 = EDGE_CURVE ( 'NONE', #227, #61, #142, .T. ) ;
#290 = ADVANCED_FACE ( 'NONE', ( #138 ), #166, .T. ) ;
#291 = ORIENTED_EDGE ( 'NONE', *, *, #242, .T. ) ;
#292 = CARTESIAN_POINT ( 'NONE',  ( 0.0000000000000000000, 0.0000000000000000000, 0.0000000000000000000 ) ) ;
#293 = EDGE_CURVE ( 'NONE', #39, #198, #336, .T. ) ;
#294 = CARTESIAN_POINT ( 'NONE',  ( 1.224646799147353200E-016, 0.0000000000000000000, 1.000000000000000000 ) ) ;
#295 = DIRECTION ( 'NONE',  ( 0.0000000000000000000, 0.0000000000000000000, 1.000000000000000000 ) ) ;
#296 = ORIENTED_EDGE ( 'NONE', *, *, #367, .F. ) ;
#297 = EDGE_LOOP ( 'NONE', ( #208, #240, #44, #305 ) ) ;
#298 = DIRECTION ( 'NONE',  ( 0.0000000000000000000, 1.000000000000000000, 0.0000000000000000000 ) ) ;
#299 = CARTESIAN_POINT ( 'NONE',  ( 0.0000000000000000000, 13.00000000000000200, 0.0000000000000000000 ) ) ;
#300 = ORIENTED_EDGE ( 'NONE', *, *, #289, .T. ) ;
#301 = FACE_OUTER_BOUND ( 'NONE', #343, .T. ) ;
#302 = DIRECTION ( 'NONE',  ( -0.0000000000000000000, -1.000000000000000000, -0.0000000000000000000 ) ) ;
#303 = ORIENTED_EDGE ( 'NONE', *, *, #341, .F. ) ;
#304 = PRODUCT_DEFINITION_FORMATION_WITH_SPECIFIED_SOURCE ( 'ANY', '', #12, .NOT_KNOWN. ) ;
#305 = ORIENTED_EDGE ( 'NONE', *, *, #242, .F. ) ;
#306 = DIRECTION ( 'NONE',  ( -0.0000000000000000000, -1.000000000000000000, -0.0000000000000000000 ) ) ;
#307 = DIRECTION ( 'NONE',  ( 0.0000000000000000000, 0.0000000000000000000, -1.000000000000000000 ) ) ;
#308 = TOROIDAL_SURFACE ( 'NONE', #199, 1.526239569296599500, 0.5999999999999999800 ) ;
#309 = PRODUCT_DEFINITION_SHAPE ( 'NONE', 'NONE',  #54 ) ;
#310 = AXIS2_PLACEMENT_3D ( 'NONE', #286, #151, #348 ) ;
#311 = PRESENTATION_STYLE_ASSIGNMENT (( #80 ) ) ;
#312 = VERTEX_POINT ( 'NONE', #59 ) ;
#313 = ORIENTED_EDGE ( 'NONE', *, *, #35, .F. ) ;
#314 = CARTESIAN_POINT ( 'NONE',  ( 3.000384657911015900E-016, 0.0000000000000000000, 2.450000000000000200 ) ) ;
#315 = DIRECTION ( 'NONE',  ( 0.0000000000000000000, 1.000000000000000000, 0.0000000000000000000 ) ) ;
#316 = COLOUR_RGB ( '',0.7529411764705882200, 0.7529411764705882200, 0.7529411764705882200 ) ;
#317 = AXIS2_PLACEMENT_3D ( 'NONE', #233, #171, #259 ) ;
#318 = DIRECTION ( 'NONE',  ( 0.0000000000000000000, 1.000000000000000000, 0.0000000000000000000 ) ) ;
#319 = SURFACE_SIDE_STYLE ('',( #62 ) ) ;
#320 = FACE_OUTER_BOUND ( 'NONE', #267, .T. ) ;
#321 = ORIENTED_EDGE ( 'NONE', *, *, #35, .T. ) ;
#322 = DIRECTION ( 'NONE',  ( 0.0000000000000000000, 0.0000000000000000000, -1.000000000000000000 ) ) ;
#323 = ADVANCED_FACE ( 'NONE', ( #135 ), #371, .T. ) ;
#324 = DIRECTION ( 'NONE',  ( -0.0000000000000000000, -1.000000000000000000, -0.0000000000000000000 ) ) ;
#325 = DIRECTION ( 'NONE',  ( 0.0000000000000000000, 0.0000000000000000000, -1.000000000000000000 ) ) ;
#326 = ADVANCED_FACE ( 'NONE', ( #52 ), #355, .T. ) ;
#327 = FACE_OUTER_BOUND ( 'NONE', #283, .T. ) ;
#328 = DIRECTION ( 'NONE',  ( -0.0000000000000000000, -1.000000000000000000, -0.0000000000000000000 ) ) ;
#329 = DIRECTION ( 'NONE',  ( 0.0000000000000000000, 0.0000000000000000000, -1.000000000000000000 ) ) ;
#330 = CYLINDRICAL_SURFACE ( 'NONE', #337, 1.000000000000000000 ) ;
#331 = CONICAL_SURFACE ( 'NONE', #254, 2.450000000000000200, 0.5235987755983002600 ) ;
#332 =( LENGTH_UNIT ( ) NAMED_UNIT ( * ) SI_UNIT ( .MILLI., .METRE. ) );
#333 = FACE_OUTER_BOUND ( 'NONE', #256, .T. ) ;
#334 = CARTESIAN_POINT ( 'NONE',  ( 1.869104403271115600E-016, 13.39999999999999900, -1.526239569296599500 ) ) ;
#335 = EDGE_CURVE ( 'NONE', #198, #201, #196, .T. ) ;
#336 = CIRCLE ( 'NONE', #357, 0.4999999999999987200 ) ;
#337 = AXIS2_PLACEMENT_3D ( 'NONE', #292, #123, #325 ) ;
#338 = CARTESIAN_POINT ( 'NONE',  ( 0.0000000000000000000, 0.0000000000000000000, 0.0000000000000000000 ) ) ;
#339 = ORIENTED_EDGE ( 'NONE', *, *, #165, .T. ) ;
#340 = CARTESIAN_POINT ( 'NONE',  ( 1.224646799147353200E-016, 0.5000000000000030000, 1.000000000000000000 ) ) ;
#341 = EDGE_CURVE ( 'NONE', #9, #2, #262, .T. ) ;
#342 = UNCERTAINTY_MEASURE_WITH_UNIT (LENGTH_MEASURE( 1.000000000000000100E-005 ), #332, 'distance_accuracy_value', 'NONE');
#343 = EDGE_LOOP ( 'NONE', ( #296, #251, #104, #313 ) ) ;
#344 = CIRCLE ( 'NONE', #25, 2.045854811567262100 ) ;
#345 = ORIENTED_EDGE ( 'NONE', *, *, #223, .F. ) ;
#346 = ORIENTED_EDGE ( 'NONE', *, *, #258, .T. ) ;
#347 = CIRCLE ( 'NONE', #192, 1.000000000000000000 ) ;
#348 = DIRECTION ( 'NONE',  ( 0.0000000000000000000, 0.0000000000000000000, -1.000000000000000000 ) ) ;
#349 = FILL_AREA_STYLE_COLOUR ( '', #131 ) ;
#350 = VERTEX_POINT ( 'NONE', #134 ) ;
#351 =( NAMED_UNIT ( * ) SI_UNIT ( $, .STERADIAN. ) SOLID_ANGLE_UNIT ( ) );
#352 = ORIENTED_EDGE ( 'NONE', *, *, #293, .T. ) ;
#353 = ADVANCED_FACE ( 'NONE', ( #333 ), #252, .T. ) ;
#354 = CARTESIAN_POINT ( 'NONE',  ( 2.752917102208537600E-016, 13.69999999999999900, 2.045854811567262100 ) ) ;
#355 = CYLINDRICAL_SURFACE ( 'NONE', #244, 2.450000000000000200 ) ;
#356 = ORIENTED_EDGE ( 'NONE', *, *, #289, .F. ) ;
#357 = AXIS2_PLACEMENT_3D ( 'NONE', #275, #306, #307 ) ;
#358 = DIRECTION ( 'NONE',  ( -0.0000000000000000000, -1.000000000000000000, -0.0000000000000000000 ) ) ;
#359 = CARTESIAN_POINT ( 'NONE',  ( 0.0000000000000000000, 0.0000000000000000000, 0.4999999999999987200 ) ) ;
#360 = CARTESIAN_POINT ( 'NONE',  ( 0.0000000000000000000, 13.69999999999999900, 0.0000000000000000000 ) ) ;
#361 = APPLICATION_CONTEXT ( 'automotive_design' ) ;
#362 = VECTOR ( 'NONE', #328, 1000.000000000000000 ) ;
#363 = CARTESIAN_POINT ( 'NONE',  ( 0.0000000000000000000, 0.0000000000000000000, 0.0000000000000000000 ) ) ;
#364 = CIRCLE ( 'NONE', #225, 2.045854811567262100 ) ;
#365 = CARTESIAN_POINT ( 'NONE',  ( 0.0000000000000000000, 0.0000000000000000000, 0.0000000000000000000 ) ) ;
#366 =( NAMED_UNIT ( * ) PLANE_ANGLE_UNIT ( ) SI_UNIT ( $, .RADIAN. ) );
#367 = EDGE_CURVE ( 'NONE', #9, #276, #344, .T. ) ;
#368 = FACE_OUTER_BOUND ( 'NONE', #297, .T. ) ;
#369 = VECTOR ( 'NONE', #70, 999.9999999999998900 ) ;
#370 = CARTESIAN_POINT ( 'NONE',  ( 0.0000000000000000000, 0.0000000000000000000, -1.000000000000000000 ) ) ;
#371 = CYLINDRICAL_SURFACE ( 'NONE', #281, 2.450000000000000200 ) ;
#372 = ORIENTED_EDGE ( 'NONE', *, *, #130, .T. ) ;
ENDSEC;
END-ISO-10303-21;
