ISO-10303-21;
HEADER;
FILE_DESCRIPTION (( 'STEP AP214' ),
    '1' );
FILE_NAME ('42749~0.STEP',
    '2017-07-04T09:10:35',
    ( '' ),
    ( '' ),
    'SwSTEP 2.0',
    'SolidWorks 2016',
    '' );
FILE_SCHEMA (( 'AUTOMOTIVE_DESIGN' ));
ENDSEC;

DATA;
#1 = DIRECTION ( 'NONE',  ( -0.0000000000000000000, -1.000000000000000000, -0.0000000000000000000 ) ) ;
#2 = PLANE ( 'NONE',  #74 ) ;
#3 = ORIENTED_EDGE ( 'NONE', *, *, #185, .F. ) ;
#4 = EDGE_CURVE ( 'NONE', #319, #24, #177, .T. ) ;
#5 = DIRECTION ( 'NONE',  ( 0.0000000000000000000, 0.0000000000000000000, 1.000000000000000000 ) ) ;
#6 = COLOUR_RGB ( '',0.7529411764705882200, 0.7529411764705882200, 0.7529411764705882200 ) ;
#7 = LINE ( 'NONE', #264, #233 ) ;
#8 = ORIENTED_EDGE ( 'NONE', *, *, #365, .F. ) ;
#9 = PRODUCT_RELATED_PRODUCT_CATEGORY ( 'part', '', ( #357 ) ) ;
#10 = CLOSED_SHELL ( 'NONE', ( #255, #160, #220, #191, #360, #48, #17, #227, #331, #21, #103, #164, #109 ) ) ;
#11 = AXIS2_PLACEMENT_3D ( 'NONE', #250, #275, #157 ) ;
#12 =( NAMED_UNIT ( * ) SI_UNIT ( $, .STERADIAN. ) SOLID_ANGLE_UNIT ( ) );
#13 = FACE_OUTER_BOUND ( 'NONE', #170, .T. ) ;
#14 = DIRECTION ( 'NONE',  ( 0.0000000000000000000, 0.0000000000000000000, -1.000000000000000000 ) ) ;
#15 = CARTESIAN_POINT ( 'NONE',  ( 0.0000000000000000000, 7.000000000000000000, 0.0000000000000000000 ) ) ;
#16 = CARTESIAN_POINT ( 'NONE',  ( 9.184850993605152100E-017, 0.0000000000000000000, -0.5000000000000004400 ) ) ;
#17 = ADVANCED_FACE ( 'NONE', ( #243 ), #136, .T. ) ;
#18 = PRODUCT_DEFINITION_FORMATION_WITH_SPECIFIED_SOURCE ( 'ANY', '', #357, .NOT_KNOWN. ) ;
#19 = SURFACE_SIDE_STYLE ('',( #40 ) ) ;
#20 = ORIENTED_EDGE ( 'NONE', *, *, #195, .F. ) ;
#21 = ADVANCED_FACE ( 'NONE', ( #168 ), #62, .T. ) ;
#22 = EDGE_CURVE ( 'NONE', #364, #353, #305, .T. ) ;
#23 = ADVANCED_BREP_SHAPE_REPRESENTATION ( '42749~0', ( #337, #362 ), #333 ) ;
#24 = VERTEX_POINT ( 'NONE', #113 ) ;
#25 = CARTESIAN_POINT ( 'NONE',  ( 0.0000000000000000000, 13.00000000000000200, 0.0000000000000000000 ) ) ;
#26 = AXIS2_PLACEMENT_3D ( 'NONE', #15, #332, #249 ) ;
#27 = DIRECTION ( 'NONE',  ( -0.0000000000000000000, -1.000000000000000000, -0.0000000000000000000 ) ) ;
#28 = DIRECTION ( 'NONE',  ( 0.0000000000000000000, 0.0000000000000000000, 1.000000000000000000 ) ) ;
#29 = ORIENTED_EDGE ( 'NONE', *, *, #200, .F. ) ;
#30 = VERTEX_POINT ( 'NONE', #199 ) ;
#31 =( NAMED_UNIT ( * ) SI_UNIT ( $, .STERADIAN. ) SOLID_ANGLE_UNIT ( ) );
#32 = ORIENTED_EDGE ( 'NONE', *, *, #34, .F. ) ;
#33 = DIRECTION ( 'NONE',  ( 0.0000000000000000000, 0.0000000000000000000, -1.000000000000000000 ) ) ;
#34 = EDGE_CURVE ( 'NONE', #340, #229, #7, .T. ) ;
#35 = EDGE_LOOP ( 'NONE', ( #205, #114, #291, #8 ) ) ;
#36 = PRODUCT_DEFINITION_CONTEXT ( 'detailed design', #134, 'design' ) ;
#37 = CARTESIAN_POINT ( 'NONE',  ( 0.0000000000000000000, 7.000000000000000000, -2.399999999999999900 ) ) ;
#38 = DIRECTION ( 'NONE',  ( -0.0000000000000000000, -1.000000000000000000, -0.0000000000000000000 ) ) ;
#39 = CARTESIAN_POINT ( 'NONE',  ( 0.0000000000000000000, 6.999999999999999100, 0.0000000000000000000 ) ) ;
#40 = SURFACE_STYLE_FILL_AREA ( #359 ) ;
#41 = ORIENTED_EDGE ( 'NONE', *, *, #203, .T. ) ;
#42 = CARTESIAN_POINT ( 'NONE',  ( 0.0000000000000000000, 0.5000000000000014400, -1.000000000000000000 ) ) ;
#43 = EDGE_CURVE ( 'NONE', #353, #364, #190, .T. ) ;
#44 = DIRECTION ( 'NONE',  ( 0.0000000000000000000, 1.000000000000000000, 0.0000000000000000000 ) ) ;
#45 = ORIENTED_EDGE ( 'NONE', *, *, #116, .T. ) ;
#46 = ORIENTED_EDGE ( 'NONE', *, *, #43, .T. ) ;
#47 = ORIENTED_EDGE ( 'NONE', *, *, #4, .F. ) ;
#48 = ADVANCED_FACE ( 'NONE', ( #131 ), #346, .T. ) ;
#49 = DIRECTION ( 'NONE',  ( 0.0000000000000000000, -0.8660254037844380400, -0.5000000000000012200 ) ) ;
#50 =( GEOMETRIC_REPRESENTATION_CONTEXT ( 3 ) GLOBAL_UNCERTAINTY_ASSIGNED_CONTEXT ( ( #54 ) ) GLOBAL_UNIT_ASSIGNED_CONTEXT ( ( #108, #105, #334 ) ) REPRESENTATION_CONTEXT ( 'NONE', 'WORKASPACE' ) );
#51 = DIRECTION ( 'NONE',  ( 0.0000000000000000000, -1.000000000000000000, -0.0000000000000000000 ) ) ;
#52 = CIRCLE ( 'NONE', #112, 1.476239569296599100 ) ;
#53 =( LENGTH_UNIT ( ) NAMED_UNIT ( * ) SI_UNIT ( .MILLI., .METRE. ) );
#54 = UNCERTAINTY_MEASURE_WITH_UNIT (LENGTH_MEASURE( 1.000000000000000100E-005 ), #108, 'distance_accuracy_value', 'NONE');
#55 = CIRCLE ( 'NONE', #91, 2.399999999999999900 ) ;
#56 = AXIS2_PLACEMENT_3D ( 'NONE', #216, #327, #155 ) ;
#57 = DIRECTION ( 'NONE',  ( 0.0000000000000000000, 0.0000000000000000000, -1.000000000000000000 ) ) ;
#58 = VECTOR ( 'NONE', #326, 999.9999999999998900 ) ;
#59 = FACE_OUTER_BOUND ( 'NONE', #152, .T. ) ;
#60 = APPLICATION_PROTOCOL_DEFINITION ( 'draft international standard', 'automotive_design', 1998, #134 ) ;
#61 = DIRECTION ( 'NONE',  ( 1.224646799147352700E-016, 0.0000000000000000000, -1.000000000000000000 ) ) ;
#62 = CYLINDRICAL_SURFACE ( 'NONE', #244, 1.000000000000000000 ) ;
#63 = ORIENTED_EDGE ( 'NONE', *, *, #22, .F. ) ;
#64 = CARTESIAN_POINT ( 'NONE',  ( 0.0000000000000000000, 13.00000000000000200, 0.0000000000000000000 ) ) ;
#65 = DIRECTION ( 'NONE',  ( -0.0000000000000000000, -1.000000000000000000, -0.0000000000000000000 ) ) ;
#66 = CARTESIAN_POINT ( 'NONE',  ( 2.691684762251169300E-016, 13.69999999999999900, 1.995854811567262300 ) ) ;
#67 = ORIENTED_EDGE ( 'NONE', *, *, #306, .F. ) ;
#68 = DIRECTION ( 'NONE',  ( 0.0000000000000000000, 0.0000000000000000000, 1.000000000000000000 ) ) ;
#69 = DIRECTION ( 'NONE',  ( -0.0000000000000000000, -1.000000000000000000, -0.0000000000000000000 ) ) ;
#70 = CARTESIAN_POINT ( 'NONE',  ( 2.939152317953647100E-016, 13.00000000000000200, 2.399999999999999900 ) ) ;
#71 = FACE_OUTER_BOUND ( 'NONE', #230, .T. ) ;
#72 = VECTOR ( 'NONE', #140, 1000.000000000000000 ) ;
#73 = ORIENTED_EDGE ( 'NONE', *, *, #262, .F. ) ;
#74 = AXIS2_PLACEMENT_3D ( 'NONE', #314, #289, #318 ) ;
#75 = DIRECTION ( 'NONE',  ( -0.0000000000000000000, -1.000000000000000000, -0.0000000000000000000 ) ) ;
#76 = VERTEX_POINT ( 'NONE', #204 ) ;
#77 = CARTESIAN_POINT ( 'NONE',  ( 0.0000000000000000000, 0.0000000000000000000, -1.000000000000000000 ) ) ;
#78 = CARTESIAN_POINT ( 'NONE',  ( 0.0000000000000000000, 6.999999999999999100, -1.000000000000000000 ) ) ;
#79 =( NAMED_UNIT ( * ) PLANE_ANGLE_UNIT ( ) SI_UNIT ( $, .RADIAN. ) );
#80 = COLOUR_RGB ( '',0.7529411764705882200, 0.7529411764705882200, 0.7529411764705882200 ) ;
#81 = EDGE_LOOP ( 'NONE', ( #173, #285, #308, #20 ) ) ;
#82 = ORIENTED_EDGE ( 'NONE', *, *, #248, .F. ) ;
#83 = AXIS2_PLACEMENT_3D ( 'NONE', #187, #322, #212 ) ;
#84 = LINE ( 'NONE', #225, #361 ) ;
#85 = ORIENTED_EDGE ( 'NONE', *, *, #355, .F. ) ;
#86 = AXIS2_PLACEMENT_3D ( 'NONE', #221, #354, #356 ) ;
#87 = VECTOR ( 'NONE', #75, 1000.000000000000000 ) ;
#88 = CIRCLE ( 'NONE', #338, 1.000000000000000000 ) ;
#89 = DIRECTION ( 'NONE',  ( 0.0000000000000000000, 1.000000000000000000, 0.0000000000000000000 ) ) ;
#90 = DIRECTION ( 'NONE',  ( -0.0000000000000000000, -1.000000000000000000, -0.0000000000000000000 ) ) ;
#91 = AXIS2_PLACEMENT_3D ( 'NONE', #64, #65, #265 ) ;
#92 = CONICAL_SURFACE ( 'NONE', #290, 2.399999999999999900, 0.5235987755983002600 ) ;
#93 = EDGE_LOOP ( 'NONE', ( #3, #198, #222, #82 ) ) ;
#94 = DIRECTION ( 'NONE',  ( 0.0000000000000000000, 0.0000000000000000000, 1.000000000000000000 ) ) ;
#95 = CARTESIAN_POINT ( 'NONE',  ( 0.0000000000000000000, 0.0000000000000000000, 0.0000000000000000000 ) ) ;
#96 = CARTESIAN_POINT ( 'NONE',  ( 0.0000000000000000000, 0.5000000000000014400, 0.0000000000000000000 ) ) ;
#97 = SURFACE_STYLE_FILL_AREA ( #156 ) ;
#98 = DIRECTION ( 'NONE',  ( 0.0000000000000000000, 0.0000000000000000000, -1.000000000000000000 ) ) ;
#99 = ORIENTED_EDGE ( 'NONE', *, *, #262, .T. ) ;
#100 = ORIENTED_EDGE ( 'NONE', *, *, #370, .T. ) ;
#101 = CARTESIAN_POINT ( 'NONE',  ( 0.0000000000000000000, 0.0000000000000000000, 0.5000000000000004400 ) ) ;
#102 = CARTESIAN_POINT ( 'NONE',  ( 0.0000000000000000000, 13.69999999999999900, 0.0000000000000000000 ) ) ;
#103 = ADVANCED_FACE ( 'NONE', ( #257 ), #2, .T. ) ;
#104 = VERTEX_POINT ( 'NONE', #66 ) ;
#105 =( NAMED_UNIT ( * ) PLANE_ANGLE_UNIT ( ) SI_UNIT ( $, .RADIAN. ) );
#106 = CYLINDRICAL_SURFACE ( 'NONE', #192, 2.399999999999999900 ) ;
#107 = VERTEX_POINT ( 'NONE', #37 ) ;
#108 =( LENGTH_UNIT ( ) NAMED_UNIT ( * ) SI_UNIT ( .MILLI., .METRE. ) );
#109 = ADVANCED_FACE ( 'NONE', ( #278 ), #151, .T. ) ;
#110 = LINE ( 'NONE', #70, #330 ) ;
#111 = SHAPE_DEFINITION_REPRESENTATION ( #246, #23 ) ;
#112 = AXIS2_PLACEMENT_3D ( 'NONE', #342, #286, #115 ) ;
#113 = CARTESIAN_POINT ( 'NONE',  ( 2.939152317953647100E-016, 7.000000000000000000, 2.399999999999999900 ) ) ;
#114 = ORIENTED_EDGE ( 'NONE', *, *, #185, .T. ) ;
#115 = DIRECTION ( 'NONE',  ( 0.0000000000000000000, 0.0000000000000000000, 1.000000000000000000 ) ) ;
#116 = EDGE_CURVE ( 'NONE', #76, #143, #352, .T. ) ;
#117 = ORIENTED_EDGE ( 'NONE', *, *, #181, .T. ) ;
#118 = DIRECTION ( 'NONE',  ( 0.0000000000000000000, 0.0000000000000000000, 1.000000000000000000 ) ) ;
#119 = ORIENTED_EDGE ( 'NONE', *, *, #22, .T. ) ;
#120 = CARTESIAN_POINT ( 'NONE',  ( 0.0000000000000000000, 13.39999999999999900, 0.0000000000000000000 ) ) ;
#121 = MECHANICAL_DESIGN_GEOMETRIC_PRESENTATION_REPRESENTATION (  '', ( #209 ), #50 ) ;
#122 = ORIENTED_EDGE ( 'NONE', *, *, #228, .F. ) ;
#123 = CARTESIAN_POINT ( 'NONE',  ( 0.0000000000000000000, 0.0000000000000000000, 0.0000000000000000000 ) ) ;
#124 = CARTESIAN_POINT ( 'NONE',  ( 1.224646799147353200E-016, 0.5000000000000014400, 1.000000000000000000 ) ) ;
#125 = VECTOR ( 'NONE', #214, 1000.000000000000000 ) ;
#126 = ORIENTED_EDGE ( 'NONE', *, *, #167, .T. ) ;
#127 = AXIS2_PLACEMENT_3D ( 'NONE', #189, #219, #274 ) ;
#128 = SURFACE_STYLE_USAGE ( .BOTH. , #329 ) ;
#129 = CARTESIAN_POINT ( 'NONE',  ( 0.0000000000000000000, 13.00000000000000200, 0.0000000000000000000 ) ) ;
#130 = LINE ( 'NONE', #101, #58 ) ;
#131 = FACE_OUTER_BOUND ( 'NONE', #197, .T. ) ;
#132 = CARTESIAN_POINT ( 'NONE',  ( 0.0000000000000000000, 0.0000000000000000000, 0.0000000000000000000 ) ) ;
#133 = APPLICATION_PROTOCOL_DEFINITION ( 'draft international standard', 'automotive_design', 1998, #304 ) ;
#134 = APPLICATION_CONTEXT ( 'automotive_design' ) ;
#135 = LINE ( 'NONE', #77, #87 ) ;
#136 = CONICAL_SURFACE ( 'NONE', #154, 2.399999999999999900, 0.5235987755983002600 ) ;
#137 = EDGE_CURVE ( 'NONE', #107, #24, #261, .T. ) ;
#138 = EDGE_LOOP ( 'NONE', ( #287, #184, #336, #324 ) ) ;
#139 = PRESENTATION_STYLE_ASSIGNMENT (( #226 ) ) ;
#140 = DIRECTION ( 'NONE',  ( -0.0000000000000000000, -1.000000000000000000, -0.0000000000000000000 ) ) ;
#141 = AXIS2_PLACEMENT_3D ( 'NONE', #207, #89, #94 ) ;
#142 = EDGE_CURVE ( 'NONE', #143, #273, #52, .T. ) ;
#143 = VERTEX_POINT ( 'NONE', #175 ) ;
#144 = DIRECTION ( 'NONE',  ( -0.0000000000000000000, -1.000000000000000000, -0.0000000000000000000 ) ) ;
#145 = DIRECTION ( 'NONE',  ( 0.0000000000000000000, 0.0000000000000000000, -1.000000000000000000 ) ) ;
#146 = FACE_OUTER_BOUND ( 'NONE', #271, .T. ) ;
#147 = DIRECTION ( 'NONE',  ( 0.0000000000000000000, -0.0000000000000000000, 1.000000000000000000 ) ) ;
#148 = DIRECTION ( 'NONE',  ( 6.123233995736782100E-017, -0.8660254037844380400, 0.5000000000000012200 ) ) ;
#149 = DIRECTION ( 'NONE',  ( 0.0000000000000000000, 1.000000000000000000, 0.0000000000000000000 ) ) ;
#150 = CIRCLE ( 'NONE', #169, 1.476239569296599100 ) ;
#151 = TOROIDAL_SURFACE ( 'NONE', #282, 1.476239569296599100, 0.5999999999999999800 ) ;
#152 = EDGE_LOOP ( 'NONE', ( #268, #100, #281, #258 ) ) ;
#153 = DIRECTION ( 'NONE',  ( 0.0000000000000000000, 0.0000000000000000000, -1.000000000000000000 ) ) ;
#154 = AXIS2_PLACEMENT_3D ( 'NONE', #25, #202, #57 ) ;
#155 = DIRECTION ( 'NONE',  ( 0.0000000000000000000, 0.0000000000000000000, -1.000000000000000000 ) ) ;
#156 = FILL_AREA_STYLE ('',( #159 ) ) ;
#157 = DIRECTION ( 'NONE',  ( 0.0000000000000000000, 0.0000000000000000000, -1.000000000000000000 ) ) ;
#158 = EDGE_LOOP ( 'NONE', ( #32, #99, #325, #117 ) ) ;
#159 = FILL_AREA_STYLE_COLOUR ( '', #80 ) ;
#160 = ADVANCED_FACE ( 'NONE', ( #59 ), #196, .T. ) ;
#161 = ORIENTED_EDGE ( 'NONE', *, *, #266, .F. ) ;
#162 = EDGE_CURVE ( 'NONE', #30, #319, #55, .T. ) ;
#163 = DIRECTION ( 'NONE',  ( -0.0000000000000000000, -1.000000000000000000, -0.0000000000000000000 ) ) ;
#164 = ADVANCED_FACE ( 'NONE', ( #358 ), #201, .T. ) ;
#165 = CARTESIAN_POINT ( 'NONE',  ( 0.0000000000000000000, 0.0000000000000000000, 0.5000000000000004400 ) ) ;
#166 = CIRCLE ( 'NONE', #11, 1.000000000000000000 ) ;
#167 = EDGE_CURVE ( 'NONE', #229, #218, #88, .T. ) ;
#168 = FACE_OUTER_BOUND ( 'NONE', #158, .T. ) ;
#169 = AXIS2_PLACEMENT_3D ( 'NONE', #180, #149, #5 ) ;
#170 = EDGE_LOOP ( 'NONE', ( #29, #45, #252, #85 ) ) ;
#171 = ORIENTED_EDGE ( 'NONE', *, *, #137, .T. ) ;
#172 = CARTESIAN_POINT ( 'NONE',  ( 2.939152317953647100E-016, 0.0000000000000000000, 2.399999999999999900 ) ) ;
#173 = ORIENTED_EDGE ( 'NONE', *, *, #162, .T. ) ;
#174 = PRESENTATION_LAYER_ASSIGNMENT (  '', '', ( #206 ) ) ;
#175 = CARTESIAN_POINT ( 'NONE',  ( 2.126044634931219400E-016, 13.99999999999999800, -1.476239569296599100 ) ) ;
#176 = AXIS2_PLACEMENT_3D ( 'NONE', #102, #186, #299 ) ;
#177 = LINE ( 'NONE', #172, #72 ) ;
#178 = ORIENTED_EDGE ( 'NONE', *, *, #370, .F. ) ;
#179 = CARTESIAN_POINT ( 'NONE',  ( 1.807872063313747300E-016, 13.39999999999999900, -1.476239569296599100 ) ) ;
#180 = CARTESIAN_POINT ( 'NONE',  ( 0.0000000000000000000, 13.99999999999999800, 0.0000000000000000000 ) ) ;
#181 = EDGE_CURVE ( 'NONE', #218, #229, #343, .T. ) ;
#182 = CIRCLE ( 'NONE', #86, 0.6000000000000000900 ) ;
#183 = DIRECTION ( 'NONE',  ( -0.0000000000000000000, -1.000000000000000000, -0.0000000000000000000 ) ) ;
#184 = ORIENTED_EDGE ( 'NONE', *, *, #224, .F. ) ;
#185 = EDGE_CURVE ( 'NONE', #104, #319, #110, .T. ) ;
#186 = DIRECTION ( 'NONE',  ( -0.0000000000000000000, -1.000000000000000000, -0.0000000000000000000 ) ) ;
#187 = CARTESIAN_POINT ( 'NONE',  ( 0.0000000000000000000, 0.5000000000000014400, 0.0000000000000000000 ) ) ;
#188 = UNCERTAINTY_MEASURE_WITH_UNIT (LENGTH_MEASURE( 1.000000000000000100E-005 ), #53, 'distance_accuracy_value', 'NONE');
#189 = CARTESIAN_POINT ( 'NONE',  ( 0.0000000000000000000, 13.39999999999999900, 0.0000000000000000000 ) ) ;
#190 = CIRCLE ( 'NONE', #296, 0.5000000000000004400 ) ;
#191 = ADVANCED_FACE ( 'NONE', ( #363 ), #106, .T. ) ;
#192 = AXIS2_PLACEMENT_3D ( 'NONE', #321, #234, #348 ) ;
#193 = CARTESIAN_POINT ( 'NONE',  ( 1.224646799147353200E-016, 6.999999999999999100, 1.000000000000000000 ) ) ;
#194 =( LENGTH_UNIT ( ) NAMED_UNIT ( * ) SI_UNIT ( .MILLI., .METRE. ) );
#195 = EDGE_CURVE ( 'NONE', #30, #107, #349, .T. ) ;
#196 = CONICAL_SURFACE ( 'NONE', #313, 0.5000000000000004400, 0.7853981633974465000 ) ;
#197 = EDGE_LOOP ( 'NONE', ( #41, #369 ) ) ;
#198 = ORIENTED_EDGE ( 'NONE', *, *, #224, .T. ) ;
#199 = CARTESIAN_POINT ( 'NONE',  ( 0.0000000000000000000, 13.00000000000000200, -2.399999999999999900 ) ) ;
#200 = EDGE_CURVE ( 'NONE', #76, #104, #368, .T. ) ;
#201 = CONICAL_SURFACE ( 'NONE', #141, 0.5000000000000004400, 0.7853981633974465000 ) ;
#202 = DIRECTION ( 'NONE',  ( -0.0000000000000000000, -1.000000000000000000, -0.0000000000000000000 ) ) ;
#203 = EDGE_CURVE ( 'NONE', #273, #143, #150, .T. ) ;
#204 = CARTESIAN_POINT ( 'NONE',  ( 0.0000000000000000000, 13.69999999999999900, -1.995854811567262300 ) ) ;
#205 = ORIENTED_EDGE ( 'NONE', *, *, #200, .T. ) ;
#206 = STYLED_ITEM ( 'NONE', ( #139 ), #23 ) ;
#207 = CARTESIAN_POINT ( 'NONE',  ( 0.0000000000000000000, 0.0000000000000000000, 0.0000000000000000000 ) ) ;
#208 = CARTESIAN_POINT ( 'NONE',  ( 0.0000000000000000000, 0.0000000000000000000, 0.0000000000000000000 ) ) ;
#209 = STYLED_ITEM ( 'NONE', ( #311 ), #337 ) ;
#210 = TOROIDAL_SURFACE ( 'NONE', #127, 1.476239569296599100, 0.5999999999999999800 ) ;
#211 = EDGE_LOOP ( 'NONE', ( #178, #63, #217, #239 ) ) ;
#212 = DIRECTION ( 'NONE',  ( 0.0000000000000000000, 0.0000000000000000000, -1.000000000000000000 ) ) ;
#213 = CARTESIAN_POINT ( 'NONE',  ( 0.0000000000000000000, 0.0000000000000000000, -2.399999999999999900 ) ) ;
#214 = DIRECTION ( 'NONE',  ( -0.0000000000000000000, -1.000000000000000000, -0.0000000000000000000 ) ) ;
#215 = CIRCLE ( 'NONE', #26, 2.399999999999999900 ) ;
#216 = CARTESIAN_POINT ( 'NONE',  ( 0.0000000000000000000, 13.00000000000000200, 0.0000000000000000000 ) ) ;
#217 = ORIENTED_EDGE ( 'NONE', *, *, #242, .T. ) ;
#218 = VERTEX_POINT ( 'NONE', #42 ) ;
#219 = DIRECTION ( 'NONE',  ( 0.0000000000000000000, 1.000000000000000000, 0.0000000000000000000 ) ) ;
#220 = ADVANCED_FACE ( 'NONE', ( #232 ), #351, .T. ) ;
#221 = CARTESIAN_POINT ( 'NONE',  ( 0.0000000000000000000, 13.39999999999999900, 1.476239569296599100 ) ) ;
#222 = ORIENTED_EDGE ( 'NONE', *, *, #365, .T. ) ;
#223 = FILL_AREA_STYLE_COLOUR ( '', #6 ) ;
#224 = EDGE_CURVE ( 'NONE', #104, #76, #307, .T. ) ;
#225 = CARTESIAN_POINT ( 'NONE',  ( 6.123233995736772200E-017, 0.0000000000000000000, -0.5000000000000004400 ) ) ;
#226 = SURFACE_STYLE_USAGE ( .BOTH. , #19 ) ;
#227 = ADVANCED_FACE ( 'NONE', ( #71 ), #259, .T. ) ;
#228 = EDGE_CURVE ( 'NONE', #366, #340, #317, .T. ) ;
#229 = VERTEX_POINT ( 'NONE', #124 ) ;
#230 = EDGE_LOOP ( 'NONE', ( #47, #371, #297, #161 ) ) ;
#231 = AXIS2_PLACEMENT_3D ( 'NONE', #300, #51, #279 ) ;
#232 = FACE_OUTER_BOUND ( 'NONE', #320, .T. ) ;
#233 = VECTOR ( 'NONE', #90, 1000.000000000000000 ) ;
#234 = DIRECTION ( 'NONE',  ( -0.0000000000000000000, -1.000000000000000000, -0.0000000000000000000 ) ) ;
#235 = AXIS2_PLACEMENT_3D ( 'NONE', #241, #347, #147 ) ;
#236 = UNCERTAINTY_MEASURE_WITH_UNIT (LENGTH_MEASURE( 1.000000000000000100E-005 ), #194, 'distance_accuracy_value', 'NONE');
#237 = VECTOR ( 'NONE', #49, 999.9999999999998900 ) ;
#238 = CARTESIAN_POINT ( 'NONE',  ( 0.0000000000000000000, 0.0000000000000000000, 0.0000000000000000000 ) ) ;
#239 = ORIENTED_EDGE ( 'NONE', *, *, #181, .F. ) ;
#240 = PRODUCT_DEFINITION ( 'UNKNOWN', '', #18, #36 ) ;
#241 = CARTESIAN_POINT ( 'NONE',  ( 1.822649730810372600, 13.99999999999999800, 0.0000000000000000000 ) ) ;
#242 = EDGE_CURVE ( 'NONE', #364, #229, #130, .T. ) ;
#243 = FACE_OUTER_BOUND ( 'NONE', #93, .T. ) ;
#244 = AXIS2_PLACEMENT_3D ( 'NONE', #367, #27, #310 ) ;
#245 = DIRECTION ( 'NONE',  ( -0.0000000000000000000, -1.000000000000000000, -0.0000000000000000000 ) ) ;
#246 = PRODUCT_DEFINITION_SHAPE ( 'NONE', 'NONE',  #240 ) ;
#247 = ORIENTED_EDGE ( 'NONE', *, *, #228, .T. ) ;
#248 = EDGE_CURVE ( 'NONE', #319, #30, #284, .T. ) ;
#249 = DIRECTION ( 'NONE',  ( 0.0000000000000000000, 0.0000000000000000000, -1.000000000000000000 ) ) ;
#250 = CARTESIAN_POINT ( 'NONE',  ( 0.0000000000000000000, 6.999999999999999100, 0.0000000000000000000 ) ) ;
#251 =( NAMED_UNIT ( * ) PLANE_ANGLE_UNIT ( ) SI_UNIT ( $, .RADIAN. ) );
#252 = ORIENTED_EDGE ( 'NONE', *, *, #203, .F. ) ;
#253 = EDGE_LOOP ( 'NONE', ( #122, #73 ) ) ;
#254 =( GEOMETRIC_REPRESENTATION_CONTEXT ( 3 ) GLOBAL_UNCERTAINTY_ASSIGNED_CONTEXT ( ( #188 ) ) GLOBAL_UNIT_ASSIGNED_CONTEXT ( ( #53, #79, #31 ) ) REPRESENTATION_CONTEXT ( 'NONE', 'WORKASPACE' ) );
#255 = ADVANCED_FACE ( 'NONE', ( #13 ), #210, .T. ) ;
#256 = AXIS2_PLACEMENT_3D ( 'NONE', #270, #183, #68 ) ;
#257 = FACE_OUTER_BOUND ( 'NONE', #312, .T. ) ;
#258 = ORIENTED_EDGE ( 'NONE', *, *, #242, .F. ) ;
#259 = CYLINDRICAL_SURFACE ( 'NONE', #345, 2.399999999999999900 ) ;
#260 = DIRECTION ( 'NONE',  ( 1.000000000000000000, 0.0000000000000000000, 0.0000000000000000000 ) ) ;
#261 = CIRCLE ( 'NONE', #335, 2.399999999999999900 ) ;
#262 = EDGE_CURVE ( 'NONE', #340, #366, #166, .T. ) ;
#263 = DIRECTION ( 'NONE',  ( 0.0000000000000000000, 0.0000000000000000000, -1.000000000000000000 ) ) ;
#264 = CARTESIAN_POINT ( 'NONE',  ( 1.224646799147353200E-016, 0.0000000000000000000, 1.000000000000000000 ) ) ;
#265 = DIRECTION ( 'NONE',  ( 0.0000000000000000000, 0.0000000000000000000, -1.000000000000000000 ) ) ;
#266 = EDGE_CURVE ( 'NONE', #24, #107, #215, .T. ) ;
#267 = LINE ( 'NONE', #277, #237 ) ;
#268 = ORIENTED_EDGE ( 'NONE', *, *, #43, .F. ) ;
#269 = CARTESIAN_POINT ( 'NONE',  ( 0.0000000000000000000, 13.99999999999999800, 1.476239569296599100 ) ) ;
#270 = CARTESIAN_POINT ( 'NONE',  ( 0.0000000000000000000, 13.69999999999999900, 0.0000000000000000000 ) ) ;
#271 = EDGE_LOOP ( 'NONE', ( #171, #283 ) ) ;
#272 = AXIS2_PLACEMENT_3D ( 'NONE', #39, #245, #298 ) ;
#273 = VERTEX_POINT ( 'NONE', #269 ) ;
#274 = DIRECTION ( 'NONE',  ( 0.0000000000000000000, 0.0000000000000000000, 1.000000000000000000 ) ) ;
#275 = DIRECTION ( 'NONE',  ( -0.0000000000000000000, -1.000000000000000000, -0.0000000000000000000 ) ) ;
#276 = CARTESIAN_POINT ( 'NONE',  ( 2.939152317953647100E-016, 13.00000000000000200, 2.399999999999999900 ) ) ;
#277 = CARTESIAN_POINT ( 'NONE',  ( 0.0000000000000000000, 13.00000000000000200, -2.399999999999999900 ) ) ;
#278 = FACE_OUTER_BOUND ( 'NONE', #138, .T. ) ;
#279 = DIRECTION ( 'NONE',  ( 0.0000000000000000000, 0.0000000000000000000, -1.000000000000000000 ) ) ;
#280 = AXIS2_PLACEMENT_3D ( 'NONE', #95, #1, #33 ) ;
#281 = ORIENTED_EDGE ( 'NONE', *, *, #167, .F. ) ;
#282 = AXIS2_PLACEMENT_3D ( 'NONE', #120, #341, #118 ) ;
#283 = ORIENTED_EDGE ( 'NONE', *, *, #266, .T. ) ;
#284 = CIRCLE ( 'NONE', #56, 2.399999999999999900 ) ;
#285 = ORIENTED_EDGE ( 'NONE', *, *, #4, .T. ) ;
#286 = DIRECTION ( 'NONE',  ( 0.0000000000000000000, 1.000000000000000000, 0.0000000000000000000 ) ) ;
#287 = ORIENTED_EDGE ( 'NONE', *, *, #116, .F. ) ;
#288 = AXIS2_PLACEMENT_3D ( 'NONE', #179, #344, #61 ) ;
#289 = DIRECTION ( 'NONE',  ( 0.0000000000000000000, -1.000000000000000000, -0.0000000000000000000 ) ) ;
#290 = AXIS2_PLACEMENT_3D ( 'NONE', #129, #163, #14 ) ;
#291 = ORIENTED_EDGE ( 'NONE', *, *, #162, .F. ) ;
#292 = DIRECTION ( 'NONE',  ( 0.0000000000000000000, 1.000000000000000000, 0.0000000000000000000 ) ) ;
#293 = CARTESIAN_POINT ( 'NONE',  ( 0.0000000000000000000, 0.0000000000000000000, 0.0000000000000000000 ) ) ;
#294 = DIRECTION ( 'NONE',  ( 0.0000000000000000000, 0.0000000000000000000, -1.000000000000000000 ) ) ;
#295 = FACE_BOUND ( 'NONE', #253, .T. ) ;
#296 = AXIS2_PLACEMENT_3D ( 'NONE', #238, #38, #263 ) ;
#297 = ORIENTED_EDGE ( 'NONE', *, *, #195, .T. ) ;
#298 = DIRECTION ( 'NONE',  ( 0.0000000000000000000, 0.0000000000000000000, -1.000000000000000000 ) ) ;
#299 = DIRECTION ( 'NONE',  ( 0.0000000000000000000, 0.0000000000000000000, 1.000000000000000000 ) ) ;
#300 = CARTESIAN_POINT ( 'NONE',  ( 1.000000000000000000, 6.999999999999999100, 0.0000000000000000000 ) ) ;
#301 = PRESENTATION_LAYER_ASSIGNMENT (  '', '', ( #209 ) ) ;
#302 = PLANE ( 'NONE',  #231 ) ;
#303 = DIRECTION ( 'NONE',  ( 8.659560562354918100E-017, 0.7071067811865489100, -0.7071067811865462400 ) ) ;
#304 = APPLICATION_CONTEXT ( 'automotive_design' ) ;
#305 = CIRCLE ( 'NONE', #280, 0.5000000000000004400 ) ;
#306 = EDGE_CURVE ( 'NONE', #366, #218, #135, .T. ) ;
#307 = CIRCLE ( 'NONE', #256, 1.995854811567262300 ) ;
#308 = ORIENTED_EDGE ( 'NONE', *, *, #137, .F. ) ;
#309 = ORIENTED_EDGE ( 'NONE', *, *, #34, .T. ) ;
#310 = DIRECTION ( 'NONE',  ( 0.0000000000000000000, 0.0000000000000000000, -1.000000000000000000 ) ) ;
#311 = PRESENTATION_STYLE_ASSIGNMENT (( #128 ) ) ;
#312 = EDGE_LOOP ( 'NONE', ( #119, #46 ) ) ;
#313 = AXIS2_PLACEMENT_3D ( 'NONE', #208, #292, #372 ) ;
#314 = CARTESIAN_POINT ( 'NONE',  ( 0.0000000000000000000, 0.0000000000000000000, 0.0000000000000000000 ) ) ;
#315 = CARTESIAN_POINT ( 'NONE',  ( 0.0000000000000000000, 7.000000000000000000, 0.0000000000000000000 ) ) ;
#316 = MECHANICAL_DESIGN_GEOMETRIC_PRESENTATION_REPRESENTATION (  '', ( #206 ), #254 ) ;
#317 = CIRCLE ( 'NONE', #272, 1.000000000000000000 ) ;
#318 = DIRECTION ( 'NONE',  ( 0.0000000000000000000, 0.0000000000000000000, -1.000000000000000000 ) ) ;
#319 = VERTEX_POINT ( 'NONE', #276 ) ;
#320 = EDGE_LOOP ( 'NONE', ( #247, #309, #126, #67 ) ) ;
#321 = CARTESIAN_POINT ( 'NONE',  ( 0.0000000000000000000, 0.0000000000000000000, 0.0000000000000000000 ) ) ;
#322 = DIRECTION ( 'NONE',  ( 0.0000000000000000000, 1.000000000000000000, 0.0000000000000000000 ) ) ;
#323 = FACE_OUTER_BOUND ( 'NONE', #35, .T. ) ;
#324 = ORIENTED_EDGE ( 'NONE', *, *, #142, .F. ) ;
#325 = ORIENTED_EDGE ( 'NONE', *, *, #306, .T. ) ;
#326 = DIRECTION ( 'NONE',  ( 0.0000000000000000000, 0.7071067811865489100, 0.7071067811865462400 ) ) ;
#327 = DIRECTION ( 'NONE',  ( -0.0000000000000000000, -1.000000000000000000, -0.0000000000000000000 ) ) ;
#328 = AXIS2_PLACEMENT_3D ( 'NONE', #293, #350, #98 ) ;
#329 = SURFACE_SIDE_STYLE ('',( #97 ) ) ;
#330 = VECTOR ( 'NONE', #148, 999.9999999999998900 ) ;
#331 = ADVANCED_FACE ( 'NONE', ( #146, #295 ), #302, .T. ) ;
#332 = DIRECTION ( 'NONE',  ( -0.0000000000000000000, -1.000000000000000000, -0.0000000000000000000 ) ) ;
#333 =( GEOMETRIC_REPRESENTATION_CONTEXT ( 3 ) GLOBAL_UNCERTAINTY_ASSIGNED_CONTEXT ( ( #236 ) ) GLOBAL_UNIT_ASSIGNED_CONTEXT ( ( #194, #251, #12 ) ) REPRESENTATION_CONTEXT ( 'NONE', 'WORKASPACE' ) );
#334 =( NAMED_UNIT ( * ) SI_UNIT ( $, .STERADIAN. ) SOLID_ANGLE_UNIT ( ) );
#335 = AXIS2_PLACEMENT_3D ( 'NONE', #315, #144, #145 ) ;
#336 = ORIENTED_EDGE ( 'NONE', *, *, #355, .T. ) ;
#337 = MANIFOLD_SOLID_BREP ( 'Verrundung1', #10 ) ;
#338 = AXIS2_PLACEMENT_3D ( 'NONE', #96, #44, #153 ) ;
#339 = PRODUCT_CONTEXT ( 'NONE', #304, 'mechanical' ) ;
#340 = VERTEX_POINT ( 'NONE', #193 ) ;
#341 = DIRECTION ( 'NONE',  ( 0.0000000000000000000, 1.000000000000000000, 0.0000000000000000000 ) ) ;
#342 = CARTESIAN_POINT ( 'NONE',  ( 0.0000000000000000000, 13.99999999999999800, 0.0000000000000000000 ) ) ;
#343 = CIRCLE ( 'NONE', #83, 1.000000000000000000 ) ;
#344 = DIRECTION ( 'NONE',  ( 1.000000000000000000, -0.0000000000000000000, 1.224646799147353200E-016 ) ) ;
#345 = AXIS2_PLACEMENT_3D ( 'NONE', #123, #69, #294 ) ;
#346 = PLANE ( 'NONE',  #235 ) ;
#347 = DIRECTION ( 'NONE',  ( 0.0000000000000000000, 1.000000000000000000, 0.0000000000000000000 ) ) ;
#348 = DIRECTION ( 'NONE',  ( 0.0000000000000000000, 0.0000000000000000000, -1.000000000000000000 ) ) ;
#349 = LINE ( 'NONE', #213, #125 ) ;
#350 = DIRECTION ( 'NONE',  ( -0.0000000000000000000, -1.000000000000000000, -0.0000000000000000000 ) ) ;
#351 = CYLINDRICAL_SURFACE ( 'NONE', #328, 1.000000000000000000 ) ;
#352 = CIRCLE ( 'NONE', #288, 0.6000000000000000900 ) ;
#353 = VERTEX_POINT ( 'NONE', #16 ) ;
#354 = DIRECTION ( 'NONE',  ( -1.000000000000000000, 0.0000000000000000000, 0.0000000000000000000 ) ) ;
#355 = EDGE_CURVE ( 'NONE', #104, #273, #182, .T. ) ;
#356 = DIRECTION ( 'NONE',  ( 0.0000000000000000000, 0.0000000000000000000, 1.000000000000000000 ) ) ;
#357 = PRODUCT ( '42749~0', '42749~0', '', ( #339 ) ) ;
#358 = FACE_OUTER_BOUND ( 'NONE', #211, .T. ) ;
#359 = FILL_AREA_STYLE ('',( #223 ) ) ;
#360 = ADVANCED_FACE ( 'NONE', ( #323 ), #92, .T. ) ;
#361 = VECTOR ( 'NONE', #303, 999.9999999999998900 ) ;
#362 = AXIS2_PLACEMENT_3D ( 'NONE', #132, #28, #260 ) ;
#363 = FACE_OUTER_BOUND ( 'NONE', #81, .T. ) ;
#364 = VERTEX_POINT ( 'NONE', #165 ) ;
#365 = EDGE_CURVE ( 'NONE', #76, #30, #267, .T. ) ;
#366 = VERTEX_POINT ( 'NONE', #78 ) ;
#367 = CARTESIAN_POINT ( 'NONE',  ( 0.0000000000000000000, 0.0000000000000000000, 0.0000000000000000000 ) ) ;
#368 = CIRCLE ( 'NONE', #176, 1.995854811567262300 ) ;
#369 = ORIENTED_EDGE ( 'NONE', *, *, #142, .T. ) ;
#370 = EDGE_CURVE ( 'NONE', #353, #218, #84, .T. ) ;
#371 = ORIENTED_EDGE ( 'NONE', *, *, #248, .T. ) ;
#372 = DIRECTION ( 'NONE',  ( 0.0000000000000000000, 0.0000000000000000000, 1.000000000000000000 ) ) ;
ENDSEC;
END-ISO-10303-21;
