ISO-10303-21;
HEADER;
FILE_DESCRIPTION (( 'STEP AP214' ),
    '1' );
FILE_NAME ('42748~0.STEP',
    '2017-07-04T09:10:03',
    ( '' ),
    ( '' ),
    'SwSTEP 2.0',
    'SolidWorks 2016',
    '' );
FILE_SCHEMA (( 'AUTOMOTIVE_DESIGN' ));
ENDSEC;

DATA;
#1 = CARTESIAN_POINT ( 'NONE',  ( 0.0000000000000000000, 7.000000000000000000, 0.0000000000000000000 ) ) ;
#2 = DIRECTION ( 'NONE',  ( 0.0000000000000000000, 1.000000000000000000, 0.0000000000000000000 ) ) ;
#3 = FACE_OUTER_BOUND ( 'NONE', #126, .T. ) ;
#4 = EDGE_LOOP ( 'NONE', ( #209, #45, #298, #119 ) ) ;
#5 = EDGE_LOOP ( 'NONE', ( #261, #289, #143, #269 ) ) ;
#6 = AXIS2_PLACEMENT_3D ( 'NONE', #302, #83, #304 ) ;
#7 = CARTESIAN_POINT ( 'NONE',  ( 0.0000000000000000000, 0.0000000000000000000, 0.0000000000000000000 ) ) ;
#8 = CYLINDRICAL_SURFACE ( 'NONE', #74, 2.350000000000000100 ) ;
#9 = ORIENTED_EDGE ( 'NONE', *, *, #171, .T. ) ;
#10 = AXIS2_PLACEMENT_3D ( 'NONE', #103, #128, #234 ) ;
#11 = ORIENTED_EDGE ( 'NONE', *, *, #371, .F. ) ;
#12 = EDGE_LOOP ( 'NONE', ( #9, #26, #115, #67 ) ) ;
#13 = DIRECTION ( 'NONE',  ( -0.0000000000000000000, -1.000000000000000000, -0.0000000000000000000 ) ) ;
#14 = CARTESIAN_POINT ( 'NONE',  ( 0.0000000000000000000, 13.69999999999999900, -1.945854811567261600 ) ) ;
#15 = CARTESIAN_POINT ( 'NONE',  ( 0.0000000000000000000, 13.69999999999999900, 0.0000000000000000000 ) ) ;
#16 = FILL_AREA_STYLE ('',( #44 ) ) ;
#17 = DIRECTION ( 'NONE',  ( 0.0000000000000000000, 0.0000000000000000000, 1.000000000000000000 ) ) ;
#18 = CARTESIAN_POINT ( 'NONE',  ( 9.184850993605152100E-017, 0.0000000000000000000, -0.5000000000000004400 ) ) ;
#19 = CIRCLE ( 'NONE', #69, 1.945854811567261600 ) ;
#20 = EDGE_LOOP ( 'NONE', ( #184, #189, #106, #206 ) ) ;
#21 = CARTESIAN_POINT ( 'NONE',  ( 0.0000000000000000000, 6.999999999999999100, -1.000000000000000000 ) ) ;
#22 = CARTESIAN_POINT ( 'NONE',  ( 1.000000000000000000, 6.999999999999999100, 0.0000000000000000000 ) ) ;
#23 = CARTESIAN_POINT ( 'NONE',  ( 0.0000000000000000000, 0.0000000000000000000, 0.0000000000000000000 ) ) ;
#24 = DIRECTION ( 'NONE',  ( 0.0000000000000000000, 0.0000000000000000000, -1.000000000000000000 ) ) ;
#25 = AXIS2_PLACEMENT_3D ( 'NONE', #22, #54, #251 ) ;
#26 = ORIENTED_EDGE ( 'NONE', *, *, #52, .T. ) ;
#27 = ADVANCED_FACE ( 'NONE', ( #267 ), #236, .T. ) ;
#28 = ORIENTED_EDGE ( 'NONE', *, *, #61, .F. ) ;
#29 = CARTESIAN_POINT ( 'NONE',  ( 0.0000000000000000000, 0.5000000000000014400, 0.0000000000000000000 ) ) ;
#30 = CARTESIAN_POINT ( 'NONE',  ( 0.0000000000000000000, 0.0000000000000000000, 0.0000000000000000000 ) ) ;
#31 = AXIS2_PLACEMENT_3D ( 'NONE', #291, #325, #181 ) ;
#32 = APPLICATION_PROTOCOL_DEFINITION ( 'draft international standard', 'automotive_design', 1998, #322 ) ;
#33 = CARTESIAN_POINT ( 'NONE',  ( 0.0000000000000000000, 6.999999999999999100, 0.0000000000000000000 ) ) ;
#34 = SURFACE_STYLE_FILL_AREA ( #149 ) ;
#35 = ORIENTED_EDGE ( 'NONE', *, *, #307, .T. ) ;
#36 = EDGE_CURVE ( 'NONE', #49, #89, #179, .T. ) ;
#37 = PRODUCT_DEFINITION_FORMATION_WITH_SPECIFIED_SOURCE ( 'ANY', '', #301, .NOT_KNOWN. ) ;
#38 = ORIENTED_EDGE ( 'NONE', *, *, #36, .T. ) ;
#39 = EDGE_CURVE ( 'NONE', #89, #208, #314, .T. ) ;
#40 = FACE_OUTER_BOUND ( 'NONE', #266, .T. ) ;
#41 = CIRCLE ( 'NONE', #165, 1.000000000000000000 ) ;
#42 = DIRECTION ( 'NONE',  ( -0.0000000000000000000, -1.000000000000000000, -0.0000000000000000000 ) ) ;
#43 = AXIS2_PLACEMENT_3D ( 'NONE', #151, #125, #290 ) ;
#44 = FILL_AREA_STYLE_COLOUR ( '', #327 ) ;
#45 = ORIENTED_EDGE ( 'NONE', *, *, #73, .T. ) ;
#46 =( GEOMETRIC_REPRESENTATION_CONTEXT ( 3 ) GLOBAL_UNCERTAINTY_ASSIGNED_CONTEXT ( ( #121 ) ) GLOBAL_UNIT_ASSIGNED_CONTEXT ( ( #346, #92, #174 ) ) REPRESENTATION_CONTEXT ( 'NONE', 'WORKASPACE' ) );
#47 = CARTESIAN_POINT ( 'NONE',  ( 0.0000000000000000000, 13.00000000000000200, 0.0000000000000000000 ) ) ;
#48 = AXIS2_PLACEMENT_3D ( 'NONE', #33, #185, #329 ) ;
#49 = VERTEX_POINT ( 'NONE', #118 ) ;
#50 = DIRECTION ( 'NONE',  ( 1.000000000000000000, -0.0000000000000000000, 1.224646799147353200E-016 ) ) ;
#51 = DIRECTION ( 'NONE',  ( 0.0000000000000000000, 1.000000000000000000, 0.0000000000000000000 ) ) ;
#52 = EDGE_CURVE ( 'NONE', #306, #89, #182, .T. ) ;
#53 = ADVANCED_FACE ( 'NONE', ( #300 ), #201, .T. ) ;
#54 = DIRECTION ( 'NONE',  ( 0.0000000000000000000, -1.000000000000000000, -0.0000000000000000000 ) ) ;
#55 = PRESENTATION_STYLE_ASSIGNMENT (( #204 ) ) ;
#56 = CARTESIAN_POINT ( 'NONE',  ( 0.0000000000000000000, 0.0000000000000000000, -1.000000000000000000 ) ) ;
#57 = ORIENTED_EDGE ( 'NONE', *, *, #231, .F. ) ;
#58 = ORIENTED_EDGE ( 'NONE', *, *, #81, .F. ) ;
#59 = CARTESIAN_POINT ( 'NONE',  ( 0.0000000000000000000, 0.5000000000000014400, 0.0000000000000000000 ) ) ;
#60 = FILL_AREA_STYLE_COLOUR ( '', #273 ) ;
#61 = EDGE_CURVE ( 'NONE', #78, #356, #224, .T. ) ;
#62 = DIRECTION ( 'NONE',  ( 0.0000000000000000000, 0.0000000000000000000, 1.000000000000000000 ) ) ;
#63 = CIRCLE ( 'NONE', #134, 1.426239569296599500 ) ;
#64 = CARTESIAN_POINT ( 'NONE',  ( 0.0000000000000000000, 0.0000000000000000000, 0.0000000000000000000 ) ) ;
#65 = DIRECTION ( 'NONE',  ( 0.0000000000000000000, 0.7071067811865489100, 0.7071067811865462400 ) ) ;
#66 = ORIENTED_EDGE ( 'NONE', *, *, #81, .T. ) ;
#67 = ORIENTED_EDGE ( 'NONE', *, *, #225, .F. ) ;
#68 = DIRECTION ( 'NONE',  ( 0.0000000000000000000, 0.0000000000000000000, -1.000000000000000000 ) ) ;
#69 = AXIS2_PLACEMENT_3D ( 'NONE', #15, #13, #216 ) ;
#70 = CIRCLE ( 'NONE', #43, 1.426239569296599500 ) ;
#71 = VECTOR ( 'NONE', #257, 1000.000000000000000 ) ;
#72 = AXIS2_PLACEMENT_3D ( 'NONE', #23, #117, #341 ) ;
#73 = EDGE_CURVE ( 'NONE', #226, #194, #154, .T. ) ;
#74 = AXIS2_PLACEMENT_3D ( 'NONE', #311, #281, #120 ) ;
#75 = ORIENTED_EDGE ( 'NONE', *, *, #77, .T. ) ;
#76 = AXIS2_PLACEMENT_3D ( 'NONE', #47, #337, #107 ) ;
#77 = EDGE_CURVE ( 'NONE', #280, #211, #217, .T. ) ;
#78 = VERTEX_POINT ( 'NONE', #262 ) ;
#79 = DIRECTION ( 'NONE',  ( 0.0000000000000000000, 0.0000000000000000000, -1.000000000000000000 ) ) ;
#80 = CARTESIAN_POINT ( 'NONE',  ( 0.0000000000000000000, 0.0000000000000000000, 0.0000000000000000000 ) ) ;
#81 = EDGE_CURVE ( 'NONE', #306, #276, #87, .T. ) ;
#82 = CARTESIAN_POINT ( 'NONE',  ( 6.123233995736772200E-017, 0.0000000000000000000, -0.5000000000000004400 ) ) ;
#83 = DIRECTION ( 'NONE',  ( -0.0000000000000000000, -1.000000000000000000, -0.0000000000000000000 ) ) ;
#84 = PLANE ( 'NONE',  #25 ) ;
#85 = AXIS2_PLACEMENT_3D ( 'NONE', #319, #51, #250 ) ;
#86 = CARTESIAN_POINT ( 'NONE',  ( 0.0000000000000000000, 0.0000000000000000000, -2.350000000000000100 ) ) ;
#87 = CIRCLE ( 'NONE', #48, 1.000000000000000000 ) ;
#88 = DIRECTION ( 'NONE',  ( -0.0000000000000000000, -1.000000000000000000, -0.0000000000000000000 ) ) ;
#89 = VERTEX_POINT ( 'NONE', #156 ) ;
#90 = AXIS2_PLACEMENT_3D ( 'NONE', #91, #144, #173 ) ;
#91 = CARTESIAN_POINT ( 'NONE',  ( 0.0000000000000000000, 0.0000000000000000000, 0.0000000000000000000 ) ) ;
#92 =( NAMED_UNIT ( * ) PLANE_ANGLE_UNIT ( ) SI_UNIT ( $, .RADIAN. ) );
#93 = LINE ( 'NONE', #198, #313 ) ;
#94 = ORIENTED_EDGE ( 'NONE', *, *, #340, .T. ) ;
#95 = PRODUCT_CONTEXT ( 'NONE', #347, 'mechanical' ) ;
#96 =( LENGTH_UNIT ( ) NAMED_UNIT ( * ) SI_UNIT ( .MILLI., .METRE. ) );
#97 = CIRCLE ( 'NONE', #72, 0.5000000000000004400 ) ;
#98 = DIRECTION ( 'NONE',  ( 0.0000000000000000000, 0.0000000000000000000, 1.000000000000000000 ) ) ;
#99 = ORIENTED_EDGE ( 'NONE', *, *, #256, .T. ) ;
#100 = EDGE_CURVE ( 'NONE', #136, #280, #350, .T. ) ;
#101 = ORIENTED_EDGE ( 'NONE', *, *, #133, .T. ) ;
#102 = PRODUCT_RELATED_PRODUCT_CATEGORY ( 'part', '', ( #301 ) ) ;
#103 = CARTESIAN_POINT ( 'NONE',  ( 0.0000000000000000000, 13.00000000000000200, 0.0000000000000000000 ) ) ;
#104 = CYLINDRICAL_SURFACE ( 'NONE', #215, 1.000000000000000000 ) ;
#105 = AXIS2_PLACEMENT_3D ( 'NONE', #363, #339, #141 ) ;
#106 = ORIENTED_EDGE ( 'NONE', *, *, #39, .F. ) ;
#107 = DIRECTION ( 'NONE',  ( 0.0000000000000000000, 0.0000000000000000000, -1.000000000000000000 ) ) ;
#108 = FACE_OUTER_BOUND ( 'NONE', #360, .T. ) ;
#109 =( GEOMETRIC_REPRESENTATION_CONTEXT ( 3 ) GLOBAL_UNCERTAINTY_ASSIGNED_CONTEXT ( ( #286 ) ) GLOBAL_UNIT_ASSIGNED_CONTEXT ( ( #243, #219, #111 ) ) REPRESENTATION_CONTEXT ( 'NONE', 'WORKASPACE' ) );
#110 = DIRECTION ( 'NONE',  ( 0.0000000000000000000, 0.0000000000000000000, 1.000000000000000000 ) ) ;
#111 =( NAMED_UNIT ( * ) SI_UNIT ( $, .STERADIAN. ) SOLID_ANGLE_UNIT ( ) );
#112 = DIRECTION ( 'NONE',  ( 0.0000000000000000000, 0.0000000000000000000, -1.000000000000000000 ) ) ;
#113 = DIRECTION ( 'NONE',  ( 0.0000000000000000000, -0.8660254037844380400, -0.5000000000000012200 ) ) ;
#114 = CIRCLE ( 'NONE', #272, 1.000000000000000000 ) ;
#115 = ORIENTED_EDGE ( 'NONE', *, *, #39, .T. ) ;
#116 = PRESENTATION_LAYER_ASSIGNMENT (  '', '', ( #292 ) ) ;
#117 = DIRECTION ( 'NONE',  ( -0.0000000000000000000, -1.000000000000000000, -0.0000000000000000000 ) ) ;
#118 = CARTESIAN_POINT ( 'NONE',  ( 0.0000000000000000000, 0.0000000000000000000, 0.5000000000000004400 ) ) ;
#119 = ORIENTED_EDGE ( 'NONE', *, *, #195, .F. ) ;
#120 = DIRECTION ( 'NONE',  ( 0.0000000000000000000, 0.0000000000000000000, -1.000000000000000000 ) ) ;
#121 = UNCERTAINTY_MEASURE_WITH_UNIT (LENGTH_MEASURE( 1.000000000000000100E-005 ), #346, 'distance_accuracy_value', 'NONE');
#122 = DIRECTION ( 'NONE',  ( 0.0000000000000000000, 0.0000000000000000000, -1.000000000000000000 ) ) ;
#123 = ADVANCED_FACE ( 'NONE', ( #268 ), #192, .T. ) ;
#124 = ADVANCED_FACE ( 'NONE', ( #130 ), #343, .T. ) ;
#125 = DIRECTION ( 'NONE',  ( 0.0000000000000000000, 1.000000000000000000, 0.0000000000000000000 ) ) ;
#126 = EDGE_LOOP ( 'NONE', ( #240, #170 ) ) ;
#127 = DIRECTION ( 'NONE',  ( 1.000000000000000000, 0.0000000000000000000, 0.0000000000000000000 ) ) ;
#128 = DIRECTION ( 'NONE',  ( -0.0000000000000000000, -1.000000000000000000, -0.0000000000000000000 ) ) ;
#129 = PRODUCT_DEFINITION ( 'UNKNOWN', '', #37, #308 ) ;
#130 = FACE_OUTER_BOUND ( 'NONE', #263, .T. ) ;
#131 = AXIS2_PLACEMENT_3D ( 'NONE', #7, #186, #271 ) ;
#132 = EDGE_LOOP ( 'NONE', ( #157, #348, #38, #11 ) ) ;
#133 = EDGE_CURVE ( 'NONE', #194, #226, #214, .T. ) ;
#134 = AXIS2_PLACEMENT_3D ( 'NONE', #277, #140, #227 ) ;
#135 = DIRECTION ( 'NONE',  ( 8.659560562354918100E-017, 0.7071067811865489100, -0.7071067811865462400 ) ) ;
#136 = VERTEX_POINT ( 'NONE', #14 ) ;
#137 = PLANE ( 'NONE',  #180 ) ;
#138 = EDGE_LOOP ( 'NONE', ( #297, #66, #335, #338 ) ) ;
#139 = CARTESIAN_POINT ( 'NONE',  ( 0.0000000000000000000, 13.00000000000000200, -2.350000000000000100 ) ) ;
#140 = DIRECTION ( 'NONE',  ( 0.0000000000000000000, 1.000000000000000000, 0.0000000000000000000 ) ) ;
#141 = DIRECTION ( 'NONE',  ( 0.0000000000000000000, -0.0000000000000000000, 1.000000000000000000 ) ) ;
#142 = CARTESIAN_POINT ( 'NONE',  ( 0.0000000000000000000, 13.00000000000000200, -2.350000000000000100 ) ) ;
#143 = ORIENTED_EDGE ( 'NONE', *, *, #340, .F. ) ;
#144 = DIRECTION ( 'NONE',  ( -0.0000000000000000000, -1.000000000000000000, -0.0000000000000000000 ) ) ;
#145 = ADVANCED_FACE ( 'NONE', ( #108 ), #137, .T. ) ;
#146 = EDGE_CURVE ( 'NONE', #207, #208, #354, .T. ) ;
#147 = DIRECTION ( 'NONE',  ( -0.0000000000000000000, -1.000000000000000000, -0.0000000000000000000 ) ) ;
#148 = MECHANICAL_DESIGN_GEOMETRIC_PRESENTATION_REPRESENTATION (  '', ( #292 ), #316 ) ;
#149 = FILL_AREA_STYLE ('',( #60 ) ) ;
#150 = CIRCLE ( 'NONE', #332, 2.350000000000000100 ) ;
#151 = CARTESIAN_POINT ( 'NONE',  ( 0.0000000000000000000, 13.99999999999999800, 0.0000000000000000000 ) ) ;
#152 = CARTESIAN_POINT ( 'NONE',  ( 0.0000000000000000000, 13.39999999999999900, 0.0000000000000000000 ) ) ;
#153 = ORIENTED_EDGE ( 'NONE', *, *, #237, .F. ) ;
#154 = CIRCLE ( 'NONE', #10, 2.350000000000000100 ) ;
#155 = ORIENTED_EDGE ( 'NONE', *, *, #133, .F. ) ;
#156 = CARTESIAN_POINT ( 'NONE',  ( 1.224646799147353200E-016, 0.5000000000000014400, 1.000000000000000000 ) ) ;
#157 = ORIENTED_EDGE ( 'NONE', *, *, #146, .F. ) ;
#158 = SHAPE_DEFINITION_REPRESENTATION ( #279, #299 ) ;
#159 = TOROIDAL_SURFACE ( 'NONE', #336, 1.426239569296599500, 0.5999999999999999800 ) ;
#160 = EDGE_LOOP ( 'NONE', ( #94, #35 ) ) ;
#161 = ORIENTED_EDGE ( 'NONE', *, *, #73, .F. ) ;
#162 = DIRECTION ( 'NONE',  ( 0.0000000000000000000, 1.000000000000000000, 0.0000000000000000000 ) ) ;
#163 = DIRECTION ( 'NONE',  ( -0.0000000000000000000, -1.000000000000000000, -0.0000000000000000000 ) ) ;
#164 = CARTESIAN_POINT ( 'NONE',  ( 0.0000000000000000000, 13.99999999999999800, 1.426239569296599500 ) ) ;
#165 = AXIS2_PLACEMENT_3D ( 'NONE', #309, #163, #79 ) ;
#166 = SURFACE_SIDE_STYLE ('',( #223 ) ) ;
#167 = DIRECTION ( 'NONE',  ( 0.0000000000000000000, 1.000000000000000000, 0.0000000000000000000 ) ) ;
#168 = CARTESIAN_POINT ( 'NONE',  ( 2.630452422293801600E-016, 13.69999999999999900, 1.945854811567261600 ) ) ;
#169 = ORIENTED_EDGE ( 'NONE', *, *, #237, .T. ) ;
#170 = ORIENTED_EDGE ( 'NONE', *, *, #195, .T. ) ;
#171 = EDGE_CURVE ( 'NONE', #276, #306, #41, .T. ) ;
#172 = DIRECTION ( 'NONE',  ( 1.224646799147352700E-016, 0.0000000000000000000, -1.000000000000000000 ) ) ;
#173 = DIRECTION ( 'NONE',  ( 0.0000000000000000000, 0.0000000000000000000, -1.000000000000000000 ) ) ;
#174 =( NAMED_UNIT ( * ) SI_UNIT ( $, .STERADIAN. ) SOLID_ANGLE_UNIT ( ) );
#175 = CARTESIAN_POINT ( 'NONE',  ( 2.877919977996279800E-016, 0.0000000000000000000, 2.350000000000000100 ) ) ;
#176 = CONICAL_SURFACE ( 'NONE', #349, 2.350000000000000100, 0.5235987755983002600 ) ;
#177 = LINE ( 'NONE', #142, #196 ) ;
#178 = APPLICATION_PROTOCOL_DEFINITION ( 'draft international standard', 'automotive_design', 1998, #347 ) ;
#179 = LINE ( 'NONE', #202, #368 ) ;
#180 = AXIS2_PLACEMENT_3D ( 'NONE', #246, #333, #112 ) ;
#181 = DIRECTION ( 'NONE',  ( 0.0000000000000000000, 0.0000000000000000000, 1.000000000000000000 ) ) ;
#182 = LINE ( 'NONE', #284, #71 ) ;
#183 = MANIFOLD_SOLID_BREP ( 'Verrundung1', #331 ) ;
#184 = ORIENTED_EDGE ( 'NONE', *, *, #256, .F. ) ;
#185 = DIRECTION ( 'NONE',  ( -0.0000000000000000000, -1.000000000000000000, -0.0000000000000000000 ) ) ;
#186 = DIRECTION ( 'NONE',  ( -0.0000000000000000000, -1.000000000000000000, -0.0000000000000000000 ) ) ;
#187 = FACE_BOUND ( 'NONE', #249, .T. ) ;
#188 = ORIENTED_EDGE ( 'NONE', *, *, #190, .T. ) ;
#189 = ORIENTED_EDGE ( 'NONE', *, *, #146, .T. ) ;
#190 = EDGE_CURVE ( 'NONE', #280, #136, #19, .T. ) ;
#191 = SURFACE_STYLE_USAGE ( .BOTH. , #166 ) ;
#192 = CYLINDRICAL_SURFACE ( 'NONE', #131, 2.350000000000000100 ) ;
#193 = CARTESIAN_POINT ( 'NONE',  ( 0.0000000000000000000, 7.000000000000000000, 0.0000000000000000000 ) ) ;
#194 = VERTEX_POINT ( 'NONE', #139 ) ;
#195 = EDGE_CURVE ( 'NONE', #356, #78, #150, .T. ) ;
#196 = VECTOR ( 'NONE', #113, 999.9999999999998900 ) ;
#197 = ORIENTED_EDGE ( 'NONE', *, *, #270, .F. ) ;
#198 = CARTESIAN_POINT ( 'NONE',  ( 2.877919977996279800E-016, 13.00000000000000200, 2.350000000000000100 ) ) ;
#199 = CARTESIAN_POINT ( 'NONE',  ( 1.746639723356380100E-016, 13.39999999999999900, -1.426239569296599500 ) ) ;
#200 = ADVANCED_FACE ( 'NONE', ( #288 ), #248, .T. ) ;
#201 = CYLINDRICAL_SURFACE ( 'NONE', #295, 1.000000000000000000 ) ;
#202 = CARTESIAN_POINT ( 'NONE',  ( 0.0000000000000000000, 0.0000000000000000000, 0.5000000000000004400 ) ) ;
#203 = MECHANICAL_DESIGN_GEOMETRIC_PRESENTATION_REPRESENTATION (  '', ( #228 ), #109 ) ;
#204 = SURFACE_STYLE_USAGE ( .BOTH. , #285 ) ;
#205 = DIRECTION ( 'NONE',  ( 0.0000000000000000000, 1.000000000000000000, 0.0000000000000000000 ) ) ;
#206 = ORIENTED_EDGE ( 'NONE', *, *, #36, .F. ) ;
#207 = VERTEX_POINT ( 'NONE', #18 ) ;
#208 = VERTEX_POINT ( 'NONE', #253 ) ;
#209 = ORIENTED_EDGE ( 'NONE', *, *, #361, .F. ) ;
#210 = AXIS2_PLACEMENT_3D ( 'NONE', #80, #162, #355 ) ;
#211 = VERTEX_POINT ( 'NONE', #164 ) ;
#212 = EDGE_CURVE ( 'NONE', #49, #207, #97, .T. ) ;
#213 = CARTESIAN_POINT ( 'NONE',  ( 0.0000000000000000000, 13.69999999999999900, 0.0000000000000000000 ) ) ;
#214 = CIRCLE ( 'NONE', #6, 2.350000000000000100 ) ;
#215 = AXIS2_PLACEMENT_3D ( 'NONE', #317, #221, #222 ) ;
#216 = DIRECTION ( 'NONE',  ( 0.0000000000000000000, 0.0000000000000000000, 1.000000000000000000 ) ) ;
#217 = CIRCLE ( 'NONE', #31, 0.6000000000000000900 ) ;
#218 = ORIENTED_EDGE ( 'NONE', *, *, #100, .T. ) ;
#219 =( NAMED_UNIT ( * ) PLANE_ANGLE_UNIT ( ) SI_UNIT ( $, .RADIAN. ) );
#220 = DIRECTION ( 'NONE',  ( -0.0000000000000000000, -1.000000000000000000, -0.0000000000000000000 ) ) ;
#221 = DIRECTION ( 'NONE',  ( -0.0000000000000000000, -1.000000000000000000, -0.0000000000000000000 ) ) ;
#222 = DIRECTION ( 'NONE',  ( 0.0000000000000000000, 0.0000000000000000000, -1.000000000000000000 ) ) ;
#223 = SURFACE_STYLE_FILL_AREA ( #16 ) ;
#224 = CIRCLE ( 'NONE', #247, 2.350000000000000100 ) ;
#225 = EDGE_CURVE ( 'NONE', #276, #208, #305, .T. ) ;
#226 = VERTEX_POINT ( 'NONE', #362 ) ;
#227 = DIRECTION ( 'NONE',  ( 0.0000000000000000000, 0.0000000000000000000, 1.000000000000000000 ) ) ;
#228 = STYLED_ITEM ( 'NONE', ( #359 ), #183 ) ;
#229 = PLANE ( 'NONE',  #105 ) ;
#230 = CARTESIAN_POINT ( 'NONE',  ( 2.877919977996279800E-016, 7.000000000000000000, 2.350000000000000100 ) ) ;
#231 = EDGE_CURVE ( 'NONE', #136, #315, #296, .T. ) ;
#232 =( NAMED_UNIT ( * ) PLANE_ANGLE_UNIT ( ) SI_UNIT ( $, .RADIAN. ) );
#233 = CARTESIAN_POINT ( 'NONE',  ( 0.0000000000000000000, 13.00000000000000200, 0.0000000000000000000 ) ) ;
#234 = DIRECTION ( 'NONE',  ( 0.0000000000000000000, 0.0000000000000000000, -1.000000000000000000 ) ) ;
#235 = CIRCLE ( 'NONE', #90, 0.5000000000000004400 ) ;
#236 = TOROIDAL_SURFACE ( 'NONE', #241, 1.426239569296599500, 0.5999999999999999800 ) ;
#237 = EDGE_CURVE ( 'NONE', #280, #226, #93, .T. ) ;
#238 = FACE_OUTER_BOUND ( 'NONE', #255, .T. ) ;
#239 = ORIENTED_EDGE ( 'NONE', *, *, #264, .T. ) ;
#240 = ORIENTED_EDGE ( 'NONE', *, *, #61, .T. ) ;
#241 = AXIS2_PLACEMENT_3D ( 'NONE', #152, #205, #62 ) ;
#242 = DIRECTION ( 'NONE',  ( 0.0000000000000000000, 0.0000000000000000000, -1.000000000000000000 ) ) ;
#243 =( LENGTH_UNIT ( ) NAMED_UNIT ( * ) SI_UNIT ( .MILLI., .METRE. ) );
#244 = LINE ( 'NONE', #86, #330 ) ;
#245 = EDGE_LOOP ( 'NONE', ( #101, #294, #28, #197 ) ) ;
#246 = CARTESIAN_POINT ( 'NONE',  ( 0.0000000000000000000, 0.0000000000000000000, 0.0000000000000000000 ) ) ;
#247 = AXIS2_PLACEMENT_3D ( 'NONE', #1, #345, #370 ) ;
#248 = CONICAL_SURFACE ( 'NONE', #210, 0.5000000000000004400, 0.7853981633974465000 ) ;
#249 = EDGE_LOOP ( 'NONE', ( #328, #58 ) ) ;
#250 = DIRECTION ( 'NONE',  ( 0.0000000000000000000, 0.0000000000000000000, 1.000000000000000000 ) ) ;
#251 = DIRECTION ( 'NONE',  ( 0.0000000000000000000, 0.0000000000000000000, -1.000000000000000000 ) ) ;
#252 = ADVANCED_FACE ( 'NONE', ( #367 ), #229, .T. ) ;
#253 = CARTESIAN_POINT ( 'NONE',  ( 0.0000000000000000000, 0.5000000000000014400, -1.000000000000000000 ) ) ;
#254 = ADVANCED_FACE ( 'NONE', ( #353 ), #274, .T. ) ;
#255 = EDGE_LOOP ( 'NONE', ( #153, #188, #239, #161 ) ) ;
#256 = EDGE_CURVE ( 'NONE', #207, #49, #235, .T. ) ;
#257 = DIRECTION ( 'NONE',  ( -0.0000000000000000000, -1.000000000000000000, -0.0000000000000000000 ) ) ;
#258 =( NAMED_UNIT ( * ) SI_UNIT ( $, .STERADIAN. ) SOLID_ANGLE_UNIT ( ) );
#259 = DIRECTION ( 'NONE',  ( 0.0000000000000000000, 0.0000000000000000000, -1.000000000000000000 ) ) ;
#260 = VECTOR ( 'NONE', #88, 1000.000000000000000 ) ;
#261 = ORIENTED_EDGE ( 'NONE', *, *, #100, .F. ) ;
#262 = CARTESIAN_POINT ( 'NONE',  ( 0.0000000000000000000, 7.000000000000000000, -2.350000000000000100 ) ) ;
#263 = EDGE_LOOP ( 'NONE', ( #218, #169, #155, #323 ) ) ;
#264 = EDGE_CURVE ( 'NONE', #136, #194, #177, .T. ) ;
#265 = FACE_OUTER_BOUND ( 'NONE', #245, .T. ) ;
#266 = EDGE_LOOP ( 'NONE', ( #57, #351, #75, #326 ) ) ;
#267 = FACE_OUTER_BOUND ( 'NONE', #5, .T. ) ;
#268 = FACE_OUTER_BOUND ( 'NONE', #4, .T. ) ;
#269 = ORIENTED_EDGE ( 'NONE', *, *, #77, .F. ) ;
#270 = EDGE_CURVE ( 'NONE', #194, #78, #244, .T. ) ;
#271 = DIRECTION ( 'NONE',  ( 0.0000000000000000000, 0.0000000000000000000, -1.000000000000000000 ) ) ;
#272 = AXIS2_PLACEMENT_3D ( 'NONE', #29, #2, #122 ) ;
#273 = COLOUR_RGB ( '',0.7529411764705882200, 0.7529411764705882200, 0.7529411764705882200 ) ;
#274 = CONICAL_SURFACE ( 'NONE', #85, 0.5000000000000004400, 0.7853981633974465000 ) ;
#275 = VECTOR ( 'NONE', #135, 999.9999999999998900 ) ;
#276 = VERTEX_POINT ( 'NONE', #21 ) ;
#277 = CARTESIAN_POINT ( 'NONE',  ( 0.0000000000000000000, 13.99999999999999800, 0.0000000000000000000 ) ) ;
#278 = FACE_OUTER_BOUND ( 'NONE', #138, .T. ) ;
#279 = PRODUCT_DEFINITION_SHAPE ( 'NONE', 'NONE',  #129 ) ;
#280 = VERTEX_POINT ( 'NONE', #168 ) ;
#281 = DIRECTION ( 'NONE',  ( -0.0000000000000000000, -1.000000000000000000, -0.0000000000000000000 ) ) ;
#282 = AXIS2_PLACEMENT_3D ( 'NONE', #64, #98, #127 ) ;
#283 = CARTESIAN_POINT ( 'NONE',  ( 2.064812294973852200E-016, 13.99999999999999800, -1.426239569296599500 ) ) ;
#284 = CARTESIAN_POINT ( 'NONE',  ( 1.224646799147353200E-016, 0.0000000000000000000, 1.000000000000000000 ) ) ;
#285 = SURFACE_SIDE_STYLE ('',( #34 ) ) ;
#286 = UNCERTAINTY_MEASURE_WITH_UNIT (LENGTH_MEASURE( 1.000000000000000100E-005 ), #243, 'distance_accuracy_value', 'NONE');
#287 = ADVANCED_FACE ( 'NONE', ( #265 ), #8, .T. ) ;
#288 = FACE_OUTER_BOUND ( 'NONE', #20, .T. ) ;
#289 = ORIENTED_EDGE ( 'NONE', *, *, #231, .T. ) ;
#290 = DIRECTION ( 'NONE',  ( 0.0000000000000000000, 0.0000000000000000000, 1.000000000000000000 ) ) ;
#291 = CARTESIAN_POINT ( 'NONE',  ( 0.0000000000000000000, 13.39999999999999900, 1.426239569296599500 ) ) ;
#292 = STYLED_ITEM ( 'NONE', ( #55 ), #299 ) ;
#293 = LINE ( 'NONE', #175, #321 ) ;
#294 = ORIENTED_EDGE ( 'NONE', *, *, #361, .T. ) ;
#295 = AXIS2_PLACEMENT_3D ( 'NONE', #30, #324, #24 ) ;
#296 = CIRCLE ( 'NONE', #358, 0.6000000000000000900 ) ;
#297 = ORIENTED_EDGE ( 'NONE', *, *, #52, .F. ) ;
#298 = ORIENTED_EDGE ( 'NONE', *, *, #270, .T. ) ;
#299 = ADVANCED_BREP_SHAPE_REPRESENTATION ( '42748~0', ( #183, #282 ), #46 ) ;
#300 = FACE_OUTER_BOUND ( 'NONE', #12, .T. ) ;
#301 = PRODUCT ( '42748~0', '42748~0', '', ( #95 ) ) ;
#302 = CARTESIAN_POINT ( 'NONE',  ( 0.0000000000000000000, 13.00000000000000200, 0.0000000000000000000 ) ) ;
#303 = PRESENTATION_LAYER_ASSIGNMENT (  '', '', ( #228 ) ) ;
#304 = DIRECTION ( 'NONE',  ( 0.0000000000000000000, 0.0000000000000000000, -1.000000000000000000 ) ) ;
#305 = LINE ( 'NONE', #56, #260 ) ;
#306 = VERTEX_POINT ( 'NONE', #366 ) ;
#307 = EDGE_CURVE ( 'NONE', #315, #211, #63, .T. ) ;
#308 = PRODUCT_DEFINITION_CONTEXT ( 'detailed design', #322, 'design' ) ;
#309 = CARTESIAN_POINT ( 'NONE',  ( 0.0000000000000000000, 6.999999999999999100, 0.0000000000000000000 ) ) ;
#310 = ADVANCED_FACE ( 'NONE', ( #40 ), #159, .T. ) ;
#311 = CARTESIAN_POINT ( 'NONE',  ( 0.0000000000000000000, 0.0000000000000000000, 0.0000000000000000000 ) ) ;
#312 = DIRECTION ( 'NONE',  ( 6.123233995736782100E-017, -0.8660254037844380400, 0.5000000000000012200 ) ) ;
#313 = VECTOR ( 'NONE', #312, 999.9999999999998900 ) ;
#314 = CIRCLE ( 'NONE', #357, 1.000000000000000000 ) ;
#315 = VERTEX_POINT ( 'NONE', #283 ) ;
#316 =( GEOMETRIC_REPRESENTATION_CONTEXT ( 3 ) GLOBAL_UNCERTAINTY_ASSIGNED_CONTEXT ( ( #352 ) ) GLOBAL_UNIT_ASSIGNED_CONTEXT ( ( #96, #232, #258 ) ) REPRESENTATION_CONTEXT ( 'NONE', 'WORKASPACE' ) );
#317 = CARTESIAN_POINT ( 'NONE',  ( 0.0000000000000000000, 0.0000000000000000000, 0.0000000000000000000 ) ) ;
#318 = ADVANCED_FACE ( 'NONE', ( #3, #187 ), #84, .T. ) ;
#319 = CARTESIAN_POINT ( 'NONE',  ( 0.0000000000000000000, 0.0000000000000000000, 0.0000000000000000000 ) ) ;
#320 = CARTESIAN_POINT ( 'NONE',  ( 0.0000000000000000000, 13.39999999999999900, 0.0000000000000000000 ) ) ;
#321 = VECTOR ( 'NONE', #372, 1000.000000000000000 ) ;
#322 = APPLICATION_CONTEXT ( 'automotive_design' ) ;
#323 = ORIENTED_EDGE ( 'NONE', *, *, #264, .F. ) ;
#324 = DIRECTION ( 'NONE',  ( -0.0000000000000000000, -1.000000000000000000, -0.0000000000000000000 ) ) ;
#325 = DIRECTION ( 'NONE',  ( -1.000000000000000000, 0.0000000000000000000, 0.0000000000000000000 ) ) ;
#326 = ORIENTED_EDGE ( 'NONE', *, *, #307, .F. ) ;
#327 = COLOUR_RGB ( '',0.7529411764705882200, 0.7529411764705882200, 0.7529411764705882200 ) ;
#328 = ORIENTED_EDGE ( 'NONE', *, *, #171, .F. ) ;
#329 = DIRECTION ( 'NONE',  ( 0.0000000000000000000, 0.0000000000000000000, -1.000000000000000000 ) ) ;
#330 = VECTOR ( 'NONE', #369, 1000.000000000000000 ) ;
#331 = CLOSED_SHELL ( 'NONE', ( #27, #200, #53, #287, #124, #252, #364, #123, #318, #344, #145, #254, #310 ) ) ;
#332 = AXIS2_PLACEMENT_3D ( 'NONE', #193, #42, #242 ) ;
#333 = DIRECTION ( 'NONE',  ( 0.0000000000000000000, -1.000000000000000000, -0.0000000000000000000 ) ) ;
#334 = ORIENTED_EDGE ( 'NONE', *, *, #212, .T. ) ;
#335 = ORIENTED_EDGE ( 'NONE', *, *, #225, .T. ) ;
#336 = AXIS2_PLACEMENT_3D ( 'NONE', #320, #167, #17 ) ;
#337 = DIRECTION ( 'NONE',  ( -0.0000000000000000000, -1.000000000000000000, -0.0000000000000000000 ) ) ;
#338 = ORIENTED_EDGE ( 'NONE', *, *, #371, .T. ) ;
#339 = DIRECTION ( 'NONE',  ( 0.0000000000000000000, 1.000000000000000000, 0.0000000000000000000 ) ) ;
#340 = EDGE_CURVE ( 'NONE', #211, #315, #70, .T. ) ;
#341 = DIRECTION ( 'NONE',  ( 0.0000000000000000000, 0.0000000000000000000, -1.000000000000000000 ) ) ;
#342 = DIRECTION ( 'NONE',  ( 0.0000000000000000000, 1.000000000000000000, 0.0000000000000000000 ) ) ;
#343 = CONICAL_SURFACE ( 'NONE', #76, 2.350000000000000100, 0.5235987755983002600 ) ;
#344 = ADVANCED_FACE ( 'NONE', ( #278 ), #104, .T. ) ;
#345 = DIRECTION ( 'NONE',  ( -0.0000000000000000000, -1.000000000000000000, -0.0000000000000000000 ) ) ;
#346 =( LENGTH_UNIT ( ) NAMED_UNIT ( * ) SI_UNIT ( .MILLI., .METRE. ) );
#347 = APPLICATION_CONTEXT ( 'automotive_design' ) ;
#348 = ORIENTED_EDGE ( 'NONE', *, *, #212, .F. ) ;
#349 = AXIS2_PLACEMENT_3D ( 'NONE', #233, #147, #68 ) ;
#350 = CIRCLE ( 'NONE', #365, 1.945854811567261600 ) ;
#351 = ORIENTED_EDGE ( 'NONE', *, *, #190, .F. ) ;
#352 = UNCERTAINTY_MEASURE_WITH_UNIT (LENGTH_MEASURE( 1.000000000000000100E-005 ), #96, 'distance_accuracy_value', 'NONE');
#353 = FACE_OUTER_BOUND ( 'NONE', #132, .T. ) ;
#354 = LINE ( 'NONE', #82, #275 ) ;
#355 = DIRECTION ( 'NONE',  ( 0.0000000000000000000, 0.0000000000000000000, 1.000000000000000000 ) ) ;
#356 = VERTEX_POINT ( 'NONE', #230 ) ;
#357 = AXIS2_PLACEMENT_3D ( 'NONE', #59, #342, #259 ) ;
#358 = AXIS2_PLACEMENT_3D ( 'NONE', #199, #50, #172 ) ;
#359 = PRESENTATION_STYLE_ASSIGNMENT (( #191 ) ) ;
#360 = EDGE_LOOP ( 'NONE', ( #334, #99 ) ) ;
#361 = EDGE_CURVE ( 'NONE', #226, #356, #293, .T. ) ;
#362 = CARTESIAN_POINT ( 'NONE',  ( 2.877919977996279800E-016, 13.00000000000000200, 2.350000000000000100 ) ) ;
#363 = CARTESIAN_POINT ( 'NONE',  ( 1.772649730810373000, 13.99999999999999800, 0.0000000000000000000 ) ) ;
#364 = ADVANCED_FACE ( 'NONE', ( #238 ), #176, .T. ) ;
#365 = AXIS2_PLACEMENT_3D ( 'NONE', #213, #220, #110 ) ;
#366 = CARTESIAN_POINT ( 'NONE',  ( 1.224646799147353200E-016, 6.999999999999999100, 1.000000000000000000 ) ) ;
#367 = FACE_OUTER_BOUND ( 'NONE', #160, .T. ) ;
#368 = VECTOR ( 'NONE', #65, 999.9999999999998900 ) ;
#369 = DIRECTION ( 'NONE',  ( -0.0000000000000000000, -1.000000000000000000, -0.0000000000000000000 ) ) ;
#370 = DIRECTION ( 'NONE',  ( 0.0000000000000000000, 0.0000000000000000000, -1.000000000000000000 ) ) ;
#371 = EDGE_CURVE ( 'NONE', #208, #89, #114, .T. ) ;
#372 = DIRECTION ( 'NONE',  ( -0.0000000000000000000, -1.000000000000000000, -0.0000000000000000000 ) ) ;
ENDSEC;
END-ISO-10303-21;
