ISO-10303-21;
HEADER;
FILE_DESCRIPTION (( 'STEP AP214' ),
    '1' );
FILE_NAME ('42747~0.STEP',
    '2017-07-04T09:09:33',
    ( '' ),
    ( '' ),
    'SwSTEP 2.0',
    'SolidWorks 2016',
    '' );
FILE_SCHEMA (( 'AUTOMOTIVE_DESIGN' ));
ENDSEC;

DATA;
#1 = ORIENTED_EDGE ( 'NONE', *, *, #97, .F. ) ;
#2 = AXIS2_PLACEMENT_3D ( 'NONE', #252, #85, #89 ) ;
#3 = VERTEX_POINT ( 'NONE', #150 ) ;
#4 = DIRECTION ( 'NONE',  ( 0.0000000000000000000, -0.8660254037844380400, -0.5000000000000012200 ) ) ;
#5 = DIRECTION ( 'NONE',  ( -1.000000000000000000, 0.0000000000000000000, 0.0000000000000000000 ) ) ;
#6 = EDGE_CURVE ( 'NONE', #257, #165, #122, .T. ) ;
#7 = APPLICATION_PROTOCOL_DEFINITION ( 'draft international standard', 'automotive_design', 1998, #346 ) ;
#8 = ORIENTED_EDGE ( 'NONE', *, *, #355, .T. ) ;
#9 = SHAPE_DEFINITION_REPRESENTATION ( #321, #230 ) ;
#10 = ORIENTED_EDGE ( 'NONE', *, *, #239, .F. ) ;
#11 = ADVANCED_FACE ( 'NONE', ( #109 ), #107, .T. ) ;
#12 = AXIS2_PLACEMENT_3D ( 'NONE', #226, #369, #192 ) ;
#13 = DIRECTION ( 'NONE',  ( -0.0000000000000000000, -1.000000000000000000, -0.0000000000000000000 ) ) ;
#14 = VECTOR ( 'NONE', #240, 1000.000000000000000 ) ;
#15 = DIRECTION ( 'NONE',  ( -0.0000000000000000000, -1.000000000000000000, -0.0000000000000000000 ) ) ;
#16 = PRODUCT_RELATED_PRODUCT_CATEGORY ( 'part', '', ( #73 ) ) ;
#17 = ORIENTED_EDGE ( 'NONE', *, *, #118, .T. ) ;
#18 = ORIENTED_EDGE ( 'NONE', *, *, #291, .F. ) ;
#19 = DIRECTION ( 'NONE',  ( -0.0000000000000000000, -1.000000000000000000, -0.0000000000000000000 ) ) ;
#20 = AXIS2_PLACEMENT_3D ( 'NONE', #129, #184, #325 ) ;
#21 = CARTESIAN_POINT ( 'NONE',  ( 0.0000000000000000000, 13.00000000000000200, 0.0000000000000000000 ) ) ;
#22 = VECTOR ( 'NONE', #255, 1000.000000000000000 ) ;
#23 = CARTESIAN_POINT ( 'NONE',  ( 0.0000000000000000000, 13.39999999999999900, 0.0000000000000000000 ) ) ;
#24 = DIRECTION ( 'NONE',  ( 0.0000000000000000000, 0.0000000000000000000, -1.000000000000000000 ) ) ;
#25 = ORIENTED_EDGE ( 'NONE', *, *, #102, .F. ) ;
#26 = ORIENTED_EDGE ( 'NONE', *, *, #245, .T. ) ;
#27 = CARTESIAN_POINT ( 'NONE',  ( 2.816687638038912100E-016, 13.00000000000000200, 2.299999999999999800 ) ) ;
#28 = DIRECTION ( 'NONE',  ( -0.0000000000000000000, -1.000000000000000000, -0.0000000000000000000 ) ) ;
#29 = CARTESIAN_POINT ( 'NONE',  ( 0.0000000000000000000, 13.99999999999999800, 0.0000000000000000000 ) ) ;
#30 = AXIS2_PLACEMENT_3D ( 'NONE', #21, #134, #44 ) ;
#31 = FACE_OUTER_BOUND ( 'NONE', #349, .T. ) ;
#32 =( NAMED_UNIT ( * ) PLANE_ANGLE_UNIT ( ) SI_UNIT ( $, .RADIAN. ) );
#33 = DIRECTION ( 'NONE',  ( 0.0000000000000000000, 0.0000000000000000000, 1.000000000000000000 ) ) ;
#34 = TOROIDAL_SURFACE ( 'NONE', #175, 1.376239569296599400, 0.5999999999999999800 ) ;
#35 = FACE_BOUND ( 'NONE', #98, .T. ) ;
#36 = ORIENTED_EDGE ( 'NONE', *, *, #288, .F. ) ;
#37 = LINE ( 'NONE', #366, #14 ) ;
#38 = ADVANCED_FACE ( 'NONE', ( #42 ), #278, .T. ) ;
#39 = CARTESIAN_POINT ( 'NONE',  ( 1.224646799147353200E-016, 0.5000000000000030000, 1.000000000000000000 ) ) ;
#40 = DIRECTION ( 'NONE',  ( 0.0000000000000000000, -1.000000000000000000, -0.0000000000000000000 ) ) ;
#41 = CIRCLE ( 'NONE', #287, 2.299999999999999800 ) ;
#42 = FACE_OUTER_BOUND ( 'NONE', #237, .T. ) ;
#43 = CARTESIAN_POINT ( 'NONE',  ( 1.000000000000000000, 6.999999999999999100, 0.0000000000000000000 ) ) ;
#44 = DIRECTION ( 'NONE',  ( 0.0000000000000000000, 0.0000000000000000000, -1.000000000000000000 ) ) ;
#45 = VECTOR ( 'NONE', #4, 999.9999999999998900 ) ;
#46 = DIRECTION ( 'NONE',  ( 0.0000000000000000000, 0.0000000000000000000, 1.000000000000000000 ) ) ;
#47 = DIRECTION ( 'NONE',  ( 0.0000000000000000000, 0.0000000000000000000, -1.000000000000000000 ) ) ;
#48 = UNCERTAINTY_MEASURE_WITH_UNIT (LENGTH_MEASURE( 1.000000000000000100E-005 ), #261, 'distance_accuracy_value', 'NONE');
#49 = SURFACE_SIDE_STYLE ('',( #57 ) ) ;
#50 = PRESENTATION_STYLE_ASSIGNMENT (( #247 ) ) ;
#51 = VERTEX_POINT ( 'NONE', #361 ) ;
#52 = FILL_AREA_STYLE_COLOUR ( '', #68 ) ;
#53 = DIRECTION ( 'NONE',  ( 0.0000000000000000000, 0.0000000000000000000, -1.000000000000000000 ) ) ;
#54 = DIRECTION ( 'NONE',  ( 6.123233995736782100E-017, -0.8660254037844380400, 0.5000000000000012200 ) ) ;
#55 = CARTESIAN_POINT ( 'NONE',  ( 0.0000000000000000000, 13.39999999999999900, 1.376239569296599400 ) ) ;
#56 = CARTESIAN_POINT ( 'NONE',  ( 0.0000000000000000000, 0.0000000000000000000, 0.0000000000000000000 ) ) ;
#57 = SURFACE_STYLE_FILL_AREA ( #117 ) ;
#58 = DIRECTION ( 'NONE',  ( 0.0000000000000000000, 0.0000000000000000000, -1.000000000000000000 ) ) ;
#59 = FILL_AREA_STYLE ('',( #282 ) ) ;
#60 = DIRECTION ( 'NONE',  ( 1.000000000000000000, 0.0000000000000000000, 0.0000000000000000000 ) ) ;
#61 = ORIENTED_EDGE ( 'NONE', *, *, #350, .F. ) ;
#62 = CONICAL_SURFACE ( 'NONE', #30, 2.299999999999999800, 0.5235987755983002600 ) ;
#63 = SURFACE_STYLE_USAGE ( .BOTH. , #347 ) ;
#64 = ORIENTED_EDGE ( 'NONE', *, *, #284, .F. ) ;
#65 = MECHANICAL_DESIGN_GEOMETRIC_PRESENTATION_REPRESENTATION (  '', ( #227 ), #331 ) ;
#66 = ORIENTED_EDGE ( 'NONE', *, *, #317, .F. ) ;
#67 = EDGE_CURVE ( 'NONE', #103, #257, #329, .T. ) ;
#68 = COLOUR_RGB ( '',0.7529411764705882200, 0.7529411764705882200, 0.7529411764705882200 ) ;
#69 = ADVANCED_FACE ( 'NONE', ( #262, #35 ), #209, .T. ) ;
#70 = SURFACE_STYLE_FILL_AREA ( #59 ) ;
#71 = VERTEX_POINT ( 'NONE', #39 ) ;
#72 = FACE_OUTER_BOUND ( 'NONE', #146, .T. ) ;
#73 = PRODUCT ( '42747~0', '42747~0', '', ( #229 ) ) ;
#74 = AXIS2_PLACEMENT_3D ( 'NONE', #335, #271, #188 ) ;
#75 = ADVANCED_FACE ( 'NONE', ( #115 ), #113, .T. ) ;
#76 = ORIENTED_EDGE ( 'NONE', *, *, #177, .T. ) ;
#77 = CARTESIAN_POINT ( 'NONE',  ( 6.123233995736727800E-017, 0.0000000000000000000, -0.4999999999999970000 ) ) ;
#78 = ORIENTED_EDGE ( 'NONE', *, *, #284, .T. ) ;
#79 = AXIS2_PLACEMENT_3D ( 'NONE', #221, #86, #248 ) ;
#80 = CARTESIAN_POINT ( 'NONE',  ( 0.0000000000000000000, 0.0000000000000000000, -2.299999999999999800 ) ) ;
#81 = DIRECTION ( 'NONE',  ( -0.0000000000000000000, -1.000000000000000000, -0.0000000000000000000 ) ) ;
#82 = VECTOR ( 'NONE', #330, 1000.000000000000100 ) ;
#83 = CARTESIAN_POINT ( 'NONE',  ( 0.0000000000000000000, 13.69999999999999900, -1.895854811567260900 ) ) ;
#84 =( LENGTH_UNIT ( ) NAMED_UNIT ( * ) SI_UNIT ( .MILLI., .METRE. ) );
#85 = DIRECTION ( 'NONE',  ( 0.0000000000000000000, 1.000000000000000000, 0.0000000000000000000 ) ) ;
#86 = DIRECTION ( 'NONE',  ( -0.0000000000000000000, -1.000000000000000000, -0.0000000000000000000 ) ) ;
#87 =( GEOMETRIC_REPRESENTATION_CONTEXT ( 3 ) GLOBAL_UNCERTAINTY_ASSIGNED_CONTEXT ( ( #48 ) ) GLOBAL_UNIT_ASSIGNED_CONTEXT ( ( #261, #32, #145 ) ) REPRESENTATION_CONTEXT ( 'NONE', 'WORKASPACE' ) );
#88 = DIRECTION ( 'NONE',  ( 0.0000000000000000000, 1.000000000000000000, 0.0000000000000000000 ) ) ;
#89 = DIRECTION ( 'NONE',  ( 0.0000000000000000000, 0.0000000000000000000, -1.000000000000000000 ) ) ;
#90 = VERTEX_POINT ( 'NONE', #190 ) ;
#91 = VERTEX_POINT ( 'NONE', #334 ) ;
#92 = EDGE_CURVE ( 'NONE', #269, #3, #268, .T. ) ;
#93 = CARTESIAN_POINT ( 'NONE',  ( 0.0000000000000000000, 13.00000000000000200, -2.299999999999999800 ) ) ;
#94 =( NAMED_UNIT ( * ) SI_UNIT ( $, .STERADIAN. ) SOLID_ANGLE_UNIT ( ) );
#95 = CIRCLE ( 'NONE', #305, 1.000000000000000000 ) ;
#96 = AXIS2_PLACEMENT_3D ( 'NONE', #55, #5, #343 ) ;
#97 = EDGE_CURVE ( 'NONE', #90, #71, #37, .T. ) ;
#98 = EDGE_LOOP ( 'NONE', ( #250, #289 ) ) ;
#99 = FACE_OUTER_BOUND ( 'NONE', #360, .T. ) ;
#100 = ORIENTED_EDGE ( 'NONE', *, *, #111, .T. ) ;
#101 = ADVANCED_FACE ( 'NONE', ( #339 ), #332, .T. ) ;
#102 = EDGE_CURVE ( 'NONE', #231, #174, #187, .T. ) ;
#103 = VERTEX_POINT ( 'NONE', #306 ) ;
#104 = CIRCLE ( 'NONE', #272, 2.299999999999999800 ) ;
#105 = ADVANCED_FACE ( 'NONE', ( #72 ), #199, .T. ) ;
#106 = DIRECTION ( 'NONE',  ( 0.0000000000000000000, 1.000000000000000000, 0.0000000000000000000 ) ) ;
#107 = TOROIDAL_SURFACE ( 'NONE', #241, 1.376239569296599400, 0.5999999999999999800 ) ;
#108 = AXIS2_PLACEMENT_3D ( 'NONE', #121, #372, #311 ) ;
#109 = FACE_OUTER_BOUND ( 'NONE', #327, .T. ) ;
#110 = DIRECTION ( 'NONE',  ( -0.0000000000000000000, -1.000000000000000000, -0.0000000000000000000 ) ) ;
#111 = EDGE_CURVE ( 'NONE', #3, #51, #104, .T. ) ;
#112 = DIRECTION ( 'NONE',  ( 0.0000000000000000000, 0.0000000000000000000, -1.000000000000000000 ) ) ;
#113 = CONICAL_SURFACE ( 'NONE', #264, 0.4999999999999970000, 0.7853981633974482800 ) ;
#114 = CARTESIAN_POINT ( 'NONE',  ( 0.0000000000000000000, 0.0000000000000000000, 0.4999999999999970000 ) ) ;
#115 = FACE_OUTER_BOUND ( 'NONE', #238, .T. ) ;
#116 = ORIENTED_EDGE ( 'NONE', *, *, #309, .T. ) ;
#117 = FILL_AREA_STYLE ('',( #52 ) ) ;
#118 = EDGE_CURVE ( 'NONE', #174, #91, #308, .T. ) ;
#119 = DIRECTION ( 'NONE',  ( 0.0000000000000000000, 1.000000000000000000, 0.0000000000000000000 ) ) ;
#120 = AXIS2_PLACEMENT_3D ( 'NONE', #246, #135, #136 ) ;
#121 = CARTESIAN_POINT ( 'NONE',  ( 0.0000000000000000000, 13.69999999999999900, 0.0000000000000000000 ) ) ;
#122 = CIRCLE ( 'NONE', #20, 0.5999999999999998700 ) ;
#123 = VERTEX_POINT ( 'NONE', #130 ) ;
#124 = AXIS2_PLACEMENT_3D ( 'NONE', #29, #119, #168 ) ;
#125 = ADVANCED_FACE ( 'NONE', ( #228 ), #203, .T. ) ;
#126 = ADVANCED_FACE ( 'NONE', ( #31 ), #235, .T. ) ;
#127 = CIRCLE ( 'NONE', #152, 1.000000000000000000 ) ;
#128 = ORIENTED_EDGE ( 'NONE', *, *, #291, .T. ) ;
#129 = CARTESIAN_POINT ( 'NONE',  ( 1.685407383399012500E-016, 13.39999999999999900, -1.376239569296599400 ) ) ;
#130 = CARTESIAN_POINT ( 'NONE',  ( 0.0000000000000000000, 6.999999999999999100, -1.000000000000000000 ) ) ;
#131 = DIRECTION ( 'NONE',  ( 0.0000000000000000000, 0.0000000000000000000, -1.000000000000000000 ) ) ;
#132 = AXIS2_PLACEMENT_3D ( 'NONE', #304, #216, #131 ) ;
#133 = CIRCLE ( 'NONE', #258, 2.299999999999999800 ) ;
#134 = DIRECTION ( 'NONE',  ( -0.0000000000000000000, -1.000000000000000000, -0.0000000000000000000 ) ) ;
#135 = DIRECTION ( 'NONE',  ( -0.0000000000000000000, -1.000000000000000000, -0.0000000000000000000 ) ) ;
#136 = DIRECTION ( 'NONE',  ( 0.0000000000000000000, 0.0000000000000000000, -1.000000000000000000 ) ) ;
#137 =( LENGTH_UNIT ( ) NAMED_UNIT ( * ) SI_UNIT ( .MILLI., .METRE. ) );
#138 = CIRCLE ( 'NONE', #124, 1.376239569296599400 ) ;
#139 = ORIENTED_EDGE ( 'NONE', *, *, #6, .T. ) ;
#140 = CARTESIAN_POINT ( 'NONE',  ( 0.0000000000000000000, 0.5000000000000030000, 0.0000000000000000000 ) ) ;
#141 = CARTESIAN_POINT ( 'NONE',  ( 0.0000000000000000000, 6.999999999999999100, 0.0000000000000000000 ) ) ;
#142 = CARTESIAN_POINT ( 'NONE',  ( 0.0000000000000000000, 13.00000000000000200, -2.299999999999999800 ) ) ;
#143 = ORIENTED_EDGE ( 'NONE', *, *, #67, .F. ) ;
#144 = VECTOR ( 'NONE', #276, 1000.000000000000100 ) ;
#145 =( NAMED_UNIT ( * ) SI_UNIT ( $, .STERADIAN. ) SOLID_ANGLE_UNIT ( ) );
#146 = EDGE_LOOP ( 'NONE', ( #26, #300, #333, #167 ) ) ;
#147 = EDGE_LOOP ( 'NONE', ( #1, #116, #181, #202 ) ) ;
#148 = ORIENTED_EDGE ( 'NONE', *, *, #267, .T. ) ;
#149 = AXIS2_PLACEMENT_3D ( 'NONE', #357, #15, #206 ) ;
#150 = CARTESIAN_POINT ( 'NONE',  ( 2.816687638038912100E-016, 7.000000000000000000, 2.299999999999999800 ) ) ;
#151 = CIRCLE ( 'NONE', #2, 1.000000000000000000 ) ;
#152 = AXIS2_PLACEMENT_3D ( 'NONE', #141, #368, #370 ) ;
#153 = ORIENTED_EDGE ( 'NONE', *, *, #118, .F. ) ;
#154 = COLOUR_RGB ( '',0.7529411764705882200, 0.7529411764705882200, 0.7529411764705882200 ) ;
#155 = ORIENTED_EDGE ( 'NONE', *, *, #256, .F. ) ;
#156 = DIRECTION ( 'NONE',  ( 0.0000000000000000000, 0.0000000000000000000, -1.000000000000000000 ) ) ;
#157 = EDGE_CURVE ( 'NONE', #338, #269, #133, .T. ) ;
#158 = EDGE_LOOP ( 'NONE', ( #78, #148, #363, #207 ) ) ;
#159 = CIRCLE ( 'NONE', #186, 1.000000000000000000 ) ;
#160 = CARTESIAN_POINT ( 'NONE',  ( 0.0000000000000000000, 0.0000000000000000000, 0.0000000000000000000 ) ) ;
#161 = DIRECTION ( 'NONE',  ( 0.0000000000000000000, 0.0000000000000000000, 1.000000000000000000 ) ) ;
#162 = AXIS2_PLACEMENT_3D ( 'NONE', #214, #211, #112 ) ;
#163 = DIRECTION ( 'NONE',  ( 0.0000000000000000000, 0.0000000000000000000, -1.000000000000000000 ) ) ;
#164 = UNCERTAINTY_MEASURE_WITH_UNIT (LENGTH_MEASURE( 1.000000000000000100E-005 ), #84, 'distance_accuracy_value', 'NONE');
#165 = VERTEX_POINT ( 'NONE', #303 ) ;
#166 = EDGE_CURVE ( 'NONE', #338, #51, #359, .T. ) ;
#167 = ORIENTED_EDGE ( 'NONE', *, *, #301, .F. ) ;
#168 = DIRECTION ( 'NONE',  ( 0.0000000000000000000, 0.0000000000000000000, 1.000000000000000000 ) ) ;
#169 = DIRECTION ( 'NONE',  ( 0.0000000000000000000, 1.000000000000000000, 0.0000000000000000000 ) ) ;
#170 = APPLICATION_CONTEXT ( 'automotive_design' ) ;
#171 = ORIENTED_EDGE ( 'NONE', *, *, #295, .F. ) ;
#172 = FACE_OUTER_BOUND ( 'NONE', #158, .T. ) ;
#173 = ORIENTED_EDGE ( 'NONE', *, *, #157, .T. ) ;
#174 = VERTEX_POINT ( 'NONE', #185 ) ;
#175 = AXIS2_PLACEMENT_3D ( 'NONE', #23, #169, #220 ) ;
#176 = ADVANCED_FACE ( 'NONE', ( #265 ), #62, .T. ) ;
#177 = EDGE_CURVE ( 'NONE', #225, #165, #218, .T. ) ;
#178 = CIRCLE ( 'NONE', #108, 1.895854811567260900 ) ;
#179 = CARTESIAN_POINT ( 'NONE',  ( 0.0000000000000000000, 0.0000000000000000000, 0.0000000000000000000 ) ) ;
#180 = STYLED_ITEM ( 'NONE', ( #232 ), #230 ) ;
#181 = ORIENTED_EDGE ( 'NONE', *, *, #301, .T. ) ;
#182 = LINE ( 'NONE', #93, #45 ) ;
#183 = ORIENTED_EDGE ( 'NONE', *, *, #355, .F. ) ;
#184 = DIRECTION ( 'NONE',  ( 1.000000000000000000, -0.0000000000000000000, 1.224646799147353200E-016 ) ) ;
#185 = CARTESIAN_POINT ( 'NONE',  ( 9.184850993605129900E-017, 0.0000000000000000000, -0.4999999999999970000 ) ) ;
#186 = AXIS2_PLACEMENT_3D ( 'NONE', #140, #223, #316 ) ;
#187 = CIRCLE ( 'NONE', #292, 0.4999999999999970000 ) ;
#188 = DIRECTION ( 'NONE',  ( 0.0000000000000000000, -0.0000000000000000000, 1.000000000000000000 ) ) ;
#189 = PRODUCT_DEFINITION_CONTEXT ( 'detailed design', #170, 'design' ) ;
#190 = CARTESIAN_POINT ( 'NONE',  ( 1.224646799147353200E-016, 6.999999999999999100, 1.000000000000000000 ) ) ;
#191 = CARTESIAN_POINT ( 'NONE',  ( 0.0000000000000000000, 13.99999999999999800, 0.0000000000000000000 ) ) ;
#192 = DIRECTION ( 'NONE',  ( 0.0000000000000000000, 0.0000000000000000000, -1.000000000000000000 ) ) ;
#193 = CONICAL_SURFACE ( 'NONE', #79, 2.299999999999999800, 0.5235987755983002600 ) ;
#194 = EDGE_LOOP ( 'NONE', ( #234, #243, #312, #18 ) ) ;
#195 =( NAMED_UNIT ( * ) PLANE_ANGLE_UNIT ( ) SI_UNIT ( $, .RADIAN. ) );
#196 = UNCERTAINTY_MEASURE_WITH_UNIT (LENGTH_MEASURE( 1.000000000000000100E-005 ), #137, 'distance_accuracy_value', 'NONE');
#197 = AXIS2_PLACEMENT_3D ( 'NONE', #56, #33, #60 ) ;
#198 = CARTESIAN_POINT ( 'NONE',  ( 0.0000000000000000000, 6.999999999999999100, 0.0000000000000000000 ) ) ;
#199 = CYLINDRICAL_SURFACE ( 'NONE', #120, 1.000000000000000000 ) ;
#200 = AXIS2_PLACEMENT_3D ( 'NONE', #266, #13, #297 ) ;
#201 = ORIENTED_EDGE ( 'NONE', *, *, #317, .T. ) ;
#202 = ORIENTED_EDGE ( 'NONE', *, *, #239, .T. ) ;
#203 = CYLINDRICAL_SURFACE ( 'NONE', #162, 1.000000000000000000 ) ;
#204 =( GEOMETRIC_REPRESENTATION_CONTEXT ( 3 ) GLOBAL_UNCERTAINTY_ASSIGNED_CONTEXT ( ( #164 ) ) GLOBAL_UNIT_ASSIGNED_CONTEXT ( ( #84, #277, #94 ) ) REPRESENTATION_CONTEXT ( 'NONE', 'WORKASPACE' ) );
#205 = ADVANCED_FACE ( 'NONE', ( #213 ), #215, .T. ) ;
#206 = DIRECTION ( 'NONE',  ( 0.0000000000000000000, 0.0000000000000000000, -1.000000000000000000 ) ) ;
#207 = ORIENTED_EDGE ( 'NONE', *, *, #342, .F. ) ;
#208 = CIRCLE ( 'NONE', #96, 0.5999999999999998700 ) ;
#209 = PLANE ( 'NONE',  #236 ) ;
#210 = CARTESIAN_POINT ( 'NONE',  ( 0.0000000000000000000, 13.39999999999999900, 0.0000000000000000000 ) ) ;
#211 = DIRECTION ( 'NONE',  ( -0.0000000000000000000, -1.000000000000000000, -0.0000000000000000000 ) ) ;
#212 = EDGE_LOOP ( 'NONE', ( #217, #302 ) ) ;
#213 = FACE_OUTER_BOUND ( 'NONE', #212, .T. ) ;
#214 = CARTESIAN_POINT ( 'NONE',  ( 0.0000000000000000000, 0.0000000000000000000, 0.0000000000000000000 ) ) ;
#215 = PLANE ( 'NONE',  #315 ) ;
#216 = DIRECTION ( 'NONE',  ( -0.0000000000000000000, -1.000000000000000000, -0.0000000000000000000 ) ) ;
#217 = ORIENTED_EDGE ( 'NONE', *, *, #102, .T. ) ;
#218 = CIRCLE ( 'NONE', #326, 1.376239569296599400 ) ;
#219 = PRESENTATION_LAYER_ASSIGNMENT (  '', '', ( #180 ) ) ;
#220 = DIRECTION ( 'NONE',  ( 0.0000000000000000000, 0.0000000000000000000, 1.000000000000000000 ) ) ;
#221 = CARTESIAN_POINT ( 'NONE',  ( 0.0000000000000000000, 13.00000000000000200, 0.0000000000000000000 ) ) ;
#222 = CARTESIAN_POINT ( 'NONE',  ( 0.0000000000000000000, 0.0000000000000000000, 0.0000000000000000000 ) ) ;
#223 = DIRECTION ( 'NONE',  ( 0.0000000000000000000, 1.000000000000000000, 0.0000000000000000000 ) ) ;
#224 = ORIENTED_EDGE ( 'NONE', *, *, #295, .T. ) ;
#225 = VERTEX_POINT ( 'NONE', #365 ) ;
#226 = CARTESIAN_POINT ( 'NONE',  ( 0.0000000000000000000, 7.000000000000000000, 0.0000000000000000000 ) ) ;
#227 = STYLED_ITEM ( 'NONE', ( #50 ), #259 ) ;
#228 = FACE_OUTER_BOUND ( 'NONE', #147, .T. ) ;
#229 = PRODUCT_CONTEXT ( 'NONE', #346, 'mechanical' ) ;
#230 = ADVANCED_BREP_SHAPE_REPRESENTATION ( '42747~0', ( #259, #197 ), #204 ) ;
#231 = VERTEX_POINT ( 'NONE', #114 ) ;
#232 = PRESENTATION_STYLE_ASSIGNMENT (( #63 ) ) ;
#233 = ORIENTED_EDGE ( 'NONE', *, *, #6, .F. ) ;
#234 = ORIENTED_EDGE ( 'NONE', *, *, #267, .F. ) ;
#235 = CYLINDRICAL_SURFACE ( 'NONE', #132, 2.299999999999999800 ) ;
#236 = AXIS2_PLACEMENT_3D ( 'NONE', #43, #40, #270 ) ;
#237 = EDGE_LOOP ( 'NONE', ( #279, #128, #296, #293 ) ) ;
#238 = EDGE_LOOP ( 'NONE', ( #61, #17, #36, #155 ) ) ;
#239 = EDGE_CURVE ( 'NONE', #91, #71, #151, .T. ) ;
#240 = DIRECTION ( 'NONE',  ( -0.0000000000000000000, -1.000000000000000000, -0.0000000000000000000 ) ) ;
#241 = AXIS2_PLACEMENT_3D ( 'NONE', #210, #106, #356 ) ;
#242 = CARTESIAN_POINT ( 'NONE',  ( 0.0000000000000000000, 0.0000000000000000000, 0.0000000000000000000 ) ) ;
#243 = ORIENTED_EDGE ( 'NONE', *, *, #67, .T. ) ;
#244 = LINE ( 'NONE', #254, #22 ) ;
#245 = EDGE_CURVE ( 'NONE', #123, #90, #127, .T. ) ;
#246 = CARTESIAN_POINT ( 'NONE',  ( 0.0000000000000000000, 0.0000000000000000000, 0.0000000000000000000 ) ) ;
#247 = SURFACE_STYLE_USAGE ( .BOTH. , #49 ) ;
#248 = DIRECTION ( 'NONE',  ( 0.0000000000000000000, 0.0000000000000000000, -1.000000000000000000 ) ) ;
#249 = EDGE_LOOP ( 'NONE', ( #8, #100 ) ) ;
#250 = ORIENTED_EDGE ( 'NONE', *, *, #245, .F. ) ;
#251 = DIRECTION ( 'NONE',  ( -0.0000000000000000000, -1.000000000000000000, -0.0000000000000000000 ) ) ;
#252 = CARTESIAN_POINT ( 'NONE',  ( 0.0000000000000000000, 0.5000000000000030000, 0.0000000000000000000 ) ) ;
#253 = AXIS2_PLACEMENT_3D ( 'NONE', #222, #88, #286 ) ;
#254 = CARTESIAN_POINT ( 'NONE',  ( 0.0000000000000000000, 0.0000000000000000000, -1.000000000000000000 ) ) ;
#255 = DIRECTION ( 'NONE',  ( -0.0000000000000000000, -1.000000000000000000, -0.0000000000000000000 ) ) ;
#256 = EDGE_CURVE ( 'NONE', #231, #71, #364, .T. ) ;
#257 = VERTEX_POINT ( 'NONE', #83 ) ;
#258 = AXIS2_PLACEMENT_3D ( 'NONE', #362, #110, #273 ) ;
#259 = MANIFOLD_SOLID_BREP ( 'Verrundung1', #358 ) ;
#260 = CIRCLE ( 'NONE', #322, 0.4999999999999970000 ) ;
#261 =( LENGTH_UNIT ( ) NAMED_UNIT ( * ) SI_UNIT ( .MILLI., .METRE. ) );
#262 = FACE_OUTER_BOUND ( 'NONE', #249, .T. ) ;
#263 = ADVANCED_FACE ( 'NONE', ( #172 ), #193, .T. ) ;
#264 = AXIS2_PLACEMENT_3D ( 'NONE', #179, #323, #46 ) ;
#265 = FACE_OUTER_BOUND ( 'NONE', #194, .T. ) ;
#266 = CARTESIAN_POINT ( 'NONE',  ( 0.0000000000000000000, 13.69999999999999900, 0.0000000000000000000 ) ) ;
#267 = EDGE_CURVE ( 'NONE', #103, #269, #290, .T. ) ;
#268 = LINE ( 'NONE', #307, #294 ) ;
#269 = VERTEX_POINT ( 'NONE', #336 ) ;
#270 = DIRECTION ( 'NONE',  ( 0.0000000000000000000, 0.0000000000000000000, -1.000000000000000000 ) ) ;
#271 = DIRECTION ( 'NONE',  ( 0.0000000000000000000, 1.000000000000000000, 0.0000000000000000000 ) ) ;
#272 = AXIS2_PLACEMENT_3D ( 'NONE', #275, #19, #156 ) ;
#273 = DIRECTION ( 'NONE',  ( 0.0000000000000000000, 0.0000000000000000000, -1.000000000000000000 ) ) ;
#274 = DIRECTION ( 'NONE',  ( -0.0000000000000000000, -1.000000000000000000, -0.0000000000000000000 ) ) ;
#275 = CARTESIAN_POINT ( 'NONE',  ( 0.0000000000000000000, 7.000000000000000000, 0.0000000000000000000 ) ) ;
#276 = DIRECTION ( 'NONE',  ( 0.0000000000000000000, 0.7071067811865474600, 0.7071067811865474600 ) ) ;
#277 =( NAMED_UNIT ( * ) PLANE_ANGLE_UNIT ( ) SI_UNIT ( $, .RADIAN. ) );
#278 = CYLINDRICAL_SURFACE ( 'NONE', #149, 2.299999999999999800 ) ;
#279 = ORIENTED_EDGE ( 'NONE', *, *, #92, .F. ) ;
#280 = DIRECTION ( 'NONE',  ( 0.0000000000000000000, -1.000000000000000000, -0.0000000000000000000 ) ) ;
#281 = DIRECTION ( 'NONE',  ( -0.0000000000000000000, -1.000000000000000000, -0.0000000000000000000 ) ) ;
#282 = FILL_AREA_STYLE_COLOUR ( '', #154 ) ;
#283 = CARTESIAN_POINT ( 'NONE',  ( 0.0000000000000000000, 0.0000000000000000000, 0.4999999999999970000 ) ) ;
#284 = EDGE_CURVE ( 'NONE', #257, #103, #178, .T. ) ;
#285 = EDGE_LOOP ( 'NONE', ( #64, #139, #319, #171 ) ) ;
#286 = DIRECTION ( 'NONE',  ( 0.0000000000000000000, 0.0000000000000000000, 1.000000000000000000 ) ) ;
#287 = AXIS2_PLACEMENT_3D ( 'NONE', #341, #281, #53 ) ;
#288 = EDGE_CURVE ( 'NONE', #71, #91, #159, .T. ) ;
#289 = ORIENTED_EDGE ( 'NONE', *, *, #309, .F. ) ;
#290 = LINE ( 'NONE', #27, #354 ) ;
#291 = EDGE_CURVE ( 'NONE', #269, #338, #41, .T. ) ;
#292 = AXIS2_PLACEMENT_3D ( 'NONE', #160, #81, #47 ) ;
#293 = ORIENTED_EDGE ( 'NONE', *, *, #111, .F. ) ;
#294 = VECTOR ( 'NONE', #299, 1000.000000000000000 ) ;
#295 = EDGE_CURVE ( 'NONE', #103, #225, #208, .T. ) ;
#296 = ORIENTED_EDGE ( 'NONE', *, *, #166, .T. ) ;
#297 = DIRECTION ( 'NONE',  ( 0.0000000000000000000, 0.0000000000000000000, 1.000000000000000000 ) ) ;
#298 = PRESENTATION_LAYER_ASSIGNMENT (  '', '', ( #227 ) ) ;
#299 = DIRECTION ( 'NONE',  ( -0.0000000000000000000, -1.000000000000000000, -0.0000000000000000000 ) ) ;
#300 = ORIENTED_EDGE ( 'NONE', *, *, #97, .T. ) ;
#301 = EDGE_CURVE ( 'NONE', #123, #91, #244, .T. ) ;
#302 = ORIENTED_EDGE ( 'NONE', *, *, #350, .T. ) ;
#303 = CARTESIAN_POINT ( 'NONE',  ( 2.003579955016484200E-016, 13.99999999999999800, -1.376239569296599400 ) ) ;
#304 = CARTESIAN_POINT ( 'NONE',  ( 0.0000000000000000000, 0.0000000000000000000, 0.0000000000000000000 ) ) ;
#305 = AXIS2_PLACEMENT_3D ( 'NONE', #198, #28, #58 ) ;
#306 = CARTESIAN_POINT ( 'NONE',  ( 2.569220082336433300E-016, 13.69999999999999900, 1.895854811567260900 ) ) ;
#307 = CARTESIAN_POINT ( 'NONE',  ( 2.816687638038912100E-016, 0.0000000000000000000, 2.299999999999999800 ) ) ;
#308 = LINE ( 'NONE', #77, #82 ) ;
#309 = EDGE_CURVE ( 'NONE', #90, #123, #95, .T. ) ;
#310 = DIRECTION ( 'NONE',  ( 0.0000000000000000000, 1.000000000000000000, 0.0000000000000000000 ) ) ;
#311 = DIRECTION ( 'NONE',  ( 0.0000000000000000000, 0.0000000000000000000, 1.000000000000000000 ) ) ;
#312 = ORIENTED_EDGE ( 'NONE', *, *, #342, .T. ) ;
#313 = CONICAL_SURFACE ( 'NONE', #253, 0.4999999999999970000, 0.7853981633974482800 ) ;
#314 = ORIENTED_EDGE ( 'NONE', *, *, #92, .T. ) ;
#315 = AXIS2_PLACEMENT_3D ( 'NONE', #242, #280, #163 ) ;
#316 = DIRECTION ( 'NONE',  ( 0.0000000000000000000, 0.0000000000000000000, -1.000000000000000000 ) ) ;
#317 = EDGE_CURVE ( 'NONE', #165, #225, #138, .T. ) ;
#318 = PRODUCT_DEFINITION ( 'UNKNOWN', '', #352, #189 ) ;
#319 = ORIENTED_EDGE ( 'NONE', *, *, #177, .F. ) ;
#320 = EDGE_LOOP ( 'NONE', ( #76, #201 ) ) ;
#321 = PRODUCT_DEFINITION_SHAPE ( 'NONE', 'NONE',  #318 ) ;
#322 = AXIS2_PLACEMENT_3D ( 'NONE', #371, #251, #24 ) ;
#323 = DIRECTION ( 'NONE',  ( 0.0000000000000000000, 1.000000000000000000, 0.0000000000000000000 ) ) ;
#324 = ORIENTED_EDGE ( 'NONE', *, *, #256, .T. ) ;
#325 = DIRECTION ( 'NONE',  ( 1.224646799147353000E-016, 0.0000000000000000000, -1.000000000000000000 ) ) ;
#326 = AXIS2_PLACEMENT_3D ( 'NONE', #191, #310, #161 ) ;
#327 = EDGE_LOOP ( 'NONE', ( #233, #143, #224, #66 ) ) ;
#328 = FACE_OUTER_BOUND ( 'NONE', #285, .T. ) ;
#329 = CIRCLE ( 'NONE', #200, 1.895854811567260900 ) ;
#330 = DIRECTION ( 'NONE',  ( 8.659560562354932900E-017, 0.7071067811865474600, -0.7071067811865474600 ) ) ;
#331 =( GEOMETRIC_REPRESENTATION_CONTEXT ( 3 ) GLOBAL_UNCERTAINTY_ASSIGNED_CONTEXT ( ( #196 ) ) GLOBAL_UNIT_ASSIGNED_CONTEXT ( ( #137, #195, #337 ) ) REPRESENTATION_CONTEXT ( 'NONE', 'WORKASPACE' ) );
#332 = PLANE ( 'NONE',  #74 ) ;
#333 = ORIENTED_EDGE ( 'NONE', *, *, #288, .T. ) ;
#334 = CARTESIAN_POINT ( 'NONE',  ( 0.0000000000000000000, 0.5000000000000030000, -1.000000000000000000 ) ) ;
#335 = CARTESIAN_POINT ( 'NONE',  ( 1.722649730810372800, 13.99999999999999800, 0.0000000000000000000 ) ) ;
#336 = CARTESIAN_POINT ( 'NONE',  ( 2.816687638038912100E-016, 13.00000000000000200, 2.299999999999999800 ) ) ;
#337 =( NAMED_UNIT ( * ) SI_UNIT ( $, .STERADIAN. ) SOLID_ANGLE_UNIT ( ) );
#338 = VERTEX_POINT ( 'NONE', #142 ) ;
#339 = FACE_OUTER_BOUND ( 'NONE', #320, .T. ) ;
#340 = ORIENTED_EDGE ( 'NONE', *, *, #166, .F. ) ;
#341 = CARTESIAN_POINT ( 'NONE',  ( 0.0000000000000000000, 13.00000000000000200, 0.0000000000000000000 ) ) ;
#342 = EDGE_CURVE ( 'NONE', #257, #338, #182, .T. ) ;
#343 = DIRECTION ( 'NONE',  ( 0.0000000000000000000, 0.0000000000000000000, 1.000000000000000000 ) ) ;
#344 = CIRCLE ( 'NONE', #12, 2.299999999999999800 ) ;
#345 = MECHANICAL_DESIGN_GEOMETRIC_PRESENTATION_REPRESENTATION (  '', ( #180 ), #87 ) ;
#346 = APPLICATION_CONTEXT ( 'automotive_design' ) ;
#347 = SURFACE_SIDE_STYLE ('',( #70 ) ) ;
#348 = APPLICATION_PROTOCOL_DEFINITION ( 'draft international standard', 'automotive_design', 1998, #170 ) ;
#349 = EDGE_LOOP ( 'NONE', ( #173, #314, #183, #340 ) ) ;
#350 = EDGE_CURVE ( 'NONE', #174, #231, #260, .T. ) ;
#351 = ADVANCED_FACE ( 'NONE', ( #328 ), #34, .T. ) ;
#352 = PRODUCT_DEFINITION_FORMATION_WITH_SPECIFIED_SOURCE ( 'ANY', '', #73, .NOT_KNOWN. ) ;
#353 = ADVANCED_FACE ( 'NONE', ( #99 ), #313, .T. ) ;
#354 = VECTOR ( 'NONE', #54, 999.9999999999998900 ) ;
#355 = EDGE_CURVE ( 'NONE', #51, #3, #344, .T. ) ;
#356 = DIRECTION ( 'NONE',  ( 0.0000000000000000000, 0.0000000000000000000, 1.000000000000000000 ) ) ;
#357 = CARTESIAN_POINT ( 'NONE',  ( 0.0000000000000000000, 0.0000000000000000000, 0.0000000000000000000 ) ) ;
#358 = CLOSED_SHELL ( 'NONE', ( #351, #75, #105, #126, #263, #101, #176, #38, #69, #125, #205, #353, #11 ) ) ;
#359 = LINE ( 'NONE', #80, #367 ) ;
#360 = EDGE_LOOP ( 'NONE', ( #153, #25, #324, #10 ) ) ;
#361 = CARTESIAN_POINT ( 'NONE',  ( 0.0000000000000000000, 7.000000000000000000, -2.299999999999999800 ) ) ;
#362 = CARTESIAN_POINT ( 'NONE',  ( 0.0000000000000000000, 13.00000000000000200, 0.0000000000000000000 ) ) ;
#363 = ORIENTED_EDGE ( 'NONE', *, *, #157, .F. ) ;
#364 = LINE ( 'NONE', #283, #144 ) ;
#365 = CARTESIAN_POINT ( 'NONE',  ( 0.0000000000000000000, 13.99999999999999800, 1.376239569296599400 ) ) ;
#366 = CARTESIAN_POINT ( 'NONE',  ( 1.224646799147353200E-016, 0.0000000000000000000, 1.000000000000000000 ) ) ;
#367 = VECTOR ( 'NONE', #274, 1000.000000000000000 ) ;
#368 = DIRECTION ( 'NONE',  ( -0.0000000000000000000, -1.000000000000000000, -0.0000000000000000000 ) ) ;
#369 = DIRECTION ( 'NONE',  ( -0.0000000000000000000, -1.000000000000000000, -0.0000000000000000000 ) ) ;
#370 = DIRECTION ( 'NONE',  ( 0.0000000000000000000, 0.0000000000000000000, -1.000000000000000000 ) ) ;
#371 = CARTESIAN_POINT ( 'NONE',  ( 0.0000000000000000000, 0.0000000000000000000, 0.0000000000000000000 ) ) ;
#372 = DIRECTION ( 'NONE',  ( -0.0000000000000000000, -1.000000000000000000, -0.0000000000000000000 ) ) ;
ENDSEC;
END-ISO-10303-21;
