ISO-10303-21;
HEADER;
FILE_DESCRIPTION (( 'STEP AP214' ),
    '1' );
FILE_NAME ('42746~0.STEP',
    '2017-07-04T09:09:06',
    ( '' ),
    ( '' ),
    'SwSTEP 2.0',
    'SolidWorks 2016',
    '' );
FILE_SCHEMA (( 'AUTOMOTIVE_DESIGN' ));
ENDSEC;

DATA;
#1 = CIRCLE ( 'NONE', #235, 0.6000000000000000900 ) ;
#2 = ORIENTED_EDGE ( 'NONE', *, *, #151, .F. ) ;
#3 = EDGE_CURVE ( 'NONE', #202, #257, #58, .T. ) ;
#4 =( LENGTH_UNIT ( ) NAMED_UNIT ( * ) SI_UNIT ( .MILLI., .METRE. ) );
#5 = AXIS2_PLACEMENT_3D ( 'NONE', #230, #329, #95 ) ;
#6 = EDGE_LOOP ( 'NONE', ( #260, #205, #189, #167 ) ) ;
#7 = DIRECTION ( 'NONE',  ( 0.0000000000000000000, 0.0000000000000000000, -1.000000000000000000 ) ) ;
#8 =( LENGTH_UNIT ( ) NAMED_UNIT ( * ) SI_UNIT ( .MILLI., .METRE. ) );
#9 = LINE ( 'NONE', #210, #258 ) ;
#10 = EDGE_CURVE ( 'NONE', #182, #220, #256, .T. ) ;
#11 = AXIS2_PLACEMENT_3D ( 'NONE', #108, #83, #39 ) ;
#12 = ORIENTED_EDGE ( 'NONE', *, *, #151, .T. ) ;
#13 = DIRECTION ( 'NONE',  ( 0.0000000000000000000, 0.0000000000000000000, 1.000000000000000000 ) ) ;
#14 = CARTESIAN_POINT ( 'NONE',  ( 6.123233995736772200E-017, 0.0000000000000000000, -0.5000000000000004400 ) ) ;
#15 = ORIENTED_EDGE ( 'NONE', *, *, #288, .F. ) ;
#16 = CARTESIAN_POINT ( 'NONE',  ( 1.224646799147353200E-016, 0.5000000000000030000, 1.000000000000000000 ) ) ;
#17 = CARTESIAN_POINT ( 'NONE',  ( 0.0000000000000000000, 0.5000000000000030000, 0.0000000000000000000 ) ) ;
#18 = FACE_OUTER_BOUND ( 'NONE', #307, .T. ) ;
#19 = MECHANICAL_DESIGN_GEOMETRIC_PRESENTATION_REPRESENTATION (  '', ( #64 ), #346 ) ;
#20 = SURFACE_SIDE_STYLE ('',( #292 ) ) ;
#21 = FILL_AREA_STYLE ('',( #97 ) ) ;
#22 = DIRECTION ( 'NONE',  ( 0.0000000000000000000, 0.0000000000000000000, -1.000000000000000000 ) ) ;
#23 = ORIENTED_EDGE ( 'NONE', *, *, #117, .F. ) ;
#24 = EDGE_LOOP ( 'NONE', ( #290, #144 ) ) ;
#25 =( LENGTH_UNIT ( ) NAMED_UNIT ( * ) SI_UNIT ( .MILLI., .METRE. ) );
#26 = UNCERTAINTY_MEASURE_WITH_UNIT (LENGTH_MEASURE( 1.000000000000000100E-005 ), #4, 'distance_accuracy_value', 'NONE');
#27 = EDGE_CURVE ( 'NONE', #220, #310, #313, .T. ) ;
#28 = DIRECTION ( 'NONE',  ( -0.0000000000000000000, -1.000000000000000000, -0.0000000000000000000 ) ) ;
#29 = AXIS2_PLACEMENT_3D ( 'NONE', #78, #53, #149 ) ;
#30 = CARTESIAN_POINT ( 'NONE',  ( 0.0000000000000000000, 13.00000000000000200, 0.0000000000000000000 ) ) ;
#31 = FACE_OUTER_BOUND ( 'NONE', #241, .T. ) ;
#32 = DIRECTION ( 'NONE',  ( 0.0000000000000000000, 0.0000000000000000000, 1.000000000000000000 ) ) ;
#33 = UNCERTAINTY_MEASURE_WITH_UNIT (LENGTH_MEASURE( 1.000000000000000100E-005 ), #25, 'distance_accuracy_value', 'NONE');
#34 = DIRECTION ( 'NONE',  ( 0.0000000000000000000, -1.000000000000000000, -0.0000000000000000000 ) ) ;
#35 = ORIENTED_EDGE ( 'NONE', *, *, #10, .T. ) ;
#36 = DIRECTION ( 'NONE',  ( -0.0000000000000000000, -1.000000000000000000, -0.0000000000000000000 ) ) ;
#37 = FACE_OUTER_BOUND ( 'NONE', #6, .T. ) ;
#38 = AXIS2_PLACEMENT_3D ( 'NONE', #134, #342, #214 ) ;
#39 = DIRECTION ( 'NONE',  ( 0.0000000000000000000, 0.0000000000000000000, -1.000000000000000000 ) ) ;
#40 = DIRECTION ( 'NONE',  ( 0.0000000000000000000, 0.0000000000000000000, 1.000000000000000000 ) ) ;
#41 = AXIS2_PLACEMENT_3D ( 'NONE', #156, #59, #160 ) ;
#42 = CYLINDRICAL_SURFACE ( 'NONE', #103, 1.000000000000000000 ) ;
#43 =( GEOMETRIC_REPRESENTATION_CONTEXT ( 3 ) GLOBAL_UNCERTAINTY_ASSIGNED_CONTEXT ( ( #26 ) ) GLOBAL_UNIT_ASSIGNED_CONTEXT ( ( #4, #163, #194 ) ) REPRESENTATION_CONTEXT ( 'NONE', 'WORKASPACE' ) );
#44 = DIRECTION ( 'NONE',  ( -0.0000000000000000000, -1.000000000000000000, -0.0000000000000000000 ) ) ;
#45 = VERTEX_POINT ( 'NONE', #16 ) ;
#46 = DIRECTION ( 'NONE',  ( -0.0000000000000000000, -1.000000000000000000, -0.0000000000000000000 ) ) ;
#47 = EDGE_CURVE ( 'NONE', #310, #86, #345, .T. ) ;
#48 = FACE_OUTER_BOUND ( 'NONE', #362, .T. ) ;
#49 = ORIENTED_EDGE ( 'NONE', *, *, #331, .T. ) ;
#50 = CARTESIAN_POINT ( 'NONE',  ( 1.224646799147353200E-016, 6.999999999999999100, 1.000000000000000000 ) ) ;
#51 = ORIENTED_EDGE ( 'NONE', *, *, #73, .F. ) ;
#52 = CARTESIAN_POINT ( 'NONE',  ( 0.0000000000000000000, 6.999999999999999100, 0.0000000000000000000 ) ) ;
#53 = DIRECTION ( 'NONE',  ( 0.0000000000000000000, -1.000000000000000000, -0.0000000000000000000 ) ) ;
#54 = CARTESIAN_POINT ( 'NONE',  ( 0.0000000000000000000, 0.0000000000000000000, 0.5000000000000004400 ) ) ;
#55 = FACE_OUTER_BOUND ( 'NONE', #88, .T. ) ;
#56 = DIRECTION ( 'NONE',  ( -0.0000000000000000000, -1.000000000000000000, -0.0000000000000000000 ) ) ;
#57 = CARTESIAN_POINT ( 'NONE',  ( 1.942347615059115900E-016, 13.99999999999999800, -1.326239569296599100 ) ) ;
#58 = LINE ( 'NONE', #14, #184 ) ;
#59 = DIRECTION ( 'NONE',  ( -0.0000000000000000000, -1.000000000000000000, -0.0000000000000000000 ) ) ;
#60 = DIRECTION ( 'NONE',  ( -0.0000000000000000000, -1.000000000000000000, -0.0000000000000000000 ) ) ;
#61 = VECTOR ( 'NONE', #56, 1000.000000000000000 ) ;
#62 = AXIS2_PLACEMENT_3D ( 'NONE', #65, #275, #106 ) ;
#63 = EDGE_CURVE ( 'NONE', #182, #277, #127, .T. ) ;
#64 = STYLED_ITEM ( 'NONE', ( #174 ), #172 ) ;
#65 = CARTESIAN_POINT ( 'NONE',  ( 0.0000000000000000000, 13.39999999999999900, 1.326239569296599100 ) ) ;
#66 = ORIENTED_EDGE ( 'NONE', *, *, #119, .F. ) ;
#67 = LINE ( 'NONE', #76, #126 ) ;
#68 = ORIENTED_EDGE ( 'NONE', *, *, #196, .T. ) ;
#69 = CARTESIAN_POINT ( 'NONE',  ( 2.755455298081544300E-016, 7.000000000000000000, 2.250000000000000000 ) ) ;
#70 = CIRCLE ( 'NONE', #283, 0.5000000000000004400 ) ;
#71 = DIRECTION ( 'NONE',  ( 0.0000000000000000000, -0.8660254037844380400, -0.5000000000000012200 ) ) ;
#72 = ORIENTED_EDGE ( 'NONE', *, *, #47, .T. ) ;
#73 = EDGE_CURVE ( 'NONE', #257, #45, #296, .T. ) ;
#74 = ORIENTED_EDGE ( 'NONE', *, *, #173, .T. ) ;
#75 = AXIS2_PLACEMENT_3D ( 'NONE', #98, #96, #175 ) ;
#76 = CARTESIAN_POINT ( 'NONE',  ( 0.0000000000000000000, 0.0000000000000000000, -2.250000000000000000 ) ) ;
#77 = DIRECTION ( 'NONE',  ( 0.0000000000000000000, 0.0000000000000000000, -1.000000000000000000 ) ) ;
#78 = CARTESIAN_POINT ( 'NONE',  ( 0.0000000000000000000, 0.0000000000000000000, 0.0000000000000000000 ) ) ;
#79 = ORIENTED_EDGE ( 'NONE', *, *, #367, .F. ) ;
#80 = PRODUCT_DEFINITION_SHAPE ( 'NONE', 'NONE',  #350 ) ;
#81 = CARTESIAN_POINT ( 'NONE',  ( 1.000000000000000000, 6.999999999999999100, 0.0000000000000000000 ) ) ;
#82 = CIRCLE ( 'NONE', #320, 2.250000000000000000 ) ;
#83 = DIRECTION ( 'NONE',  ( -0.0000000000000000000, -1.000000000000000000, -0.0000000000000000000 ) ) ;
#84 = ORIENTED_EDGE ( 'NONE', *, *, #288, .T. ) ;
#85 = DIRECTION ( 'NONE',  ( 0.0000000000000000000, 0.0000000000000000000, 1.000000000000000000 ) ) ;
#86 = VERTEX_POINT ( 'NONE', #69 ) ;
#87 = DIRECTION ( 'NONE',  ( 0.0000000000000000000, 1.000000000000000000, 0.0000000000000000000 ) ) ;
#88 = EDGE_LOOP ( 'NONE', ( #35, #351, #91, #305 ) ) ;
#89 = CIRCLE ( 'NONE', #140, 1.326239569296599100 ) ;
#90 = PRODUCT ( '42746~0', '42746~0', '', ( #218 ) ) ;
#91 = ORIENTED_EDGE ( 'NONE', *, *, #286, .F. ) ;
#92 = CARTESIAN_POINT ( 'NONE',  ( 0.0000000000000000000, 13.70000000000000100, 0.0000000000000000000 ) ) ;
#93 = EDGE_CURVE ( 'NONE', #202, #279, #111, .T. ) ;
#94 = AXIS2_PLACEMENT_3D ( 'NONE', #180, #28, #188 ) ;
#95 = DIRECTION ( 'NONE',  ( 0.0000000000000000000, 0.0000000000000000000, -1.000000000000000000 ) ) ;
#96 = DIRECTION ( 'NONE',  ( 0.0000000000000000000, 1.000000000000000000, 0.0000000000000000000 ) ) ;
#97 = FILL_AREA_STYLE_COLOUR ( '', #131 ) ;
#98 = CARTESIAN_POINT ( 'NONE',  ( 0.0000000000000000000, 0.0000000000000000000, 0.0000000000000000000 ) ) ;
#99 = EDGE_LOOP ( 'NONE', ( #371, #72, #321, #348 ) ) ;
#100 = DIRECTION ( 'NONE',  ( -0.0000000000000000000, -1.000000000000000000, -0.0000000000000000000 ) ) ;
#101 = CARTESIAN_POINT ( 'NONE',  ( 2.755455298081544300E-016, 13.00000000000000200, 2.250000000000000000 ) ) ;
#102 = PLANE ( 'NONE',  #183 ) ;
#103 = AXIS2_PLACEMENT_3D ( 'NONE', #153, #154, #77 ) ;
#104 = DIRECTION ( 'NONE',  ( 0.0000000000000000000, 0.0000000000000000000, -1.000000000000000000 ) ) ;
#105 = VECTOR ( 'NONE', #361, 1000.000000000000100 ) ;
#106 = DIRECTION ( 'NONE',  ( 0.0000000000000000000, 0.0000000000000000000, 1.000000000000000000 ) ) ;
#107 = ORIENTED_EDGE ( 'NONE', *, *, #239, .F. ) ;
#108 = CARTESIAN_POINT ( 'NONE',  ( 0.0000000000000000000, 7.000000000000000000, 0.0000000000000000000 ) ) ;
#109 = PRODUCT_RELATED_PRODUCT_CATEGORY ( 'part', '', ( #90 ) ) ;
#110 = DIRECTION ( 'NONE',  ( 0.0000000000000000000, -0.0000000000000000000, 1.000000000000000000 ) ) ;
#111 = CIRCLE ( 'NONE', #5, 0.5000000000000004400 ) ;
#112 = AXIS2_PLACEMENT_3D ( 'NONE', #81, #34, #104 ) ;
#113 = APPLICATION_PROTOCOL_DEFINITION ( 'draft international standard', 'automotive_design', 1998, #316 ) ;
#114 = ORIENTED_EDGE ( 'NONE', *, *, #63, .T. ) ;
#115 = TOROIDAL_SURFACE ( 'NONE', #372, 1.326239569296599100, 0.5999999999999999800 ) ;
#116 = ADVANCED_FACE ( 'NONE', ( #31 ), #244, .T. ) ;
#117 = EDGE_CURVE ( 'NONE', #162, #229, #171, .T. ) ;
#118 = FACE_OUTER_BOUND ( 'NONE', #231, .T. ) ;
#119 = EDGE_CURVE ( 'NONE', #279, #202, #70, .T. ) ;
#120 = VECTOR ( 'NONE', #71, 999.9999999999998900 ) ;
#121 = AXIS2_PLACEMENT_3D ( 'NONE', #339, #40, #139 ) ;
#122 =( NAMED_UNIT ( * ) SI_UNIT ( $, .STERADIAN. ) SOLID_ANGLE_UNIT ( ) );
#123 = AXIS2_PLACEMENT_3D ( 'NONE', #30, #100, #157 ) ;
#124 = CARTESIAN_POINT ( 'NONE',  ( 0.0000000000000000000, 7.000000000000000000, -2.250000000000000000 ) ) ;
#125 = DIRECTION ( 'NONE',  ( 0.0000000000000000000, 1.000000000000000000, 0.0000000000000000000 ) ) ;
#126 = VECTOR ( 'NONE', #177, 1000.000000000000000 ) ;
#127 = LINE ( 'NONE', #168, #120 ) ;
#128 = PRESENTATION_STYLE_ASSIGNMENT (( #318 ) ) ;
#129 = AXIS2_PLACEMENT_3D ( 'NONE', #208, #236, #269 ) ;
#130 = ADVANCED_FACE ( 'NONE', ( #354 ), #358, .T. ) ;
#131 = COLOUR_RGB ( '',0.7529411764705882200, 0.7529411764705882200, 0.7529411764705882200 ) ;
#132 = CARTESIAN_POINT ( 'NONE',  ( 0.0000000000000000000, 6.999999999999999100, 0.0000000000000000000 ) ) ;
#133 = VECTOR ( 'NONE', #142, 999.9999999999998900 ) ;
#134 = CARTESIAN_POINT ( 'NONE',  ( 0.0000000000000000000, 13.39999999999999900, 0.0000000000000000000 ) ) ;
#135 = CARTESIAN_POINT ( 'NONE',  ( 0.0000000000000000000, 13.39999999999999900, 0.0000000000000000000 ) ) ;
#136 = DIRECTION ( 'NONE',  ( 0.0000000000000000000, 1.000000000000000000, 0.0000000000000000000 ) ) ;
#137 = APPLICATION_PROTOCOL_DEFINITION ( 'draft international standard', 'automotive_design', 1998, #284 ) ;
#138 = CONICAL_SURFACE ( 'NONE', #199, 0.5000000000000004400, 0.7853981633974447300 ) ;
#139 = DIRECTION ( 'NONE',  ( 1.000000000000000000, 0.0000000000000000000, 0.0000000000000000000 ) ) ;
#140 = AXIS2_PLACEMENT_3D ( 'NONE', #308, #233, #206 ) ;
#141 = DIRECTION ( 'NONE',  ( -0.0000000000000000000, -1.000000000000000000, -0.0000000000000000000 ) ) ;
#142 = DIRECTION ( 'NONE',  ( 6.123233995736782100E-017, -0.8660254037844380400, 0.5000000000000012200 ) ) ;
#143 = ADVANCED_FACE ( 'NONE', ( #37 ), #42, .T. ) ;
#144 = ORIENTED_EDGE ( 'NONE', *, *, #93, .T. ) ;
#145 = DIRECTION ( 'NONE',  ( 0.0000000000000000000, 0.0000000000000000000, -1.000000000000000000 ) ) ;
#146 = AXIS2_PLACEMENT_3D ( 'NONE', #132, #314, #243 ) ;
#147 = CYLINDRICAL_SURFACE ( 'NONE', #338, 2.250000000000000000 ) ;
#148 = DIRECTION ( 'NONE',  ( 1.224646799147352700E-016, 0.0000000000000000000, -1.000000000000000000 ) ) ;
#149 = DIRECTION ( 'NONE',  ( 0.0000000000000000000, 0.0000000000000000000, -1.000000000000000000 ) ) ;
#150 = CARTESIAN_POINT ( 'NONE',  ( 0.0000000000000000000, 0.0000000000000000000, 0.0000000000000000000 ) ) ;
#151 = EDGE_CURVE ( 'NONE', #182, #255, #1, .T. ) ;
#152 = EDGE_CURVE ( 'NONE', #279, #45, #271, .T. ) ;
#153 = CARTESIAN_POINT ( 'NONE',  ( 0.0000000000000000000, 0.0000000000000000000, 0.0000000000000000000 ) ) ;
#154 = DIRECTION ( 'NONE',  ( -0.0000000000000000000, -1.000000000000000000, -0.0000000000000000000 ) ) ;
#155 = ORIENTED_EDGE ( 'NONE', *, *, #266, .T. ) ;
#156 = CARTESIAN_POINT ( 'NONE',  ( 0.0000000000000000000, 13.00000000000000200, 0.0000000000000000000 ) ) ;
#157 = DIRECTION ( 'NONE',  ( 0.0000000000000000000, 0.0000000000000000000, -1.000000000000000000 ) ) ;
#158 = CYLINDRICAL_SURFACE ( 'NONE', #94, 2.250000000000000000 ) ;
#159 = MECHANICAL_DESIGN_GEOMETRIC_PRESENTATION_REPRESENTATION (  '', ( #179 ), #207 ) ;
#160 = DIRECTION ( 'NONE',  ( 0.0000000000000000000, 0.0000000000000000000, -1.000000000000000000 ) ) ;
#161 = AXIS2_PLACEMENT_3D ( 'NONE', #300, #335, #32 ) ;
#162 = VERTEX_POINT ( 'NONE', #325 ) ;
#163 =( NAMED_UNIT ( * ) PLANE_ANGLE_UNIT ( ) SI_UNIT ( $, .RADIAN. ) );
#164 = LINE ( 'NONE', #301, #61 ) ;
#165 = SURFACE_SIDE_STYLE ('',( #323 ) ) ;
#166 = SHAPE_DEFINITION_REPRESENTATION ( #80, #364 ) ;
#167 = ORIENTED_EDGE ( 'NONE', *, *, #73, .T. ) ;
#168 = CARTESIAN_POINT ( 'NONE',  ( 0.0000000000000000000, 13.00000000000000200, -2.250000000000000000 ) ) ;
#169 = AXIS2_PLACEMENT_3D ( 'NONE', #17, #287, #145 ) ;
#170 = EDGE_LOOP ( 'NONE', ( #341, #12, #204, #79 ) ) ;
#171 = CIRCLE ( 'NONE', #304, 1.000000000000000000 ) ;
#172 = MANIFOLD_SOLID_BREP ( 'Verrundung1', #365 ) ;
#173 = EDGE_CURVE ( 'NONE', #255, #270, #357, .T. ) ;
#174 = PRESENTATION_STYLE_ASSIGNMENT (( #201 ) ) ;
#175 = DIRECTION ( 'NONE',  ( 0.0000000000000000000, 0.0000000000000000000, 1.000000000000000000 ) ) ;
#176 = ORIENTED_EDGE ( 'NONE', *, *, #27, .F. ) ;
#177 = DIRECTION ( 'NONE',  ( -0.0000000000000000000, -1.000000000000000000, -0.0000000000000000000 ) ) ;
#178 = EDGE_LOOP ( 'NONE', ( #228, #274, #15, #326 ) ) ;
#179 = STYLED_ITEM ( 'NONE', ( #128 ), #364 ) ;
#180 = CARTESIAN_POINT ( 'NONE',  ( 0.0000000000000000000, 0.0000000000000000000, 0.0000000000000000000 ) ) ;
#181 = CIRCLE ( 'NONE', #129, 1.000000000000000000 ) ;
#182 = VERTEX_POINT ( 'NONE', #294 ) ;
#183 = AXIS2_PLACEMENT_3D ( 'NONE', #370, #87, #110 ) ;
#184 = VECTOR ( 'NONE', #200, 1000.000000000000100 ) ;
#185 = ORIENTED_EDGE ( 'NONE', *, *, #3, .F. ) ;
#186 = PLANE ( 'NONE',  #112 ) ;
#187 = CIRCLE ( 'NONE', #11, 2.250000000000000000 ) ;
#188 = DIRECTION ( 'NONE',  ( 0.0000000000000000000, 0.0000000000000000000, -1.000000000000000000 ) ) ;
#189 = ORIENTED_EDGE ( 'NONE', *, *, #295, .T. ) ;
#190 = CARTESIAN_POINT ( 'NONE',  ( 0.0000000000000000000, 0.0000000000000000000, 0.0000000000000000000 ) ) ;
#191 = VERTEX_POINT ( 'NONE', #124 ) ;
#192 = ORIENTED_EDGE ( 'NONE', *, *, #312, .F. ) ;
#193 = FACE_OUTER_BOUND ( 'NONE', #99, .T. ) ;
#194 =( NAMED_UNIT ( * ) SI_UNIT ( $, .STERADIAN. ) SOLID_ANGLE_UNIT ( ) );
#195 = CIRCLE ( 'NONE', #161, 1.845854811567261700 ) ;
#196 = EDGE_CURVE ( 'NONE', #310, #277, #225, .T. ) ;
#197 = FACE_BOUND ( 'NONE', #280, .T. ) ;
#198 = COLOUR_RGB ( '',0.7529411764705882200, 0.7529411764705882200, 0.7529411764705882200 ) ;
#199 = AXIS2_PLACEMENT_3D ( 'NONE', #276, #340, #215 ) ;
#200 = DIRECTION ( 'NONE',  ( 8.659560562354903300E-017, 0.7071067811865500200, -0.7071067811865451300 ) ) ;
#201 = SURFACE_STYLE_USAGE ( .BOTH. , #20 ) ;
#202 = VERTEX_POINT ( 'NONE', #328 ) ;
#203 = DIRECTION ( 'NONE',  ( 1.000000000000000000, -0.0000000000000000000, 1.224646799147353200E-016 ) ) ;
#204 = ORIENTED_EDGE ( 'NONE', *, *, #266, .F. ) ;
#205 = ORIENTED_EDGE ( 'NONE', *, *, #312, .T. ) ;
#206 = DIRECTION ( 'NONE',  ( 0.0000000000000000000, 0.0000000000000000000, 1.000000000000000000 ) ) ;
#207 =( GEOMETRIC_REPRESENTATION_CONTEXT ( 3 ) GLOBAL_UNCERTAINTY_ASSIGNED_CONTEXT ( ( #238 ) ) GLOBAL_UNIT_ASSIGNED_CONTEXT ( ( #8, #247, #245 ) ) REPRESENTATION_CONTEXT ( 'NONE', 'WORKASPACE' ) );
#208 = CARTESIAN_POINT ( 'NONE',  ( 0.0000000000000000000, 0.5000000000000030000, 0.0000000000000000000 ) ) ;
#209 = CIRCLE ( 'NONE', #146, 1.000000000000000000 ) ;
#210 = CARTESIAN_POINT ( 'NONE',  ( 0.0000000000000000000, 0.0000000000000000000, -1.000000000000000000 ) ) ;
#211 = ORIENTED_EDGE ( 'NONE', *, *, #213, .T. ) ;
#212 = AXIS2_PLACEMENT_3D ( 'NONE', #297, #125, #363 ) ;
#213 = EDGE_CURVE ( 'NONE', #277, #191, #67, .T. ) ;
#214 = DIRECTION ( 'NONE',  ( 0.0000000000000000000, 0.0000000000000000000, 1.000000000000000000 ) ) ;
#215 = DIRECTION ( 'NONE',  ( 0.0000000000000000000, 0.0000000000000000000, 1.000000000000000000 ) ) ;
#216 = AXIS2_PLACEMENT_3D ( 'NONE', #92, #44, #13 ) ;
#217 = CONICAL_SURFACE ( 'NONE', #41, 2.250000000000000000, 0.5235987755983002600 ) ;
#218 = PRODUCT_CONTEXT ( 'NONE', #316, 'mechanical' ) ;
#219 = ORIENTED_EDGE ( 'NONE', *, *, #152, .T. ) ;
#220 = VERTEX_POINT ( 'NONE', #259 ) ;
#221 = ORIENTED_EDGE ( 'NONE', *, *, #330, .T. ) ;
#222 = CARTESIAN_POINT ( 'NONE',  ( 2.755455298081544300E-016, 0.0000000000000000000, 2.250000000000000000 ) ) ;
#223 = VECTOR ( 'NONE', #141, 1000.000000000000000 ) ;
#224 = ORIENTED_EDGE ( 'NONE', *, *, #367, .T. ) ;
#225 = CIRCLE ( 'NONE', #359, 2.250000000000000000 ) ;
#226 = DIRECTION ( 'NONE',  ( 0.0000000000000000000, 0.0000000000000000000, -1.000000000000000000 ) ) ;
#227 =( NAMED_UNIT ( * ) PLANE_ANGLE_UNIT ( ) SI_UNIT ( $, .RADIAN. ) );
#228 = ORIENTED_EDGE ( 'NONE', *, *, #93, .F. ) ;
#229 = VERTEX_POINT ( 'NONE', #50 ) ;
#230 = CARTESIAN_POINT ( 'NONE',  ( 0.0000000000000000000, 0.0000000000000000000, 0.0000000000000000000 ) ) ;
#231 = EDGE_LOOP ( 'NONE', ( #291, #68, #211, #232 ) ) ;
#232 = ORIENTED_EDGE ( 'NONE', *, *, #331, .F. ) ;
#233 = DIRECTION ( 'NONE',  ( 0.0000000000000000000, 1.000000000000000000, 0.0000000000000000000 ) ) ;
#234 = CONICAL_SURFACE ( 'NONE', #123, 2.250000000000000000, 0.5235987755983002600 ) ;
#235 = AXIS2_PLACEMENT_3D ( 'NONE', #261, #203, #148 ) ;
#236 = DIRECTION ( 'NONE',  ( 0.0000000000000000000, 1.000000000000000000, 0.0000000000000000000 ) ) ;
#237 = ADVANCED_FACE ( 'NONE', ( #254 ), #265, .T. ) ;
#238 = UNCERTAINTY_MEASURE_WITH_UNIT (LENGTH_MEASURE( 1.000000000000000100E-005 ), #8, 'distance_accuracy_value', 'NONE');
#239 = EDGE_CURVE ( 'NONE', #220, #182, #195, .T. ) ;
#240 = CARTESIAN_POINT ( 'NONE',  ( 0.0000000000000000000, 0.5000000000000030000, -1.000000000000000000 ) ) ;
#241 = EDGE_LOOP ( 'NONE', ( #251, #349, #84, #285 ) ) ;
#242 = DIRECTION ( 'NONE',  ( -0.0000000000000000000, -1.000000000000000000, -0.0000000000000000000 ) ) ;
#243 = DIRECTION ( 'NONE',  ( 0.0000000000000000000, 0.0000000000000000000, -1.000000000000000000 ) ) ;
#244 = CYLINDRICAL_SURFACE ( 'NONE', #273, 1.000000000000000000 ) ;
#245 =( NAMED_UNIT ( * ) SI_UNIT ( $, .STERADIAN. ) SOLID_ANGLE_UNIT ( ) );
#246 = ADVANCED_FACE ( 'NONE', ( #193 ), #158, .T. ) ;
#247 =( NAMED_UNIT ( * ) PLANE_ANGLE_UNIT ( ) SI_UNIT ( $, .RADIAN. ) );
#248 = EDGE_LOOP ( 'NONE', ( #221, #49 ) ) ;
#249 = ADVANCED_FACE ( 'NONE', ( #55 ), #234, .T. ) ;
#250 = AXIS2_PLACEMENT_3D ( 'NONE', #302, #60, #334 ) ;
#251 = ORIENTED_EDGE ( 'NONE', *, *, #117, .T. ) ;
#252 = FACE_OUTER_BOUND ( 'NONE', #306, .T. ) ;
#253 = CARTESIAN_POINT ( 'NONE',  ( 2.755455298081544300E-016, 13.00000000000000200, 2.250000000000000000 ) ) ;
#254 = FACE_OUTER_BOUND ( 'NONE', #178, .T. ) ;
#255 = VERTEX_POINT ( 'NONE', #57 ) ;
#256 = CIRCLE ( 'NONE', #216, 1.845854811567261700 ) ;
#257 = VERTEX_POINT ( 'NONE', #240 ) ;
#258 = VECTOR ( 'NONE', #267, 1000.000000000000000 ) ;
#259 = CARTESIAN_POINT ( 'NONE',  ( 2.507987742379066000E-016, 13.70000000000000100, 1.845854811567261700 ) ) ;
#260 = ORIENTED_EDGE ( 'NONE', *, *, #262, .F. ) ;
#261 = CARTESIAN_POINT ( 'NONE',  ( 1.624175043441644500E-016, 13.39999999999999900, -1.326239569296599100 ) ) ;
#262 = EDGE_CURVE ( 'NONE', #229, #45, #164, .T. ) ;
#263 = CARTESIAN_POINT ( 'NONE',  ( 0.0000000000000000000, 13.00000000000000200, 0.0000000000000000000 ) ) ;
#264 = CARTESIAN_POINT ( 'NONE',  ( 0.0000000000000000000, 0.0000000000000000000, 0.5000000000000004400 ) ) ;
#265 = CONICAL_SURFACE ( 'NONE', #75, 0.5000000000000004400, 0.7853981633974447300 ) ;
#266 = EDGE_CURVE ( 'NONE', #270, #255, #89, .T. ) ;
#267 = DIRECTION ( 'NONE',  ( -0.0000000000000000000, -1.000000000000000000, -0.0000000000000000000 ) ) ;
#268 = ADVANCED_FACE ( 'NONE', ( #332, #197 ), #186, .T. ) ;
#269 = DIRECTION ( 'NONE',  ( 0.0000000000000000000, 0.0000000000000000000, -1.000000000000000000 ) ) ;
#270 = VERTEX_POINT ( 'NONE', #333 ) ;
#271 = LINE ( 'NONE', #54, #105 ) ;
#272 = ADVANCED_FACE ( 'NONE', ( #18 ), #217, .T. ) ;
#273 = AXIS2_PLACEMENT_3D ( 'NONE', #353, #46, #226 ) ;
#274 = ORIENTED_EDGE ( 'NONE', *, *, #3, .T. ) ;
#275 = DIRECTION ( 'NONE',  ( -1.000000000000000000, 0.0000000000000000000, 0.0000000000000000000 ) ) ;
#276 = CARTESIAN_POINT ( 'NONE',  ( 0.0000000000000000000, 0.0000000000000000000, 0.0000000000000000000 ) ) ;
#277 = VERTEX_POINT ( 'NONE', #369 ) ;
#278 = TOROIDAL_SURFACE ( 'NONE', #38, 1.326239569296599100, 0.5999999999999999800 ) ;
#279 = VERTEX_POINT ( 'NONE', #264 ) ;
#280 = EDGE_LOOP ( 'NONE', ( #23, #192 ) ) ;
#281 = CARTESIAN_POINT ( 'NONE',  ( 0.0000000000000000000, 7.000000000000000000, 0.0000000000000000000 ) ) ;
#282 = FILL_AREA_STYLE ('',( #309 ) ) ;
#283 = AXIS2_PLACEMENT_3D ( 'NONE', #150, #360, #22 ) ;
#284 = APPLICATION_CONTEXT ( 'automotive_design' ) ;
#285 = ORIENTED_EDGE ( 'NONE', *, *, #295, .F. ) ;
#286 = EDGE_CURVE ( 'NONE', #277, #310, #347, .T. ) ;
#287 = DIRECTION ( 'NONE',  ( 0.0000000000000000000, 1.000000000000000000, 0.0000000000000000000 ) ) ;
#288 = EDGE_CURVE ( 'NONE', #45, #257, #181, .T. ) ;
#289 = ORIENTED_EDGE ( 'NONE', *, *, #239, .T. ) ;
#290 = ORIENTED_EDGE ( 'NONE', *, *, #119, .T. ) ;
#291 = ORIENTED_EDGE ( 'NONE', *, *, #47, .F. ) ;
#292 = SURFACE_STYLE_FILL_AREA ( #21 ) ;
#293 = EDGE_LOOP ( 'NONE', ( #155, #74 ) ) ;
#294 = CARTESIAN_POINT ( 'NONE',  ( 0.0000000000000000000, 13.70000000000000100, -1.845854811567261700 ) ) ;
#295 = EDGE_CURVE ( 'NONE', #162, #257, #9, .T. ) ;
#296 = CIRCLE ( 'NONE', #169, 1.000000000000000000 ) ;
#297 = CARTESIAN_POINT ( 'NONE',  ( 0.0000000000000000000, 13.99999999999999800, 0.0000000000000000000 ) ) ;
#298 = DIRECTION ( 'NONE',  ( -0.0000000000000000000, -1.000000000000000000, -0.0000000000000000000 ) ) ;
#299 = DIRECTION ( 'NONE',  ( -0.0000000000000000000, -1.000000000000000000, -0.0000000000000000000 ) ) ;
#300 = CARTESIAN_POINT ( 'NONE',  ( 0.0000000000000000000, 13.70000000000000100, 0.0000000000000000000 ) ) ;
#301 = CARTESIAN_POINT ( 'NONE',  ( 1.224646799147353200E-016, 0.0000000000000000000, 1.000000000000000000 ) ) ;
#302 = CARTESIAN_POINT ( 'NONE',  ( 0.0000000000000000000, 13.00000000000000200, 0.0000000000000000000 ) ) ;
#303 = FACE_OUTER_BOUND ( 'NONE', #293, .T. ) ;
#304 = AXIS2_PLACEMENT_3D ( 'NONE', #52, #298, #355 ) ;
#305 = ORIENTED_EDGE ( 'NONE', *, *, #63, .F. ) ;
#306 = EDGE_LOOP ( 'NONE', ( #2, #107, #224, #336 ) ) ;
#307 = EDGE_LOOP ( 'NONE', ( #176, #289, #114, #344 ) ) ;
#308 = CARTESIAN_POINT ( 'NONE',  ( 0.0000000000000000000, 13.99999999999999800, 0.0000000000000000000 ) ) ;
#309 = FILL_AREA_STYLE_COLOUR ( '', #198 ) ;
#310 = VERTEX_POINT ( 'NONE', #101 ) ;
#311 = DIRECTION ( 'NONE',  ( 0.0000000000000000000, 0.0000000000000000000, -1.000000000000000000 ) ) ;
#312 = EDGE_CURVE ( 'NONE', #229, #162, #209, .T. ) ;
#313 = LINE ( 'NONE', #253, #133 ) ;
#314 = DIRECTION ( 'NONE',  ( -0.0000000000000000000, -1.000000000000000000, -0.0000000000000000000 ) ) ;
#315 = PRODUCT_DEFINITION_CONTEXT ( 'detailed design', #284, 'design' ) ;
#316 = APPLICATION_CONTEXT ( 'automotive_design' ) ;
#317 = ADVANCED_FACE ( 'NONE', ( #303 ), #102, .T. ) ;
#318 = SURFACE_STYLE_USAGE ( .BOTH. , #165 ) ;
#319 = ADVANCED_FACE ( 'NONE', ( #118 ), #147, .T. ) ;
#320 = AXIS2_PLACEMENT_3D ( 'NONE', #281, #242, #311 ) ;
#321 = ORIENTED_EDGE ( 'NONE', *, *, #330, .F. ) ;
#322 = ADVANCED_FACE ( 'NONE', ( #48 ), #138, .T. ) ;
#323 = SURFACE_STYLE_FILL_AREA ( #282 ) ;
#324 = PRESENTATION_LAYER_ASSIGNMENT (  '', '', ( #64 ) ) ;
#325 = CARTESIAN_POINT ( 'NONE',  ( 0.0000000000000000000, 6.999999999999999100, -1.000000000000000000 ) ) ;
#326 = ORIENTED_EDGE ( 'NONE', *, *, #152, .F. ) ;
#327 = DIRECTION ( 'NONE',  ( 0.0000000000000000000, 0.0000000000000000000, -1.000000000000000000 ) ) ;
#328 = CARTESIAN_POINT ( 'NONE',  ( 9.184850993605152100E-017, 0.0000000000000000000, -0.5000000000000004400 ) ) ;
#329 = DIRECTION ( 'NONE',  ( -0.0000000000000000000, -1.000000000000000000, -0.0000000000000000000 ) ) ;
#330 = EDGE_CURVE ( 'NONE', #191, #86, #82, .T. ) ;
#331 = EDGE_CURVE ( 'NONE', #86, #191, #187, .T. ) ;
#332 = FACE_OUTER_BOUND ( 'NONE', #248, .T. ) ;
#333 = CARTESIAN_POINT ( 'NONE',  ( 0.0000000000000000000, 13.99999999999999800, 1.326239569296599100 ) ) ;
#334 = DIRECTION ( 'NONE',  ( 0.0000000000000000000, 0.0000000000000000000, -1.000000000000000000 ) ) ;
#335 = DIRECTION ( 'NONE',  ( -0.0000000000000000000, -1.000000000000000000, -0.0000000000000000000 ) ) ;
#336 = ORIENTED_EDGE ( 'NONE', *, *, #173, .F. ) ;
#337 = CIRCLE ( 'NONE', #62, 0.6000000000000000900 ) ;
#338 = AXIS2_PLACEMENT_3D ( 'NONE', #190, #36, #7 ) ;
#339 = CARTESIAN_POINT ( 'NONE',  ( 0.0000000000000000000, 0.0000000000000000000, 0.0000000000000000000 ) ) ;
#340 = DIRECTION ( 'NONE',  ( 0.0000000000000000000, 1.000000000000000000, 0.0000000000000000000 ) ) ;
#341 = ORIENTED_EDGE ( 'NONE', *, *, #10, .F. ) ;
#342 = DIRECTION ( 'NONE',  ( 0.0000000000000000000, 1.000000000000000000, 0.0000000000000000000 ) ) ;
#343 = PRESENTATION_LAYER_ASSIGNMENT (  '', '', ( #179 ) ) ;
#344 = ORIENTED_EDGE ( 'NONE', *, *, #196, .F. ) ;
#345 = LINE ( 'NONE', #222, #223 ) ;
#346 =( GEOMETRIC_REPRESENTATION_CONTEXT ( 3 ) GLOBAL_UNCERTAINTY_ASSIGNED_CONTEXT ( ( #33 ) ) GLOBAL_UNIT_ASSIGNED_CONTEXT ( ( #25, #227, #122 ) ) REPRESENTATION_CONTEXT ( 'NONE', 'WORKASPACE' ) );
#347 = CIRCLE ( 'NONE', #250, 2.250000000000000000 ) ;
#348 = ORIENTED_EDGE ( 'NONE', *, *, #213, .F. ) ;
#349 = ORIENTED_EDGE ( 'NONE', *, *, #262, .T. ) ;
#350 = PRODUCT_DEFINITION ( 'UNKNOWN', '', #356, #315 ) ;
#351 = ORIENTED_EDGE ( 'NONE', *, *, #27, .T. ) ;
#352 = ADVANCED_FACE ( 'NONE', ( #368 ), #278, .T. ) ;
#353 = CARTESIAN_POINT ( 'NONE',  ( 0.0000000000000000000, 0.0000000000000000000, 0.0000000000000000000 ) ) ;
#354 = FACE_OUTER_BOUND ( 'NONE', #24, .T. ) ;
#355 = DIRECTION ( 'NONE',  ( 0.0000000000000000000, 0.0000000000000000000, -1.000000000000000000 ) ) ;
#356 = PRODUCT_DEFINITION_FORMATION_WITH_SPECIFIED_SOURCE ( 'ANY', '', #90, .NOT_KNOWN. ) ;
#357 = CIRCLE ( 'NONE', #212, 1.326239569296599100 ) ;
#358 = PLANE ( 'NONE',  #29 ) ;
#359 = AXIS2_PLACEMENT_3D ( 'NONE', #263, #299, #327 ) ;
#360 = DIRECTION ( 'NONE',  ( -0.0000000000000000000, -1.000000000000000000, -0.0000000000000000000 ) ) ;
#361 = DIRECTION ( 'NONE',  ( 0.0000000000000000000, 0.7071067811865500200, 0.7071067811865451300 ) ) ;
#362 = EDGE_LOOP ( 'NONE', ( #185, #66, #219, #51 ) ) ;
#363 = DIRECTION ( 'NONE',  ( 0.0000000000000000000, 0.0000000000000000000, 1.000000000000000000 ) ) ;
#364 = ADVANCED_BREP_SHAPE_REPRESENTATION ( '42746~0', ( #172, #121 ), #43 ) ;
#365 = CLOSED_SHELL ( 'NONE', ( #352, #237, #116, #246, #249, #317, #272, #319, #268, #143, #130, #322, #366 ) ) ;
#366 = ADVANCED_FACE ( 'NONE', ( #252 ), #115, .T. ) ;
#367 = EDGE_CURVE ( 'NONE', #220, #270, #337, .T. ) ;
#368 = FACE_OUTER_BOUND ( 'NONE', #170, .T. ) ;
#369 = CARTESIAN_POINT ( 'NONE',  ( 0.0000000000000000000, 13.00000000000000200, -2.250000000000000000 ) ) ;
#370 = CARTESIAN_POINT ( 'NONE',  ( 1.672649730810372700, 13.99999999999999800, 0.0000000000000000000 ) ) ;
#371 = ORIENTED_EDGE ( 'NONE', *, *, #286, .T. ) ;
#372 = AXIS2_PLACEMENT_3D ( 'NONE', #135, #136, #85 ) ;
ENDSEC;
END-ISO-10303-21;
