ISO-10303-21;
HEADER;
FILE_DESCRIPTION (( 'STEP AP214' ),
    '1' );
FILE_NAME ('42739~0.STEP',
    '2017-07-04T09:06:02',
    ( '' ),
    ( '' ),
    'SwSTEP 2.0',
    'SolidWorks 2016',
    '' );
FILE_SCHEMA (( 'AUTOMOTIVE_DESIGN' ));
ENDSEC;

DATA;
#1 = CARTESIAN_POINT ( 'NONE',  ( 2.263058382549594900E-016, 13.69999999999999900, 1.645854811567261100 ) ) ;
#2 = SURFACE_SIDE_STYLE ('',( #130 ) ) ;
#3 = CIRCLE ( 'NONE', #260, 1.645854811567261100 ) ;
#4 =( LENGTH_UNIT ( ) NAMED_UNIT ( * ) SI_UNIT ( .MILLI., .METRE. ) );
#5 = PRODUCT_DEFINITION_FORMATION_WITH_SPECIFIED_SOURCE ( 'ANY', '', #11, .NOT_KNOWN. ) ;
#6 = DIRECTION ( 'NONE',  ( -0.0000000000000000000, -1.000000000000000000, -0.0000000000000000000 ) ) ;
#7 = EDGE_CURVE ( 'NONE', #331, #63, #3, .T. ) ;
#8 = VERTEX_POINT ( 'NONE', #116 ) ;
#9 = CIRCLE ( 'NONE', #344, 1.000000000000000000 ) ;
#10 = LINE ( 'NONE', #288, #329 ) ;
#11 = PRODUCT ( '42739~0', '42739~0', '', ( #170 ) ) ;
#12 = ORIENTED_EDGE ( 'NONE', *, *, #64, .F. ) ;
#13 = AXIS2_PLACEMENT_3D ( 'NONE', #66, #228, #355 ) ;
#14 = CARTESIAN_POINT ( 'NONE',  ( 0.0000000000000000000, 13.99999999999999800, 1.126239569296599000 ) ) ;
#15 = CARTESIAN_POINT ( 'NONE',  ( 0.0000000000000000000, 7.000000000000000000, -2.049999999999999800 ) ) ;
#16 = PLANE ( 'NONE',  #294 ) ;
#17 = DIRECTION ( 'NONE',  ( 0.0000000000000000000, 0.0000000000000000000, -1.000000000000000000 ) ) ;
#18 = DIRECTION ( 'NONE',  ( -0.0000000000000000000, -1.000000000000000000, -0.0000000000000000000 ) ) ;
#19 = MANIFOLD_SOLID_BREP ( 'Verrundung1', #267 ) ;
#20 = VECTOR ( 'NONE', #323, 1000.000000000000000 ) ;
#21 = ORIENTED_EDGE ( 'NONE', *, *, #197, .F. ) ;
#22 = PRODUCT_DEFINITION_CONTEXT ( 'detailed design', #149, 'design' ) ;
#23 = ORIENTED_EDGE ( 'NONE', *, *, #342, .T. ) ;
#24 = EDGE_LOOP ( 'NONE', ( #23, #232, #102, #176 ) ) ;
#25 = CIRCLE ( 'NONE', #56, 1.126239569296599000 ) ;
#26 = FACE_OUTER_BOUND ( 'NONE', #61, .T. ) ;
#27 =( LENGTH_UNIT ( ) NAMED_UNIT ( * ) SI_UNIT ( .MILLI., .METRE. ) );
#28 = AXIS2_PLACEMENT_3D ( 'NONE', #42, #259, #330 ) ;
#29 = EDGE_CURVE ( 'NONE', #163, #150, #121, .T. ) ;
#30 = ORIENTED_EDGE ( 'NONE', *, *, #29, .F. ) ;
#31 = CARTESIAN_POINT ( 'NONE',  ( 2.510525938252073700E-016, 7.000000000000000000, 2.049999999999999800 ) ) ;
#32 = UNCERTAINTY_MEASURE_WITH_UNIT (LENGTH_MEASURE( 1.000000000000000100E-005 ), #114, 'distance_accuracy_value', 'NONE');
#33 = DIRECTION ( 'NONE',  ( -0.0000000000000000000, -1.000000000000000000, -0.0000000000000000000 ) ) ;
#34 = DIRECTION ( 'NONE',  ( 0.0000000000000000000, 1.000000000000000000, 0.0000000000000000000 ) ) ;
#35 = CIRCLE ( 'NONE', #316, 2.049999999999999800 ) ;
#36 = DIRECTION ( 'NONE',  ( 8.659560562354918100E-017, 0.7071067811865489100, -0.7071067811865462400 ) ) ;
#37 = ORIENTED_EDGE ( 'NONE', *, *, #287, .F. ) ;
#38 = DIRECTION ( 'NONE',  ( 0.0000000000000000000, 0.0000000000000000000, -1.000000000000000000 ) ) ;
#39 =( NAMED_UNIT ( * ) SI_UNIT ( $, .STERADIAN. ) SOLID_ANGLE_UNIT ( ) );
#40 = CIRCLE ( 'NONE', #370, 2.049999999999999800 ) ;
#41 = ORIENTED_EDGE ( 'NONE', *, *, #78, .F. ) ;
#42 = CARTESIAN_POINT ( 'NONE',  ( 0.0000000000000000000, 0.0000000000000000000, 0.0000000000000000000 ) ) ;
#43 = EDGE_CURVE ( 'NONE', #347, #318, #366, .T. ) ;
#44 = CARTESIAN_POINT ( 'NONE',  ( 0.0000000000000000000, 13.69999999999999900, -1.645854811567261100 ) ) ;
#45 = LINE ( 'NONE', #307, #206 ) ;
#46 = CIRCLE ( 'NONE', #268, 1.645854811567261100 ) ;
#47 = CARTESIAN_POINT ( 'NONE',  ( 9.184850993605152100E-017, 0.0000000000000000000, -0.5000000000000004400 ) ) ;
#48 = EDGE_LOOP ( 'NONE', ( #158, #291, #151, #364 ) ) ;
#49 = DIRECTION ( 'NONE',  ( 0.0000000000000000000, 1.000000000000000000, 0.0000000000000000000 ) ) ;
#50 = ADVANCED_FACE ( 'NONE', ( #26 ), #229, .T. ) ;
#51 =( GEOMETRIC_REPRESENTATION_CONTEXT ( 3 ) GLOBAL_UNCERTAINTY_ASSIGNED_CONTEXT ( ( #239 ) ) GLOBAL_UNIT_ASSIGNED_CONTEXT ( ( #27, #348, #285 ) ) REPRESENTATION_CONTEXT ( 'NONE', 'WORKASPACE' ) );
#52 = DIRECTION ( 'NONE',  ( 0.0000000000000000000, 0.0000000000000000000, 1.000000000000000000 ) ) ;
#53 = ADVANCED_FACE ( 'NONE', ( #207 ), #312, .T. ) ;
#54 = ADVANCED_FACE ( 'NONE', ( #185 ), #188, .T. ) ;
#55 = ADVANCED_FACE ( 'NONE', ( #196 ), #125, .T. ) ;
#56 = AXIS2_PLACEMENT_3D ( 'NONE', #160, #273, #52 ) ;
#57 = TOROIDAL_SURFACE ( 'NONE', #117, 1.126239569296599000, 0.5999999999999999800 ) ;
#58 = ORIENTED_EDGE ( 'NONE', *, *, #138, .F. ) ;
#59 =( NAMED_UNIT ( * ) SI_UNIT ( $, .STERADIAN. ) SOLID_ANGLE_UNIT ( ) );
#60 = CIRCLE ( 'NONE', #129, 2.049999999999999800 ) ;
#61 = EDGE_LOOP ( 'NONE', ( #341, #218 ) ) ;
#62 = PLANE ( 'NONE',  #90 ) ;
#63 = VERTEX_POINT ( 'NONE', #1 ) ;
#64 = EDGE_CURVE ( 'NONE', #368, #100, #230, .T. ) ;
#65 = VECTOR ( 'NONE', #18, 1000.000000000000000 ) ;
#66 = CARTESIAN_POINT ( 'NONE',  ( 0.0000000000000000000, 6.999999999999999100, 0.0000000000000000000 ) ) ;
#67 = VERTEX_POINT ( 'NONE', #322 ) ;
#68 = MECHANICAL_DESIGN_GEOMETRIC_PRESENTATION_REPRESENTATION (  '', ( #99 ), #167 ) ;
#69 = CARTESIAN_POINT ( 'NONE',  ( 0.0000000000000000000, 7.000000000000000000, 0.0000000000000000000 ) ) ;
#70 = CONICAL_SURFACE ( 'NONE', #219, 0.5000000000000004400, 0.7853981633974465000 ) ;
#71 = EDGE_LOOP ( 'NONE', ( #12, #144, #245, #266 ) ) ;
#72 = AXIS2_PLACEMENT_3D ( 'NONE', #152, #92, #325 ) ;
#73 = PRODUCT_DEFINITION_SHAPE ( 'NONE', 'NONE',  #174 ) ;
#74 = CIRCLE ( 'NONE', #362, 0.6000000000000000900 ) ;
#75 = AXIS2_PLACEMENT_3D ( 'NONE', #310, #194, #168 ) ;
#76 = EDGE_LOOP ( 'NONE', ( #58, #306, #231, #293 ) ) ;
#77 = CARTESIAN_POINT ( 'NONE',  ( 0.0000000000000000000, 13.00000000000000200, 0.0000000000000000000 ) ) ;
#78 = EDGE_CURVE ( 'NONE', #63, #331, #46, .T. ) ;
#79 = ADVANCED_FACE ( 'NONE', ( #352 ), #360, .T. ) ;
#80 = DIRECTION ( 'NONE',  ( 0.0000000000000000000, 0.0000000000000000000, -1.000000000000000000 ) ) ;
#81 = ORIENTED_EDGE ( 'NONE', *, *, #7, .T. ) ;
#82 = DIRECTION ( 'NONE',  ( 0.0000000000000000000, 0.0000000000000000000, -1.000000000000000000 ) ) ;
#83 = DIRECTION ( 'NONE',  ( 0.0000000000000000000, 0.0000000000000000000, -1.000000000000000000 ) ) ;
#84 = EDGE_LOOP ( 'NONE', ( #308, #284, #132, #30 ) ) ;
#85 = DIRECTION ( 'NONE',  ( -0.0000000000000000000, -1.000000000000000000, -0.0000000000000000000 ) ) ;
#86 = AXIS2_PLACEMENT_3D ( 'NONE', #365, #241, #103 ) ;
#87 = ORIENTED_EDGE ( 'NONE', *, *, #127, .F. ) ;
#88 = VERTEX_POINT ( 'NONE', #175 ) ;
#89 = DIRECTION ( 'NONE',  ( -0.0000000000000000000, -1.000000000000000000, -0.0000000000000000000 ) ) ;
#90 = AXIS2_PLACEMENT_3D ( 'NONE', #198, #34, #354 ) ;
#91 = APPLICATION_PROTOCOL_DEFINITION ( 'draft international standard', 'automotive_design', 1998, #149 ) ;
#92 = DIRECTION ( 'NONE',  ( 1.000000000000000000, -0.0000000000000000000, 1.224646799147353200E-016 ) ) ;
#93 = DIRECTION ( 'NONE',  ( 0.0000000000000000000, 0.0000000000000000000, 1.000000000000000000 ) ) ;
#94 = DIRECTION ( 'NONE',  ( 0.0000000000000000000, 0.7071067811865489100, 0.7071067811865462400 ) ) ;
#95 = EDGE_CURVE ( 'NONE', #63, #368, #10, .T. ) ;
#96 = CIRCLE ( 'NONE', #13, 1.000000000000000000 ) ;
#97 = ORIENTED_EDGE ( 'NONE', *, *, #333, .F. ) ;
#98 = ORIENTED_EDGE ( 'NONE', *, *, #313, .F. ) ;
#99 = STYLED_ITEM ( 'NONE', ( #328 ), #327 ) ;
#100 = VERTEX_POINT ( 'NONE', #31 ) ;
#101 = DIRECTION ( 'NONE',  ( 0.0000000000000000000, 1.000000000000000000, 0.0000000000000000000 ) ) ;
#102 = ORIENTED_EDGE ( 'NONE', *, *, #221, .T. ) ;
#103 = DIRECTION ( 'NONE',  ( 0.0000000000000000000, 0.0000000000000000000, 1.000000000000000000 ) ) ;
#104 = CARTESIAN_POINT ( 'NONE',  ( 0.0000000000000000000, 0.0000000000000000000, 0.5000000000000004400 ) ) ;
#105 = CIRCLE ( 'NONE', #216, 2.049999999999999800 ) ;
#106 = DIRECTION ( 'NONE',  ( 0.0000000000000000000, 0.0000000000000000000, 1.000000000000000000 ) ) ;
#107 = ADVANCED_FACE ( 'NONE', ( #346 ), #171, .T. ) ;
#108 = EDGE_CURVE ( 'NONE', #347, #150, #243, .T. ) ;
#109 = DIRECTION ( 'NONE',  ( 0.0000000000000000000, 0.0000000000000000000, 1.000000000000000000 ) ) ;
#110 = CIRCLE ( 'NONE', #72, 0.6000000000000000900 ) ;
#111 = EDGE_CURVE ( 'NONE', #172, #100, #40, .T. ) ;
#112 = ORIENTED_EDGE ( 'NONE', *, *, #7, .F. ) ;
#113 = ORIENTED_EDGE ( 'NONE', *, *, #111, .T. ) ;
#114 =( LENGTH_UNIT ( ) NAMED_UNIT ( * ) SI_UNIT ( .MILLI., .METRE. ) );
#115 = EDGE_LOOP ( 'NONE', ( #336, #87 ) ) ;
#116 = CARTESIAN_POINT ( 'NONE',  ( 1.224646799147353200E-016, 6.999999999999999100, 1.000000000000000000 ) ) ;
#117 = AXIS2_PLACEMENT_3D ( 'NONE', #253, #326, #256 ) ;
#118 = DIRECTION ( 'NONE',  ( 0.0000000000000000000, 0.0000000000000000000, -1.000000000000000000 ) ) ;
#119 = CARTESIAN_POINT ( 'NONE',  ( 0.0000000000000000000, 7.000000000000000000, 0.0000000000000000000 ) ) ;
#120 = LINE ( 'NONE', #184, #199 ) ;
#121 = CIRCLE ( 'NONE', #159, 1.000000000000000000 ) ;
#122 = ORIENTED_EDGE ( 'NONE', *, *, #153, .T. ) ;
#123 = PRESENTATION_LAYER_ASSIGNMENT (  '', '', ( #99 ) ) ;
#124 = DIRECTION ( 'NONE',  ( -1.000000000000000000, 0.0000000000000000000, 0.0000000000000000000 ) ) ;
#125 = CYLINDRICAL_SURFACE ( 'NONE', #332, 1.000000000000000000 ) ;
#126 = EDGE_LOOP ( 'NONE', ( #278, #247 ) ) ;
#127 = EDGE_CURVE ( 'NONE', #8, #215, #96, .T. ) ;
#128 = DIRECTION ( 'NONE',  ( 0.0000000000000000000, 0.0000000000000000000, 1.000000000000000000 ) ) ;
#129 = AXIS2_PLACEMENT_3D ( 'NONE', #252, #89, #145 ) ;
#130 = SURFACE_STYLE_FILL_AREA ( #290 ) ;
#131 = DIRECTION ( 'NONE',  ( -0.0000000000000000000, -1.000000000000000000, -0.0000000000000000000 ) ) ;
#132 = ORIENTED_EDGE ( 'NONE', *, *, #108, .T. ) ;
#133 =( GEOMETRIC_REPRESENTATION_CONTEXT ( 3 ) GLOBAL_UNCERTAINTY_ASSIGNED_CONTEXT ( ( #161 ) ) GLOBAL_UNIT_ASSIGNED_CONTEXT ( ( #4, #173, #39 ) ) REPRESENTATION_CONTEXT ( 'NONE', 'WORKASPACE' ) );
#134 = CARTESIAN_POINT ( 'NONE',  ( 2.510525938252073700E-016, 13.00000000000000200, 2.049999999999999800 ) ) ;
#135 = VECTOR ( 'NONE', #220, 1000.000000000000000 ) ;
#136 = AXIS2_PLACEMENT_3D ( 'NONE', #240, #367, #128 ) ;
#137 = ADVANCED_FACE ( 'NONE', ( #265 ), #62, .T. ) ;
#138 = EDGE_CURVE ( 'NONE', #8, #150, #335, .T. ) ;
#139 = EDGE_LOOP ( 'NONE', ( #113, #271 ) ) ;
#140 = SURFACE_STYLE_USAGE ( .BOTH. , #2 ) ;
#141 = DIRECTION ( 'NONE',  ( 0.0000000000000000000, 0.0000000000000000000, -1.000000000000000000 ) ) ;
#142 = CIRCLE ( 'NONE', #86, 1.126239569296599000 ) ;
#143 = AXIS2_PLACEMENT_3D ( 'NONE', #246, #212, #80 ) ;
#144 = ORIENTED_EDGE ( 'NONE', *, *, #372, .T. ) ;
#145 = DIRECTION ( 'NONE',  ( 0.0000000000000000000, 0.0000000000000000000, -1.000000000000000000 ) ) ;
#146 = CARTESIAN_POINT ( 'NONE',  ( 0.0000000000000000000, 0.0000000000000000000, 0.0000000000000000000 ) ) ;
#147 = AXIS2_PLACEMENT_3D ( 'NONE', #286, #283, #141 ) ;
#148 = SURFACE_SIDE_STYLE ('',( #154 ) ) ;
#149 = APPLICATION_CONTEXT ( 'automotive_design' ) ;
#150 = VERTEX_POINT ( 'NONE', #227 ) ;
#151 = ORIENTED_EDGE ( 'NONE', *, *, #221, .F. ) ;
#152 = CARTESIAN_POINT ( 'NONE',  ( 1.379245683612173700E-016, 13.39999999999999900, -1.126239569296599000 ) ) ;
#153 = EDGE_CURVE ( 'NONE', #331, #88, #110, .T. ) ;
#154 = SURFACE_STYLE_FILL_AREA ( #324 ) ;
#155 = EDGE_LOOP ( 'NONE', ( #224, #41, #340, #202 ) ) ;
#156 = AXIS2_PLACEMENT_3D ( 'NONE', #334, #131, #164 ) ;
#157 = DIRECTION ( 'NONE',  ( -0.0000000000000000000, -1.000000000000000000, -0.0000000000000000000 ) ) ;
#158 = ORIENTED_EDGE ( 'NONE', *, *, #244, .F. ) ;
#159 = AXIS2_PLACEMENT_3D ( 'NONE', #359, #300, #181 ) ;
#160 = CARTESIAN_POINT ( 'NONE',  ( 0.0000000000000000000, 13.99999999999999800, 0.0000000000000000000 ) ) ;
#161 = UNCERTAINTY_MEASURE_WITH_UNIT (LENGTH_MEASURE( 1.000000000000000100E-005 ), #4, 'distance_accuracy_value', 'NONE');
#162 = ADVANCED_FACE ( 'NONE', ( #257 ), #57, .T. ) ;
#163 = VERTEX_POINT ( 'NONE', #178 ) ;
#164 = DIRECTION ( 'NONE',  ( 0.0000000000000000000, 0.0000000000000000000, -1.000000000000000000 ) ) ;
#165 = CARTESIAN_POINT ( 'NONE',  ( 0.0000000000000000000, 0.0000000000000000000, 0.0000000000000000000 ) ) ;
#166 = ADVANCED_FACE ( 'NONE', ( #191 ), #179, .T. ) ;
#167 =( GEOMETRIC_REPRESENTATION_CONTEXT ( 3 ) GLOBAL_UNCERTAINTY_ASSIGNED_CONTEXT ( ( #32 ) ) GLOBAL_UNIT_ASSIGNED_CONTEXT ( ( #114, #345, #59 ) ) REPRESENTATION_CONTEXT ( 'NONE', 'WORKASPACE' ) );
#168 = DIRECTION ( 'NONE',  ( 1.000000000000000000, 0.0000000000000000000, 0.0000000000000000000 ) ) ;
#169 = EDGE_CURVE ( 'NONE', #100, #172, #105, .T. ) ;
#170 = PRODUCT_CONTEXT ( 'NONE', #319, 'mechanical' ) ;
#171 = CONICAL_SURFACE ( 'NONE', #263, 2.049999999999999800, 0.5235987755983002600 ) ;
#172 = VERTEX_POINT ( 'NONE', #15 ) ;
#173 =( NAMED_UNIT ( * ) PLANE_ANGLE_UNIT ( ) SI_UNIT ( $, .RADIAN. ) );
#174 = PRODUCT_DEFINITION ( 'UNKNOWN', '', #5, #22 ) ;
#175 = CARTESIAN_POINT ( 'NONE',  ( 1.697418255229645800E-016, 13.99999999999999800, -1.126239569296599000 ) ) ;
#176 = ORIENTED_EDGE ( 'NONE', *, *, #298, .F. ) ;
#177 = CARTESIAN_POINT ( 'NONE',  ( 0.0000000000000000000, 13.69999999999999900, 0.0000000000000000000 ) ) ;
#178 = CARTESIAN_POINT ( 'NONE',  ( 0.0000000000000000000, 0.5000000000000014400, -1.000000000000000000 ) ) ;
#179 = CONICAL_SURFACE ( 'NONE', #201, 0.5000000000000004400, 0.7853981633974465000 ) ;
#180 = DIRECTION ( 'NONE',  ( 6.123233995736782100E-017, -0.8660254037844380400, 0.5000000000000012200 ) ) ;
#181 = DIRECTION ( 'NONE',  ( 0.0000000000000000000, 0.0000000000000000000, -1.000000000000000000 ) ) ;
#182 = PRESENTATION_STYLE_ASSIGNMENT (( #353 ) ) ;
#183 = CARTESIAN_POINT ( 'NONE',  ( 6.123233995736772200E-017, 0.0000000000000000000, -0.5000000000000004400 ) ) ;
#184 = CARTESIAN_POINT ( 'NONE',  ( 0.0000000000000000000, 13.00000000000000200, -2.049999999999999800 ) ) ;
#185 = FACE_OUTER_BOUND ( 'NONE', #71, .T. ) ;
#186 = ORIENTED_EDGE ( 'NONE', *, *, #78, .T. ) ;
#187 = CARTESIAN_POINT ( 'NONE',  ( 0.0000000000000000000, 0.0000000000000000000, -1.000000000000000000 ) ) ;
#188 = CYLINDRICAL_SURFACE ( 'NONE', #351, 2.049999999999999800 ) ;
#189 = DIRECTION ( 'NONE',  ( -0.0000000000000000000, -1.000000000000000000, -0.0000000000000000000 ) ) ;
#190 = CARTESIAN_POINT ( 'NONE',  ( 2.510525938252073700E-016, 0.0000000000000000000, 2.049999999999999800 ) ) ;
#191 = FACE_OUTER_BOUND ( 'NONE', #48, .T. ) ;
#192 = APPLICATION_PROTOCOL_DEFINITION ( 'draft international standard', 'automotive_design', 1998, #319 ) ;
#193 = VERTEX_POINT ( 'NONE', #14 ) ;
#194 = DIRECTION ( 'NONE',  ( 0.0000000000000000000, 0.0000000000000000000, 1.000000000000000000 ) ) ;
#195 = DIRECTION ( 'NONE',  ( 0.0000000000000000000, 0.0000000000000000000, -1.000000000000000000 ) ) ;
#196 = FACE_OUTER_BOUND ( 'NONE', #24, .T. ) ;
#197 = EDGE_CURVE ( 'NONE', #63, #193, #74, .T. ) ;
#198 = CARTESIAN_POINT ( 'NONE',  ( 1.472649730810372500, 13.99999999999999800, 0.0000000000000000000 ) ) ;
#199 = VECTOR ( 'NONE', #269, 999.9999999999998900 ) ;
#200 = DIRECTION ( 'NONE',  ( -0.0000000000000000000, -1.000000000000000000, -0.0000000000000000000 ) ) ;
#201 = AXIS2_PLACEMENT_3D ( 'NONE', #146, #225, #303 ) ;
#202 = ORIENTED_EDGE ( 'NONE', *, *, #281, .F. ) ;
#203 = DIRECTION ( 'NONE',  ( -0.0000000000000000000, -1.000000000000000000, -0.0000000000000000000 ) ) ;
#204 = CARTESIAN_POINT ( 'NONE',  ( 0.0000000000000000000, 0.0000000000000000000, 0.5000000000000004400 ) ) ;
#205 = CARTESIAN_POINT ( 'NONE',  ( 0.0000000000000000000, 13.39999999999999900, 1.126239569296599000 ) ) ;
#206 = VECTOR ( 'NONE', #210, 1000.000000000000000 ) ;
#207 = FACE_OUTER_BOUND ( 'NONE', #237, .T. ) ;
#208 = ORIENTED_EDGE ( 'NONE', *, *, #313, .T. ) ;
#209 = TOROIDAL_SURFACE ( 'NONE', #136, 1.126239569296599000, 0.5999999999999999800 ) ;
#210 = DIRECTION ( 'NONE',  ( -0.0000000000000000000, -1.000000000000000000, -0.0000000000000000000 ) ) ;
#211 = ORIENTED_EDGE ( 'NONE', *, *, #304, .F. ) ;
#212 = DIRECTION ( 'NONE',  ( -0.0000000000000000000, -1.000000000000000000, -0.0000000000000000000 ) ) ;
#213 = FILL_AREA_STYLE_COLOUR ( '', #295 ) ;
#214 = FACE_BOUND ( 'NONE', #115, .T. ) ;
#215 = VERTEX_POINT ( 'NONE', #361 ) ;
#216 = AXIS2_PLACEMENT_3D ( 'NONE', #69, #157, #262 ) ;
#217 = AXIS2_PLACEMENT_3D ( 'NONE', #233, #203, #82 ) ;
#218 = ORIENTED_EDGE ( 'NONE', *, *, #244, .T. ) ;
#219 = AXIS2_PLACEMENT_3D ( 'NONE', #238, #49, #106 ) ;
#220 = DIRECTION ( 'NONE',  ( -0.0000000000000000000, -1.000000000000000000, -0.0000000000000000000 ) ) ;
#221 = EDGE_CURVE ( 'NONE', #150, #163, #9, .T. ) ;
#222 = CIRCLE ( 'NONE', #143, 1.000000000000000000 ) ;
#223 = VECTOR ( 'NONE', #94, 999.9999999999998900 ) ;
#224 = ORIENTED_EDGE ( 'NONE', *, *, #153, .F. ) ;
#225 = DIRECTION ( 'NONE',  ( 0.0000000000000000000, 1.000000000000000000, 0.0000000000000000000 ) ) ;
#226 = ORIENTED_EDGE ( 'NONE', *, *, #64, .T. ) ;
#227 = CARTESIAN_POINT ( 'NONE',  ( 1.224646799147353200E-016, 0.5000000000000014400, 1.000000000000000000 ) ) ;
#228 = DIRECTION ( 'NONE',  ( -0.0000000000000000000, -1.000000000000000000, -0.0000000000000000000 ) ) ;
#229 = PLANE ( 'NONE',  #356 ) ;
#230 = LINE ( 'NONE', #190, #135 ) ;
#231 = ORIENTED_EDGE ( 'NONE', *, *, #298, .T. ) ;
#232 = ORIENTED_EDGE ( 'NONE', *, *, #138, .T. ) ;
#233 = CARTESIAN_POINT ( 'NONE',  ( 0.0000000000000000000, 0.0000000000000000000, 0.0000000000000000000 ) ) ;
#234 = EDGE_CURVE ( 'NONE', #318, #163, #363, .T. ) ;
#235 = CARTESIAN_POINT ( 'NONE',  ( 0.0000000000000000000, 0.5000000000000014400, 0.0000000000000000000 ) ) ;
#236 = ORIENTED_EDGE ( 'NONE', *, *, #372, .F. ) ;
#237 = EDGE_LOOP ( 'NONE', ( #81, #292, #37, #98 ) ) ;
#238 = CARTESIAN_POINT ( 'NONE',  ( 0.0000000000000000000, 0.0000000000000000000, 0.0000000000000000000 ) ) ;
#239 = UNCERTAINTY_MEASURE_WITH_UNIT (LENGTH_MEASURE( 1.000000000000000100E-005 ), #27, 'distance_accuracy_value', 'NONE');
#240 = CARTESIAN_POINT ( 'NONE',  ( 0.0000000000000000000, 13.39999999999999900, 0.0000000000000000000 ) ) ;
#241 = DIRECTION ( 'NONE',  ( 0.0000000000000000000, 1.000000000000000000, 0.0000000000000000000 ) ) ;
#242 = FACE_OUTER_BOUND ( 'NONE', #139, .T. ) ;
#243 = LINE ( 'NONE', #204, #223 ) ;
#244 = EDGE_CURVE ( 'NONE', #318, #347, #371, .T. ) ;
#245 = ORIENTED_EDGE ( 'NONE', *, *, #304, .T. ) ;
#246 = CARTESIAN_POINT ( 'NONE',  ( 0.0000000000000000000, 6.999999999999999100, 0.0000000000000000000 ) ) ;
#247 = ORIENTED_EDGE ( 'NONE', *, *, #281, .T. ) ;
#248 = DIRECTION ( 'NONE',  ( -0.0000000000000000000, -1.000000000000000000, -0.0000000000000000000 ) ) ;
#249 = AXIS2_PLACEMENT_3D ( 'NONE', #277, #314, #280 ) ;
#250 = CARTESIAN_POINT ( 'NONE',  ( 0.0000000000000000000, 0.0000000000000000000, 0.0000000000000000000 ) ) ;
#251 = ORIENTED_EDGE ( 'NONE', *, *, #111, .F. ) ;
#252 = CARTESIAN_POINT ( 'NONE',  ( 0.0000000000000000000, 13.00000000000000200, 0.0000000000000000000 ) ) ;
#253 = CARTESIAN_POINT ( 'NONE',  ( 0.0000000000000000000, 13.39999999999999900, 0.0000000000000000000 ) ) ;
#254 = MECHANICAL_DESIGN_GEOMETRIC_PRESENTATION_REPRESENTATION (  '', ( #309 ), #133 ) ;
#255 = FILL_AREA_STYLE_COLOUR ( '', #321 ) ;
#256 = DIRECTION ( 'NONE',  ( 0.0000000000000000000, 0.0000000000000000000, 1.000000000000000000 ) ) ;
#257 = FACE_OUTER_BOUND ( 'NONE', #155, .T. ) ;
#258 = EDGE_LOOP ( 'NONE', ( #112, #122, #97, #21 ) ) ;
#259 = DIRECTION ( 'NONE',  ( -0.0000000000000000000, -1.000000000000000000, -0.0000000000000000000 ) ) ;
#260 = AXIS2_PLACEMENT_3D ( 'NONE', #177, #200, #93 ) ;
#261 = CARTESIAN_POINT ( 'NONE',  ( 0.0000000000000000000, 0.0000000000000000000, 0.0000000000000000000 ) ) ;
#262 = DIRECTION ( 'NONE',  ( 0.0000000000000000000, 0.0000000000000000000, -1.000000000000000000 ) ) ;
#263 = AXIS2_PLACEMENT_3D ( 'NONE', #299, #6, #118 ) ;
#264 = CARTESIAN_POINT ( 'NONE',  ( 1.000000000000000000, 6.999999999999999100, 0.0000000000000000000 ) ) ;
#265 = FACE_OUTER_BOUND ( 'NONE', #126, .T. ) ;
#266 = ORIENTED_EDGE ( 'NONE', *, *, #169, .F. ) ;
#267 = CLOSED_SHELL ( 'NONE', ( #282, #166, #55, #79, #53, #137, #107, #54, #279, #317, #50, #369, #162 ) ) ;
#268 = AXIS2_PLACEMENT_3D ( 'NONE', #320, #85, #109 ) ;
#269 = DIRECTION ( 'NONE',  ( 0.0000000000000000000, -0.8660254037844380400, -0.5000000000000012200 ) ) ;
#270 = LINE ( 'NONE', #187, #65 ) ;
#271 = ORIENTED_EDGE ( 'NONE', *, *, #169, .T. ) ;
#272 = EDGE_LOOP ( 'NONE', ( #302, #186, #208, #236 ) ) ;
#273 = DIRECTION ( 'NONE',  ( 0.0000000000000000000, 1.000000000000000000, 0.0000000000000000000 ) ) ;
#274 = DIRECTION ( 'NONE',  ( 0.0000000000000000000, 0.0000000000000000000, -1.000000000000000000 ) ) ;
#275 = DIRECTION ( 'NONE',  ( 0.0000000000000000000, -1.000000000000000000, -0.0000000000000000000 ) ) ;
#276 = PRODUCT_RELATED_PRODUCT_CATEGORY ( 'part', '', ( #11 ) ) ;
#277 = CARTESIAN_POINT ( 'NONE',  ( 0.0000000000000000000, 13.00000000000000200, 0.0000000000000000000 ) ) ;
#278 = ORIENTED_EDGE ( 'NONE', *, *, #333, .T. ) ;
#279 = ADVANCED_FACE ( 'NONE', ( #242, #214 ), #16, .T. ) ;
#280 = DIRECTION ( 'NONE',  ( 0.0000000000000000000, 0.0000000000000000000, -1.000000000000000000 ) ) ;
#281 = EDGE_CURVE ( 'NONE', #88, #193, #142, .T. ) ;
#282 = ADVANCED_FACE ( 'NONE', ( #301 ), #209, .T. ) ;
#283 = DIRECTION ( 'NONE',  ( -0.0000000000000000000, -1.000000000000000000, -0.0000000000000000000 ) ) ;
#284 = ORIENTED_EDGE ( 'NONE', *, *, #43, .F. ) ;
#285 =( NAMED_UNIT ( * ) SI_UNIT ( $, .STERADIAN. ) SOLID_ANGLE_UNIT ( ) );
#286 = CARTESIAN_POINT ( 'NONE',  ( 0.0000000000000000000, 0.0000000000000000000, 0.0000000000000000000 ) ) ;
#287 = EDGE_CURVE ( 'NONE', #67, #368, #35, .T. ) ;
#288 = CARTESIAN_POINT ( 'NONE',  ( 2.510525938252073700E-016, 13.00000000000000200, 2.049999999999999800 ) ) ;
#289 = CYLINDRICAL_SURFACE ( 'NONE', #156, 1.000000000000000000 ) ;
#290 = FILL_AREA_STYLE ('',( #213 ) ) ;
#291 = ORIENTED_EDGE ( 'NONE', *, *, #234, .T. ) ;
#292 = ORIENTED_EDGE ( 'NONE', *, *, #95, .T. ) ;
#293 = ORIENTED_EDGE ( 'NONE', *, *, #29, .T. ) ;
#294 = AXIS2_PLACEMENT_3D ( 'NONE', #264, #275, #17 ) ;
#295 = COLOUR_RGB ( '',0.7529411764705882200, 0.7529411764705882200, 0.7529411764705882200 ) ;
#296 = CARTESIAN_POINT ( 'NONE',  ( 1.224646799147353200E-016, 0.0000000000000000000, 1.000000000000000000 ) ) ;
#297 = EDGE_LOOP ( 'NONE', ( #337, #226, #251, #211 ) ) ;
#298 = EDGE_CURVE ( 'NONE', #215, #163, #270, .T. ) ;
#299 = CARTESIAN_POINT ( 'NONE',  ( 0.0000000000000000000, 13.00000000000000200, 0.0000000000000000000 ) ) ;
#300 = DIRECTION ( 'NONE',  ( 0.0000000000000000000, 1.000000000000000000, 0.0000000000000000000 ) ) ;
#301 = FACE_OUTER_BOUND ( 'NONE', #258, .T. ) ;
#302 = ORIENTED_EDGE ( 'NONE', *, *, #95, .F. ) ;
#303 = DIRECTION ( 'NONE',  ( 0.0000000000000000000, 0.0000000000000000000, 1.000000000000000000 ) ) ;
#304 = EDGE_CURVE ( 'NONE', #67, #172, #45, .T. ) ;
#305 = DIRECTION ( 'NONE',  ( 0.0000000000000000000, 0.0000000000000000000, 1.000000000000000000 ) ) ;
#306 = ORIENTED_EDGE ( 'NONE', *, *, #127, .T. ) ;
#307 = CARTESIAN_POINT ( 'NONE',  ( 0.0000000000000000000, 0.0000000000000000000, -2.049999999999999800 ) ) ;
#308 = ORIENTED_EDGE ( 'NONE', *, *, #234, .F. ) ;
#309 = STYLED_ITEM ( 'NONE', ( #182 ), #19 ) ;
#310 = CARTESIAN_POINT ( 'NONE',  ( 0.0000000000000000000, 0.0000000000000000000, 0.0000000000000000000 ) ) ;
#311 = VECTOR ( 'NONE', #36, 999.9999999999998900 ) ;
#312 = CONICAL_SURFACE ( 'NONE', #249, 2.049999999999999800, 0.5235987755983002600 ) ;
#313 = EDGE_CURVE ( 'NONE', #331, #67, #120, .T. ) ;
#314 = DIRECTION ( 'NONE',  ( -0.0000000000000000000, -1.000000000000000000, -0.0000000000000000000 ) ) ;
#315 = FACE_OUTER_BOUND ( 'NONE', #76, .T. ) ;
#316 = AXIS2_PLACEMENT_3D ( 'NONE', #77, #338, #274 ) ;
#317 = ADVANCED_FACE ( 'NONE', ( #315 ), #289, .T. ) ;
#318 = VERTEX_POINT ( 'NONE', #47 ) ;
#319 = APPLICATION_CONTEXT ( 'automotive_design' ) ;
#320 = CARTESIAN_POINT ( 'NONE',  ( 0.0000000000000000000, 13.69999999999999900, 0.0000000000000000000 ) ) ;
#321 = COLOUR_RGB ( '',0.7529411764705882200, 0.7529411764705882200, 0.7529411764705882200 ) ;
#322 = CARTESIAN_POINT ( 'NONE',  ( 0.0000000000000000000, 13.00000000000000200, -2.049999999999999800 ) ) ;
#323 = DIRECTION ( 'NONE',  ( -0.0000000000000000000, -1.000000000000000000, -0.0000000000000000000 ) ) ;
#324 = FILL_AREA_STYLE ('',( #255 ) ) ;
#325 = DIRECTION ( 'NONE',  ( 1.224646799147352700E-016, 0.0000000000000000000, -1.000000000000000000 ) ) ;
#326 = DIRECTION ( 'NONE',  ( 0.0000000000000000000, 1.000000000000000000, 0.0000000000000000000 ) ) ;
#327 = ADVANCED_BREP_SHAPE_REPRESENTATION ( '42739~0', ( #19, #75 ), #51 ) ;
#328 = PRESENTATION_STYLE_ASSIGNMENT (( #140 ) ) ;
#329 = VECTOR ( 'NONE', #180, 999.9999999999998900 ) ;
#330 = DIRECTION ( 'NONE',  ( 0.0000000000000000000, 0.0000000000000000000, -1.000000000000000000 ) ) ;
#331 = VERTEX_POINT ( 'NONE', #44 ) ;
#332 = AXIS2_PLACEMENT_3D ( 'NONE', #250, #248, #195 ) ;
#333 = EDGE_CURVE ( 'NONE', #193, #88, #25, .T. ) ;
#334 = CARTESIAN_POINT ( 'NONE',  ( 0.0000000000000000000, 0.0000000000000000000, 0.0000000000000000000 ) ) ;
#335 = LINE ( 'NONE', #296, #20 ) ;
#336 = ORIENTED_EDGE ( 'NONE', *, *, #342, .F. ) ;
#337 = ORIENTED_EDGE ( 'NONE', *, *, #287, .T. ) ;
#338 = DIRECTION ( 'NONE',  ( -0.0000000000000000000, -1.000000000000000000, -0.0000000000000000000 ) ) ;
#339 = DIRECTION ( 'NONE',  ( 0.0000000000000000000, -1.000000000000000000, -0.0000000000000000000 ) ) ;
#340 = ORIENTED_EDGE ( 'NONE', *, *, #197, .T. ) ;
#341 = ORIENTED_EDGE ( 'NONE', *, *, #43, .T. ) ;
#342 = EDGE_CURVE ( 'NONE', #215, #8, #222, .T. ) ;
#343 = FACE_OUTER_BOUND ( 'NONE', #84, .T. ) ;
#344 = AXIS2_PLACEMENT_3D ( 'NONE', #235, #101, #38 ) ;
#345 =( NAMED_UNIT ( * ) PLANE_ANGLE_UNIT ( ) SI_UNIT ( $, .RADIAN. ) );
#346 = FACE_OUTER_BOUND ( 'NONE', #272, .T. ) ;
#347 = VERTEX_POINT ( 'NONE', #104 ) ;
#348 =( NAMED_UNIT ( * ) PLANE_ANGLE_UNIT ( ) SI_UNIT ( $, .RADIAN. ) );
#349 = PRESENTATION_LAYER_ASSIGNMENT (  '', '', ( #309 ) ) ;
#350 = DIRECTION ( 'NONE',  ( 0.0000000000000000000, 0.0000000000000000000, -1.000000000000000000 ) ) ;
#351 = AXIS2_PLACEMENT_3D ( 'NONE', #165, #189, #350 ) ;
#352 = FACE_OUTER_BOUND ( 'NONE', #297, .T. ) ;
#353 = SURFACE_STYLE_USAGE ( .BOTH. , #148 ) ;
#354 = DIRECTION ( 'NONE',  ( 0.0000000000000000000, -0.0000000000000000000, 1.000000000000000000 ) ) ;
#355 = DIRECTION ( 'NONE',  ( 0.0000000000000000000, 0.0000000000000000000, -1.000000000000000000 ) ) ;
#356 = AXIS2_PLACEMENT_3D ( 'NONE', #261, #339, #83 ) ;
#357 = DIRECTION ( 'NONE',  ( 0.0000000000000000000, 0.0000000000000000000, -1.000000000000000000 ) ) ;
#358 = SHAPE_DEFINITION_REPRESENTATION ( #73, #327 ) ;
#359 = CARTESIAN_POINT ( 'NONE',  ( 0.0000000000000000000, 0.5000000000000014400, 0.0000000000000000000 ) ) ;
#360 = CYLINDRICAL_SURFACE ( 'NONE', #147, 2.049999999999999800 ) ;
#361 = CARTESIAN_POINT ( 'NONE',  ( 0.0000000000000000000, 6.999999999999999100, -1.000000000000000000 ) ) ;
#362 = AXIS2_PLACEMENT_3D ( 'NONE', #205, #124, #305 ) ;
#363 = LINE ( 'NONE', #183, #311 ) ;
#364 = ORIENTED_EDGE ( 'NONE', *, *, #108, .F. ) ;
#365 = CARTESIAN_POINT ( 'NONE',  ( 0.0000000000000000000, 13.99999999999999800, 0.0000000000000000000 ) ) ;
#366 = CIRCLE ( 'NONE', #217, 0.5000000000000004400 ) ;
#367 = DIRECTION ( 'NONE',  ( 0.0000000000000000000, 1.000000000000000000, 0.0000000000000000000 ) ) ;
#368 = VERTEX_POINT ( 'NONE', #134 ) ;
#369 = ADVANCED_FACE ( 'NONE', ( #343 ), #70, .T. ) ;
#370 = AXIS2_PLACEMENT_3D ( 'NONE', #119, #33, #357 ) ;
#371 = CIRCLE ( 'NONE', #28, 0.5000000000000004400 ) ;
#372 = EDGE_CURVE ( 'NONE', #368, #67, #60, .T. ) ;
ENDSEC;
END-ISO-10303-21;
