ISO-10303-21;
HEADER;
FILE_DESCRIPTION (( 'STEP AP214' ),
    '1' );
FILE_NAME ('38894~0.STEP',
    '2017-07-04T09:04:48',
    ( '' ),
    ( '' ),
    'SwSTEP 2.0',
    'SolidWorks 2016',
    '' );
FILE_SCHEMA (( 'AUTOMOTIVE_DESIGN' ));
ENDSEC;

DATA;
#1 = ORIENTED_EDGE ( 'NONE', *, *, #23, .T. ) ;
#2 = DIRECTION ( 'NONE',  ( -0.0000000000000000000, -1.000000000000000000, -0.0000000000000000000 ) ) ;
#3 = ORIENTED_EDGE ( 'NONE', *, *, #187, .F. ) ;
#4 = ORIENTED_EDGE ( 'NONE', *, *, #346, .T. ) ;
#5 = FILL_AREA_STYLE_COLOUR ( '', #113 ) ;
#6 = EDGE_CURVE ( 'NONE', #104, #139, #341, .T. ) ;
#7 = EDGE_CURVE ( 'NONE', #329, #256, #199, .T. ) ;
#8 = DIRECTION ( 'NONE',  ( 0.0000000000000000000, 1.000000000000000000, 0.0000000000000000000 ) ) ;
#9 = VECTOR ( 'NONE', #212, 1000.000000000000000 ) ;
#10 = FACE_OUTER_BOUND ( 'NONE', #184, .T. ) ;
#11 = CARTESIAN_POINT ( 'NONE',  ( 0.0000000000000000000, 13.00000000000000200, -1.950000000000000000 ) ) ;
#12 = STYLED_ITEM ( 'NONE', ( #345 ), #165 ) ;
#13 = CARTESIAN_POINT ( 'NONE',  ( 6.123233995736791900E-017, 0.0000000000000000000, -0.5000000000000022200 ) ) ;
#14 = DIRECTION ( 'NONE',  ( -0.0000000000000000000, -1.000000000000000000, -0.0000000000000000000 ) ) ;
#15 = PRODUCT_DEFINITION ( 'UNKNOWN', '', #19, #96 ) ;
#16 = DIRECTION ( 'NONE',  ( 0.0000000000000000000, 0.0000000000000000000, 1.000000000000000000 ) ) ;
#17 = ORIENTED_EDGE ( 'NONE', *, *, #295, .T. ) ;
#18 = EDGE_CURVE ( 'NONE', #256, #105, #153, .T. ) ;
#19 = PRODUCT_DEFINITION_FORMATION_WITH_SPECIFIED_SOURCE ( 'ANY', '', #88, .NOT_KNOWN. ) ;
#20 = AXIS2_PLACEMENT_3D ( 'NONE', #85, #250, #146 ) ;
#21 = TOROIDAL_SURFACE ( 'NONE', #157, 1.026239569296598200, 0.5999999999999999800 ) ;
#22 = ORIENTED_EDGE ( 'NONE', *, *, #83, .F. ) ;
#23 = EDGE_CURVE ( 'NONE', #329, #50, #293, .T. ) ;
#24 = ORIENTED_EDGE ( 'NONE', *, *, #366, .F. ) ;
#25 = CARTESIAN_POINT ( 'NONE',  ( 0.0000000000000000000, 0.0000000000000000000, 0.0000000000000000000 ) ) ;
#26 =( NAMED_UNIT ( * ) SI_UNIT ( $, .STERADIAN. ) SOLID_ANGLE_UNIT ( ) );
#27 = DIRECTION ( 'NONE',  ( 0.0000000000000000000, 0.0000000000000000000, -1.000000000000000000 ) ) ;
#28 = ORIENTED_EDGE ( 'NONE', *, *, #346, .F. ) ;
#29 = CARTESIAN_POINT ( 'NONE',  ( 0.0000000000000000000, 0.0000000000000000000, -1.000000000000000000 ) ) ;
#30 = EDGE_CURVE ( 'NONE', #300, #249, #120, .T. ) ;
#31 = VECTOR ( 'NONE', #62, 1000.000000000000000 ) ;
#32 = CARTESIAN_POINT ( 'NONE',  ( 0.0000000000000000000, 0.0000000000000000000, 0.0000000000000000000 ) ) ;
#33 = DIRECTION ( 'NONE',  ( 0.0000000000000000000, 0.0000000000000000000, -1.000000000000000000 ) ) ;
#34 = DIRECTION ( 'NONE',  ( 0.0000000000000000000, 0.0000000000000000000, 1.000000000000000000 ) ) ;
#35 = CARTESIAN_POINT ( 'NONE',  ( 0.0000000000000000000, 13.00000000000000200, -1.950000000000000000 ) ) ;
#36 = EDGE_LOOP ( 'NONE', ( #109, #244 ) ) ;
#37 = CARTESIAN_POINT ( 'NONE',  ( 0.0000000000000000000, 13.70000000000000100, 0.0000000000000000000 ) ) ;
#38 = SURFACE_STYLE_FILL_AREA ( #180 ) ;
#39 = DIRECTION ( 'NONE',  ( 0.0000000000000000000, 0.0000000000000000000, -1.000000000000000000 ) ) ;
#40 = AXIS2_PLACEMENT_3D ( 'NONE', #245, #318, #202 ) ;
#41 =( NAMED_UNIT ( * ) SI_UNIT ( $, .STERADIAN. ) SOLID_ANGLE_UNIT ( ) );
#42 = LINE ( 'NONE', #189, #134 ) ;
#43 = FACE_OUTER_BOUND ( 'NONE', #307, .T. ) ;
#44 =( NAMED_UNIT ( * ) PLANE_ANGLE_UNIT ( ) SI_UNIT ( $, .RADIAN. ) );
#45 = ADVANCED_FACE ( 'NONE', ( #80 ), #115, .T. ) ;
#46 = APPLICATION_PROTOCOL_DEFINITION ( 'draft international standard', 'automotive_design', 1998, #311 ) ;
#47 = ORIENTED_EDGE ( 'NONE', *, *, #106, .F. ) ;
#48 = EDGE_CURVE ( 'NONE', #305, #249, #370, .T. ) ;
#49 = ADVANCED_FACE ( 'NONE', ( #347 ), #159, .T. ) ;
#50 = VERTEX_POINT ( 'NONE', #183 ) ;
#51 = EDGE_CURVE ( 'NONE', #249, #305, #280, .T. ) ;
#52 = ORIENTED_EDGE ( 'NONE', *, *, #296, .T. ) ;
#53 = ORIENTED_EDGE ( 'NONE', *, *, #336, .T. ) ;
#54 = CIRCLE ( 'NONE', #227, 0.5000000000000022200 ) ;
#55 = SURFACE_STYLE_USAGE ( .BOTH. , #294 ) ;
#56 = DIRECTION ( 'NONE',  ( 0.0000000000000000000, 1.000000000000000000, 0.0000000000000000000 ) ) ;
#57 = AXIS2_PLACEMENT_3D ( 'NONE', #325, #225, #288 ) ;
#58 = EDGE_LOOP ( 'NONE', ( #283, #17 ) ) ;
#59 = CARTESIAN_POINT ( 'NONE',  ( 0.0000000000000000000, 0.0000000000000000000, 0.0000000000000000000 ) ) ;
#60 = DIRECTION ( 'NONE',  ( 0.0000000000000000000, 0.0000000000000000000, -1.000000000000000000 ) ) ;
#61 = DIRECTION ( 'NONE',  ( 0.0000000000000000000, 1.000000000000000000, 0.0000000000000000000 ) ) ;
#62 = DIRECTION ( 'NONE',  ( 8.659560562354918100E-017, 0.7071067811865487900, -0.7071067811865463500 ) ) ;
#63 = DIRECTION ( 'NONE',  ( 0.0000000000000000000, 0.0000000000000000000, -1.000000000000000000 ) ) ;
#64 = AXIS2_PLACEMENT_3D ( 'NONE', #59, #254, #82 ) ;
#65 = DIRECTION ( 'NONE',  ( 0.0000000000000000000, -0.0000000000000000000, 1.000000000000000000 ) ) ;
#66 = ORIENTED_EDGE ( 'NONE', *, *, #6, .T. ) ;
#67 = CYLINDRICAL_SURFACE ( 'NONE', #372, 1.000000000000000000 ) ;
#68 = PRODUCT_CONTEXT ( 'NONE', #311, 'mechanical' ) ;
#69 = MECHANICAL_DESIGN_GEOMETRIC_PRESENTATION_REPRESENTATION (  '', ( #12 ), #163 ) ;
#70 = ADVANCED_FACE ( 'NONE', ( #100, #273 ), #232, .T. ) ;
#71 = ORIENTED_EDGE ( 'NONE', *, *, #106, .T. ) ;
#72 = SURFACE_STYLE_USAGE ( .BOTH. , #215 ) ;
#73 = EDGE_LOOP ( 'NONE', ( #233, #158, #286, #185 ) ) ;
#74 = ADVANCED_FACE ( 'NONE', ( #175 ), #338, .T. ) ;
#75 = DIRECTION ( 'NONE',  ( -0.0000000000000000000, -1.000000000000000000, -0.0000000000000000000 ) ) ;
#76 = DIRECTION ( 'NONE',  ( -0.0000000000000000000, -1.000000000000000000, -0.0000000000000000000 ) ) ;
#77 = EDGE_LOOP ( 'NONE', ( #360, #4, #108, #343 ) ) ;
#78 = COLOUR_RGB ( '',0.7529411764705882200, 0.7529411764705882200, 0.7529411764705882200 ) ;
#79 = CARTESIAN_POINT ( 'NONE',  ( 0.0000000000000000000, 6.999999999999999100, -1.000000000000000000 ) ) ;
#80 = FACE_OUTER_BOUND ( 'NONE', #190, .T. ) ;
#81 = FACE_OUTER_BOUND ( 'NONE', #73, .T. ) ;
#82 = DIRECTION ( 'NONE',  ( 0.0000000000000000000, 0.0000000000000000000, -1.000000000000000000 ) ) ;
#83 = EDGE_CURVE ( 'NONE', #300, #277, #121, .T. ) ;
#84 = ORIENTED_EDGE ( 'NONE', *, *, #365, .T. ) ;
#85 = CARTESIAN_POINT ( 'NONE',  ( 0.0000000000000000000, 13.39999999999999900, 1.026239569296598200 ) ) ;
#86 = AXIS2_PLACEMENT_3D ( 'NONE', #119, #291, #323 ) ;
#87 = EDGE_LOOP ( 'NONE', ( #47, #66, #218, #166 ) ) ;
#88 = PRODUCT ( '38894~0', '38894~0', '', ( #68 ) ) ;
#89 = SHAPE_DEFINITION_REPRESENTATION ( #321, #95 ) ;
#90 = CONICAL_SURFACE ( 'NONE', #40, 0.5000000000000022200, 0.7853981633974466100 ) ;
#91 = CARTESIAN_POINT ( 'NONE',  ( 0.0000000000000000000, 7.000000000000000000, 0.0000000000000000000 ) ) ;
#92 = EDGE_LOOP ( 'NONE', ( #192, #314 ) ) ;
#93 = CARTESIAN_POINT ( 'NONE',  ( 1.574953575314909000E-016, 13.99999999999999800, -1.026239569296598200 ) ) ;
#94 = CONICAL_SURFACE ( 'NONE', #111, 1.950000000000000000, 0.5235987755983003700 ) ;
#95 = ADVANCED_BREP_SHAPE_REPRESENTATION ( '38894~0', ( #165, #116 ), #210 ) ;
#96 = PRODUCT_DEFINITION_CONTEXT ( 'detailed design', #367, 'design' ) ;
#97 = AXIS2_PLACEMENT_3D ( 'NONE', #129, #125, #362 ) ;
#98 =( LENGTH_UNIT ( ) NAMED_UNIT ( * ) SI_UNIT ( .MILLI., .METRE. ) );
#99 = SURFACE_STYLE_FILL_AREA ( #136 ) ;
#100 = FACE_OUTER_BOUND ( 'NONE', #58, .T. ) ;
#101 = CARTESIAN_POINT ( 'NONE',  ( 1.256781003697437400E-016, 13.39999999999999900, -1.026239569296598200 ) ) ;
#102 = CARTESIAN_POINT ( 'NONE',  ( 0.0000000000000000000, 13.00000000000000200, 0.0000000000000000000 ) ) ;
#103 = DIRECTION ( 'NONE',  ( 1.000000000000000000, 0.0000000000000000000, 0.0000000000000000000 ) ) ;
#104 = VERTEX_POINT ( 'NONE', #198 ) ;
#105 = VERTEX_POINT ( 'NONE', #168 ) ;
#106 = EDGE_CURVE ( 'NONE', #104, #256, #167, .T. ) ;
#107 = CIRCLE ( 'NONE', #333, 1.950000000000000000 ) ;
#108 = ORIENTED_EDGE ( 'NONE', *, *, #274, .F. ) ;
#109 = ORIENTED_EDGE ( 'NONE', *, *, #336, .F. ) ;
#110 = DIRECTION ( 'NONE',  ( 0.0000000000000000000, 1.000000000000000000, 0.0000000000000000000 ) ) ;
#111 = AXIS2_PLACEMENT_3D ( 'NONE', #117, #156, #326 ) ;
#112 = DIRECTION ( 'NONE',  ( -0.0000000000000000000, -1.000000000000000000, -0.0000000000000000000 ) ) ;
#113 = COLOUR_RGB ( '',0.7529411764705882200, 0.7529411764705882200, 0.7529411764705882200 ) ;
#114 =( NAMED_UNIT ( * ) PLANE_ANGLE_UNIT ( ) SI_UNIT ( $, .RADIAN. ) );
#115 = PLANE ( 'NONE',  #57 ) ;
#116 = AXIS2_PLACEMENT_3D ( 'NONE', #340, #237, #103 ) ;
#117 = CARTESIAN_POINT ( 'NONE',  ( 0.0000000000000000000, 13.00000000000000200, 0.0000000000000000000 ) ) ;
#118 = DIRECTION ( 'NONE',  ( 0.0000000000000000000, 0.0000000000000000000, -1.000000000000000000 ) ) ;
#119 = CARTESIAN_POINT ( 'NONE',  ( 0.0000000000000000000, 0.0000000000000000000, 0.0000000000000000000 ) ) ;
#120 = CIRCLE ( 'NONE', #20, 0.5999999999999998700 ) ;
#121 = LINE ( 'NONE', #281, #235 ) ;
#122 = CARTESIAN_POINT ( 'NONE',  ( 0.0000000000000000000, 13.99999999999999800, 1.026239569296598200 ) ) ;
#123 = PLANE ( 'NONE',  #349 ) ;
#124 = ORIENTED_EDGE ( 'NONE', *, *, #30, .F. ) ;
#125 = DIRECTION ( 'NONE',  ( 0.0000000000000000000, 1.000000000000000000, 0.0000000000000000000 ) ) ;
#126 = ORIENTED_EDGE ( 'NONE', *, *, #357, .F. ) ;
#127 = CIRCLE ( 'NONE', #172, 1.000000000000000000 ) ;
#128 = CIRCLE ( 'NONE', #142, 1.950000000000000000 ) ;
#129 = CARTESIAN_POINT ( 'NONE',  ( 0.0000000000000000000, 13.99999999999999800, 0.0000000000000000000 ) ) ;
#130 = EDGE_CURVE ( 'NONE', #317, #277, #128, .T. ) ;
#131 = DIRECTION ( 'NONE',  ( 0.0000000000000000000, 0.0000000000000000000, 1.000000000000000000 ) ) ;
#132 = ORIENTED_EDGE ( 'NONE', *, *, #130, .F. ) ;
#133 =( GEOMETRIC_REPRESENTATION_CONTEXT ( 3 ) GLOBAL_UNCERTAINTY_ASSIGNED_CONTEXT ( ( #290 ) ) GLOBAL_UNIT_ASSIGNED_CONTEXT ( ( #98, #44, #41 ) ) REPRESENTATION_CONTEXT ( 'NONE', 'WORKASPACE' ) );
#134 = VECTOR ( 'NONE', #14, 1000.000000000000000 ) ;
#135 = AXIS2_PLACEMENT_3D ( 'NONE', #37, #301, #131 ) ;
#136 = FILL_AREA_STYLE ('',( #275 ) ) ;
#137 = CARTESIAN_POINT ( 'NONE',  ( 0.0000000000000000000, 13.70000000000000100, 0.0000000000000000000 ) ) ;
#138 = ADVANCED_FACE ( 'NONE', ( #351 ), #193, .T. ) ;
#139 = VERTEX_POINT ( 'NONE', #79 ) ;
#140 = CIRCLE ( 'NONE', #178, 1.000000000000000000 ) ;
#141 = ADVANCED_FACE ( 'NONE', ( #43 ), #330, .T. ) ;
#142 = AXIS2_PLACEMENT_3D ( 'NONE', #143, #287, #320 ) ;
#143 = CARTESIAN_POINT ( 'NONE',  ( 0.0000000000000000000, 13.00000000000000200, 0.0000000000000000000 ) ) ;
#144 = EDGE_LOOP ( 'NONE', ( #24, #359, #161, #3 ) ) ;
#145 = VECTOR ( 'NONE', #352, 1000.000000000000000 ) ;
#146 = DIRECTION ( 'NONE',  ( 0.0000000000000000000, 0.0000000000000000000, 1.000000000000000000 ) ) ;
#147 = PRODUCT_RELATED_PRODUCT_CATEGORY ( 'part', '', ( #88 ) ) ;
#148 = CARTESIAN_POINT ( 'NONE',  ( 2.388061258337338600E-016, 7.000000000000000000, 1.950000000000000000 ) ) ;
#149 = EDGE_CURVE ( 'NONE', #317, #264, #257, .T. ) ;
#150 = CARTESIAN_POINT ( 'NONE',  ( 0.0000000000000000000, 7.000000000000000000, 0.0000000000000000000 ) ) ;
#151 = ORIENTED_EDGE ( 'NONE', *, *, #339, .F. ) ;
#152 = CLOSED_SHELL ( 'NONE', ( #141, #197, #306, #49, #74, #344, #279, #219, #70, #138, #45, #164, #194 ) ) ;
#153 = CIRCLE ( 'NONE', #205, 1.000000000000000000 ) ;
#154 = CARTESIAN_POINT ( 'NONE',  ( 2.388061258337338600E-016, 13.00000000000000200, 1.950000000000000000 ) ) ;
#155 = CARTESIAN_POINT ( 'NONE',  ( 0.0000000000000000000, 6.999999999999999100, 0.0000000000000000000 ) ) ;
#156 = DIRECTION ( 'NONE',  ( -0.0000000000000000000, -1.000000000000000000, -0.0000000000000000000 ) ) ;
#157 = AXIS2_PLACEMENT_3D ( 'NONE', #226, #253, #353 ) ;
#158 = ORIENTED_EDGE ( 'NONE', *, *, #366, .T. ) ;
#159 = CYLINDRICAL_SURFACE ( 'NONE', #64, 1.950000000000000000 ) ;
#160 = DIRECTION ( 'NONE',  ( -0.0000000000000000000, -1.000000000000000000, -0.0000000000000000000 ) ) ;
#161 = ORIENTED_EDGE ( 'NONE', *, *, #7, .T. ) ;
#162 = CARTESIAN_POINT ( 'NONE',  ( 0.0000000000000000000, 0.0000000000000000000, 0.0000000000000000000 ) ) ;
#163 =( GEOMETRIC_REPRESENTATION_CONTEXT ( 3 ) GLOBAL_UNCERTAINTY_ASSIGNED_CONTEXT ( ( #171 ) ) GLOBAL_UNIT_ASSIGNED_CONTEXT ( ( #176, #114, #26 ) ) REPRESENTATION_CONTEXT ( 'NONE', 'WORKASPACE' ) );
#164 = ADVANCED_FACE ( 'NONE', ( #348 ), #90, .T. ) ;
#165 = MANIFOLD_SOLID_BREP ( 'Verrundung1', #152 ) ;
#166 = ORIENTED_EDGE ( 'NONE', *, *, #187, .T. ) ;
#167 = LINE ( 'NONE', #313, #368 ) ;
#168 = CARTESIAN_POINT ( 'NONE',  ( 0.0000000000000000000, 0.4999999999999995600, -1.000000000000000000 ) ) ;
#169 = ORIENTED_EDGE ( 'NONE', *, *, #316, .T. ) ;
#170 = ORIENTED_EDGE ( 'NONE', *, *, #339, .T. ) ;
#171 = UNCERTAINTY_MEASURE_WITH_UNIT (LENGTH_MEASURE( 1.000000000000000100E-005 ), #176, 'distance_accuracy_value', 'NONE');
#172 = AXIS2_PLACEMENT_3D ( 'NONE', #259, #213, #303 ) ;
#173 = CIRCLE ( 'NONE', #196, 1.950000000000000000 ) ;
#174 = DIRECTION ( 'NONE',  ( -0.0000000000000000000, -1.000000000000000000, -0.0000000000000000000 ) ) ;
#175 = FACE_OUTER_BOUND ( 'NONE', #228, .T. ) ;
#176 =( LENGTH_UNIT ( ) NAMED_UNIT ( * ) SI_UNIT ( .MILLI., .METRE. ) );
#177 = ORIENTED_EDGE ( 'NONE', *, *, #51, .F. ) ;
#178 = AXIS2_PLACEMENT_3D ( 'NONE', #223, #56, #60 ) ;
#179 = CARTESIAN_POINT ( 'NONE',  ( 0.0000000000000000000, 13.99999999999999800, 0.0000000000000000000 ) ) ;
#180 = FILL_AREA_STYLE ('',( #5 ) ) ;
#181 = ORIENTED_EDGE ( 'NONE', *, *, #365, .F. ) ;
#182 = DIRECTION ( 'NONE',  ( -0.0000000000000000000, -1.000000000000000000, -0.0000000000000000000 ) ) ;
#183 = CARTESIAN_POINT ( 'NONE',  ( 9.184850993605162000E-017, 0.0000000000000000000, -0.5000000000000022200 ) ) ;
#184 = EDGE_LOOP ( 'NONE', ( #126, #181, #203, #269 ) ) ;
#185 = ORIENTED_EDGE ( 'NONE', *, *, #7, .F. ) ;
#186 = FACE_OUTER_BOUND ( 'NONE', #337, .T. ) ;
#187 = EDGE_CURVE ( 'NONE', #105, #256, #140, .T. ) ;
#188 = DIRECTION ( 'NONE',  ( 0.0000000000000000000, 1.000000000000000000, 0.0000000000000000000 ) ) ;
#189 = CARTESIAN_POINT ( 'NONE',  ( 2.388061258337338600E-016, 0.0000000000000000000, 1.950000000000000000 ) ) ;
#190 = EDGE_LOOP ( 'NONE', ( #1, #52 ) ) ;
#191 = AXIS2_PLACEMENT_3D ( 'NONE', #137, #276, #16 ) ;
#192 = ORIENTED_EDGE ( 'NONE', *, *, #51, .T. ) ;
#193 = CYLINDRICAL_SURFACE ( 'NONE', #251, 1.000000000000000000 ) ;
#194 = ADVANCED_FACE ( 'NONE', ( #10 ), #21, .T. ) ;
#195 = DIRECTION ( 'NONE',  ( 6.123233995736782100E-017, -0.8660254037844379300, 0.5000000000000013300 ) ) ;
#196 = AXIS2_PLACEMENT_3D ( 'NONE', #91, #230, #33 ) ;
#197 = ADVANCED_FACE ( 'NONE', ( #81 ), #310, .T. ) ;
#198 = CARTESIAN_POINT ( 'NONE',  ( 1.224646799147353200E-016, 6.999999999999999100, 1.000000000000000000 ) ) ;
#199 = LINE ( 'NONE', #289, #145 ) ;
#200 = FACE_OUTER_BOUND ( 'NONE', #334, .T. ) ;
#201 = DIRECTION ( 'NONE',  ( 0.0000000000000000000, 0.0000000000000000000, -1.000000000000000000 ) ) ;
#202 = DIRECTION ( 'NONE',  ( 0.0000000000000000000, 0.0000000000000000000, 1.000000000000000000 ) ) ;
#203 = ORIENTED_EDGE ( 'NONE', *, *, #30, .T. ) ;
#204 = ORIENTED_EDGE ( 'NONE', *, *, #18, .T. ) ;
#205 = AXIS2_PLACEMENT_3D ( 'NONE', #354, #252, #118 ) ;
#206 = CARTESIAN_POINT ( 'NONE',  ( 0.0000000000000000000, 13.70000000000000100, -1.545854811567261500 ) ) ;
#207 = LINE ( 'NONE', #13, #31 ) ;
#208 = DIRECTION ( 'NONE',  ( 0.0000000000000000000, 0.0000000000000000000, -1.000000000000000000 ) ) ;
#209 = CARTESIAN_POINT ( 'NONE',  ( 1.224646799147353200E-016, 0.4999999999999995600, 1.000000000000000000 ) ) ;
#210 =( GEOMETRIC_REPRESENTATION_CONTEXT ( 3 ) GLOBAL_UNCERTAINTY_ASSIGNED_CONTEXT ( ( #258 ) ) GLOBAL_UNIT_ASSIGNED_CONTEXT ( ( #270, #335, #238 ) ) REPRESENTATION_CONTEXT ( 'NONE', 'WORKASPACE' ) );
#211 = EDGE_LOOP ( 'NONE', ( #53, #71, #204, #324 ) ) ;
#212 = DIRECTION ( 'NONE',  ( 0.0000000000000000000, -0.8660254037844379300, -0.5000000000000013300 ) ) ;
#213 = DIRECTION ( 'NONE',  ( -0.0000000000000000000, -1.000000000000000000, -0.0000000000000000000 ) ) ;
#214 = DIRECTION ( 'NONE',  ( -0.0000000000000000000, -1.000000000000000000, -0.0000000000000000000 ) ) ;
#215 = SURFACE_SIDE_STYLE ('',( #99 ) ) ;
#216 = DIRECTION ( 'NONE',  ( 1.000000000000000000, -0.0000000000000000000, 1.224646799147353200E-016 ) ) ;
#217 = FACE_OUTER_BOUND ( 'NONE', #92, .T. ) ;
#218 = ORIENTED_EDGE ( 'NONE', *, *, #302, .T. ) ;
#219 = ADVANCED_FACE ( 'NONE', ( #186 ), #221, .T. ) ;
#220 = DIRECTION ( 'NONE',  ( 0.0000000000000000000, 0.0000000000000000000, 1.000000000000000000 ) ) ;
#221 = CYLINDRICAL_SURFACE ( 'NONE', #86, 1.950000000000000000 ) ;
#222 = DIRECTION ( 'NONE',  ( 0.0000000000000000000, 0.0000000000000000000, -1.000000000000000000 ) ) ;
#223 = CARTESIAN_POINT ( 'NONE',  ( 0.0000000000000000000, 0.4999999999999995600, 0.0000000000000000000 ) ) ;
#224 = ORIENTED_EDGE ( 'NONE', *, *, #316, .F. ) ;
#225 = DIRECTION ( 'NONE',  ( 0.0000000000000000000, -1.000000000000000000, -0.0000000000000000000 ) ) ;
#226 = CARTESIAN_POINT ( 'NONE',  ( 0.0000000000000000000, 13.39999999999999900, 0.0000000000000000000 ) ) ;
#227 = AXIS2_PLACEMENT_3D ( 'NONE', #162, #214, #332 ) ;
#228 = EDGE_LOOP ( 'NONE', ( #170, #304, #132, #298 ) ) ;
#229 = CARTESIAN_POINT ( 'NONE',  ( 1.372649730810372700, 13.99999999999999800, 0.0000000000000000000 ) ) ;
#230 = DIRECTION ( 'NONE',  ( -0.0000000000000000000, -1.000000000000000000, -0.0000000000000000000 ) ) ;
#231 = ORIENTED_EDGE ( 'NONE', *, *, #295, .F. ) ;
#232 = PLANE ( 'NONE',  #265 ) ;
#233 = ORIENTED_EDGE ( 'NONE', *, *, #296, .F. ) ;
#234 = AXIS2_PLACEMENT_3D ( 'NONE', #284, #110, #220 ) ;
#235 = VECTOR ( 'NONE', #195, 1000.000000000000000 ) ;
#236 = VERTEX_POINT ( 'NONE', #148 ) ;
#237 = DIRECTION ( 'NONE',  ( 0.0000000000000000000, 0.0000000000000000000, 1.000000000000000000 ) ) ;
#238 =( NAMED_UNIT ( * ) SI_UNIT ( $, .STERADIAN. ) SOLID_ANGLE_UNIT ( ) );
#239 = ORIENTED_EDGE ( 'NONE', *, *, #357, .T. ) ;
#240 = PRESENTATION_STYLE_ASSIGNMENT (( #72 ) ) ;
#241 = VECTOR ( 'NONE', #112, 1000.000000000000000 ) ;
#242 = AXIS2_PLACEMENT_3D ( 'NONE', #102, #75, #342 ) ;
#243 = ORIENTED_EDGE ( 'NONE', *, *, #312, .T. ) ;
#244 = ORIENTED_EDGE ( 'NONE', *, *, #6, .F. ) ;
#245 = CARTESIAN_POINT ( 'NONE',  ( 0.0000000000000000000, 0.0000000000000000000, 0.0000000000000000000 ) ) ;
#246 = AXIS2_PLACEMENT_3D ( 'NONE', #263, #268, #39 ) ;
#247 = CARTESIAN_POINT ( 'NONE',  ( 0.0000000000000000000, 0.0000000000000000000, -1.950000000000000000 ) ) ;
#248 = DIRECTION ( 'NONE',  ( -0.0000000000000000000, -1.000000000000000000, -0.0000000000000000000 ) ) ;
#249 = VERTEX_POINT ( 'NONE', #122 ) ;
#250 = DIRECTION ( 'NONE',  ( -1.000000000000000000, 0.0000000000000000000, 0.0000000000000000000 ) ) ;
#251 = AXIS2_PLACEMENT_3D ( 'NONE', #322, #2, #201 ) ;
#252 = DIRECTION ( 'NONE',  ( 0.0000000000000000000, 1.000000000000000000, 0.0000000000000000000 ) ) ;
#253 = DIRECTION ( 'NONE',  ( 0.0000000000000000000, 1.000000000000000000, 0.0000000000000000000 ) ) ;
#254 = DIRECTION ( 'NONE',  ( -0.0000000000000000000, -1.000000000000000000, -0.0000000000000000000 ) ) ;
#255 = CARTESIAN_POINT ( 'NONE',  ( 2.140593702634860400E-016, 13.70000000000000100, 1.545854811567261500 ) ) ;
#256 = VERTEX_POINT ( 'NONE', #209 ) ;
#257 = LINE ( 'NONE', #247, #241 ) ;
#258 = UNCERTAINTY_MEASURE_WITH_UNIT (LENGTH_MEASURE( 1.000000000000000100E-005 ), #270, 'distance_accuracy_value', 'NONE');
#259 = CARTESIAN_POINT ( 'NONE',  ( 0.0000000000000000000, 6.999999999999999100, 0.0000000000000000000 ) ) ;
#260 = AXIS2_PLACEMENT_3D ( 'NONE', #25, #174, #222 ) ;
#261 = DIRECTION ( 'NONE',  ( 0.0000000000000000000, -1.000000000000000000, -0.0000000000000000000 ) ) ;
#262 = VERTEX_POINT ( 'NONE', #206 ) ;
#263 = CARTESIAN_POINT ( 'NONE',  ( 0.0000000000000000000, 13.00000000000000200, 0.0000000000000000000 ) ) ;
#264 = VERTEX_POINT ( 'NONE', #328 ) ;
#265 = AXIS2_PLACEMENT_3D ( 'NONE', #297, #261, #358 ) ;
#266 = CARTESIAN_POINT ( 'NONE',  ( 0.0000000000000000000, 0.0000000000000000000, 0.5000000000000022200 ) ) ;
#267 = FACE_OUTER_BOUND ( 'NONE', #211, .T. ) ;
#268 = DIRECTION ( 'NONE',  ( -0.0000000000000000000, -1.000000000000000000, -0.0000000000000000000 ) ) ;
#269 = ORIENTED_EDGE ( 'NONE', *, *, #48, .F. ) ;
#270 =( LENGTH_UNIT ( ) NAMED_UNIT ( * ) SI_UNIT ( .MILLI., .METRE. ) );
#271 = AXIS2_PLACEMENT_3D ( 'NONE', #356, #61, #327 ) ;
#272 = APPLICATION_PROTOCOL_DEFINITION ( 'draft international standard', 'automotive_design', 1998, #367 ) ;
#273 = FACE_BOUND ( 'NONE', #36, .T. ) ;
#274 = EDGE_CURVE ( 'NONE', #264, #236, #107, .T. ) ;
#275 = FILL_AREA_STYLE_COLOUR ( '', #78 ) ;
#276 = DIRECTION ( 'NONE',  ( -0.0000000000000000000, -1.000000000000000000, -0.0000000000000000000 ) ) ;
#277 = VERTEX_POINT ( 'NONE', #154 ) ;
#278 = CIRCLE ( 'NONE', #191, 1.545854811567261200 ) ;
#279 = ADVANCED_FACE ( 'NONE', ( #200 ), #94, .T. ) ;
#280 = CIRCLE ( 'NONE', #97, 1.026239569296598200 ) ;
#281 = CARTESIAN_POINT ( 'NONE',  ( 2.388061258337338600E-016, 13.00000000000000200, 1.950000000000000000 ) ) ;
#282 = PRESENTATION_LAYER_ASSIGNMENT (  '', '', ( #12 ) ) ;
#283 = ORIENTED_EDGE ( 'NONE', *, *, #274, .T. ) ;
#284 = CARTESIAN_POINT ( 'NONE',  ( 0.0000000000000000000, 13.39999999999999900, 0.0000000000000000000 ) ) ;
#285 = STYLED_ITEM ( 'NONE', ( #240 ), #95 ) ;
#286 = ORIENTED_EDGE ( 'NONE', *, *, #18, .F. ) ;
#287 = DIRECTION ( 'NONE',  ( -0.0000000000000000000, -1.000000000000000000, -0.0000000000000000000 ) ) ;
#288 = DIRECTION ( 'NONE',  ( 0.0000000000000000000, 0.0000000000000000000, -1.000000000000000000 ) ) ;
#289 = CARTESIAN_POINT ( 'NONE',  ( 0.0000000000000000000, 0.0000000000000000000, 0.5000000000000022200 ) ) ;
#290 = UNCERTAINTY_MEASURE_WITH_UNIT (LENGTH_MEASURE( 1.000000000000000100E-005 ), #98, 'distance_accuracy_value', 'NONE');
#291 = DIRECTION ( 'NONE',  ( -0.0000000000000000000, -1.000000000000000000, -0.0000000000000000000 ) ) ;
#292 = ORIENTED_EDGE ( 'NONE', *, *, #149, .T. ) ;
#293 = CIRCLE ( 'NONE', #260, 0.5000000000000022200 ) ;
#294 = SURFACE_SIDE_STYLE ('',( #38 ) ) ;
#295 = EDGE_CURVE ( 'NONE', #236, #264, #173, .T. ) ;
#296 = EDGE_CURVE ( 'NONE', #50, #329, #54, .T. ) ;
#297 = CARTESIAN_POINT ( 'NONE',  ( 1.000000000000000000, 6.999999999999999100, 0.0000000000000000000 ) ) ;
#298 = ORIENTED_EDGE ( 'NONE', *, *, #312, .F. ) ;
#299 = LINE ( 'NONE', #11, #9 ) ;
#300 = VERTEX_POINT ( 'NONE', #255 ) ;
#301 = DIRECTION ( 'NONE',  ( -0.0000000000000000000, -1.000000000000000000, -0.0000000000000000000 ) ) ;
#302 = EDGE_CURVE ( 'NONE', #139, #105, #363, .T. ) ;
#303 = DIRECTION ( 'NONE',  ( 0.0000000000000000000, 0.0000000000000000000, -1.000000000000000000 ) ) ;
#304 = ORIENTED_EDGE ( 'NONE', *, *, #83, .T. ) ;
#305 = VERTEX_POINT ( 'NONE', #93 ) ;
#306 = ADVANCED_FACE ( 'NONE', ( #267 ), #67, .T. ) ;
#307 = EDGE_LOOP ( 'NONE', ( #151, #239, #177, #124 ) ) ;
#308 = PRESENTATION_LAYER_ASSIGNMENT (  '', '', ( #285 ) ) ;
#309 = DIRECTION ( 'NONE',  ( 1.224646799147353200E-016, 0.0000000000000000000, -1.000000000000000000 ) ) ;
#310 = CONICAL_SURFACE ( 'NONE', #271, 0.5000000000000022200, 0.7853981633974466100 ) ;
#311 = APPLICATION_CONTEXT ( 'automotive_design' ) ;
#312 = EDGE_CURVE ( 'NONE', #262, #317, #299, .T. ) ;
#313 = CARTESIAN_POINT ( 'NONE',  ( 1.224646799147353200E-016, 0.0000000000000000000, 1.000000000000000000 ) ) ;
#314 = ORIENTED_EDGE ( 'NONE', *, *, #48, .T. ) ;
#315 = VECTOR ( 'NONE', #364, 1000.000000000000000 ) ;
#316 = EDGE_CURVE ( 'NONE', #277, #317, #361, .T. ) ;
#317 = VERTEX_POINT ( 'NONE', #35 ) ;
#318 = DIRECTION ( 'NONE',  ( 0.0000000000000000000, 1.000000000000000000, 0.0000000000000000000 ) ) ;
#319 = CIRCLE ( 'NONE', #135, 1.545854811567261200 ) ;
#320 = DIRECTION ( 'NONE',  ( 0.0000000000000000000, 0.0000000000000000000, -1.000000000000000000 ) ) ;
#321 = PRODUCT_DEFINITION_SHAPE ( 'NONE', 'NONE',  #15 ) ;
#322 = CARTESIAN_POINT ( 'NONE',  ( 0.0000000000000000000, 0.0000000000000000000, 0.0000000000000000000 ) ) ;
#323 = DIRECTION ( 'NONE',  ( 0.0000000000000000000, 0.0000000000000000000, -1.000000000000000000 ) ) ;
#324 = ORIENTED_EDGE ( 'NONE', *, *, #302, .F. ) ;
#325 = CARTESIAN_POINT ( 'NONE',  ( 0.0000000000000000000, 0.0000000000000000000, 0.0000000000000000000 ) ) ;
#326 = DIRECTION ( 'NONE',  ( 0.0000000000000000000, 0.0000000000000000000, -1.000000000000000000 ) ) ;
#327 = DIRECTION ( 'NONE',  ( 0.0000000000000000000, 0.0000000000000000000, 1.000000000000000000 ) ) ;
#328 = CARTESIAN_POINT ( 'NONE',  ( 0.0000000000000000000, 7.000000000000000000, -1.950000000000000000 ) ) ;
#329 = VERTEX_POINT ( 'NONE', #266 ) ;
#330 = TOROIDAL_SURFACE ( 'NONE', #234, 1.026239569296598200, 0.5999999999999999800 ) ;
#331 = MECHANICAL_DESIGN_GEOMETRIC_PRESENTATION_REPRESENTATION (  '', ( #285 ), #133 ) ;
#332 = DIRECTION ( 'NONE',  ( 0.0000000000000000000, 0.0000000000000000000, -1.000000000000000000 ) ) ;
#333 = AXIS2_PLACEMENT_3D ( 'NONE', #150, #182, #27 ) ;
#334 = EDGE_LOOP ( 'NONE', ( #22, #84, #243, #224 ) ) ;
#335 =( NAMED_UNIT ( * ) PLANE_ANGLE_UNIT ( ) SI_UNIT ( $, .RADIAN. ) );
#336 = EDGE_CURVE ( 'NONE', #139, #104, #127, .T. ) ;
#337 = EDGE_LOOP ( 'NONE', ( #28, #169, #292, #231 ) ) ;
#338 = CONICAL_SURFACE ( 'NONE', #242, 1.950000000000000000, 0.5235987755983003700 ) ;
#339 = EDGE_CURVE ( 'NONE', #262, #300, #319, .T. ) ;
#340 = CARTESIAN_POINT ( 'NONE',  ( 0.0000000000000000000, 0.0000000000000000000, 0.0000000000000000000 ) ) ;
#341 = CIRCLE ( 'NONE', #350, 1.000000000000000000 ) ;
#342 = DIRECTION ( 'NONE',  ( 0.0000000000000000000, 0.0000000000000000000, -1.000000000000000000 ) ) ;
#343 = ORIENTED_EDGE ( 'NONE', *, *, #149, .F. ) ;
#344 = ADVANCED_FACE ( 'NONE', ( #217 ), #123, .T. ) ;
#345 = PRESENTATION_STYLE_ASSIGNMENT (( #55 ) ) ;
#346 = EDGE_CURVE ( 'NONE', #277, #236, #42, .T. ) ;
#347 = FACE_OUTER_BOUND ( 'NONE', #77, .T. ) ;
#348 = FACE_OUTER_BOUND ( 'NONE', #144, .T. ) ;
#349 = AXIS2_PLACEMENT_3D ( 'NONE', #229, #188, #65 ) ;
#350 = AXIS2_PLACEMENT_3D ( 'NONE', #155, #248, #208 ) ;
#351 = FACE_OUTER_BOUND ( 'NONE', #87, .T. ) ;
#352 = DIRECTION ( 'NONE',  ( 0.0000000000000000000, 0.7071067811865487900, 0.7071067811865463500 ) ) ;
#353 = DIRECTION ( 'NONE',  ( 0.0000000000000000000, 0.0000000000000000000, 1.000000000000000000 ) ) ;
#354 = CARTESIAN_POINT ( 'NONE',  ( 0.0000000000000000000, 0.4999999999999995600, 0.0000000000000000000 ) ) ;
#355 = AXIS2_PLACEMENT_3D ( 'NONE', #101, #216, #309 ) ;
#356 = CARTESIAN_POINT ( 'NONE',  ( 0.0000000000000000000, 0.0000000000000000000, 0.0000000000000000000 ) ) ;
#357 = EDGE_CURVE ( 'NONE', #262, #305, #371, .T. ) ;
#358 = DIRECTION ( 'NONE',  ( 0.0000000000000000000, 0.0000000000000000000, -1.000000000000000000 ) ) ;
#359 = ORIENTED_EDGE ( 'NONE', *, *, #23, .F. ) ;
#360 = ORIENTED_EDGE ( 'NONE', *, *, #130, .T. ) ;
#361 = CIRCLE ( 'NONE', #246, 1.950000000000000000 ) ;
#362 = DIRECTION ( 'NONE',  ( 0.0000000000000000000, 0.0000000000000000000, 1.000000000000000000 ) ) ;
#363 = LINE ( 'NONE', #29, #315 ) ;
#364 = DIRECTION ( 'NONE',  ( -0.0000000000000000000, -1.000000000000000000, -0.0000000000000000000 ) ) ;
#365 = EDGE_CURVE ( 'NONE', #300, #262, #278, .T. ) ;
#366 = EDGE_CURVE ( 'NONE', #50, #105, #207, .T. ) ;
#367 = APPLICATION_CONTEXT ( 'automotive_design' ) ;
#368 = VECTOR ( 'NONE', #76, 1000.000000000000000 ) ;
#369 = AXIS2_PLACEMENT_3D ( 'NONE', #179, #8, #34 ) ;
#370 = CIRCLE ( 'NONE', #369, 1.026239569296598200 ) ;
#371 = CIRCLE ( 'NONE', #355, 0.5999999999999998700 ) ;
#372 = AXIS2_PLACEMENT_3D ( 'NONE', #32, #160, #63 ) ;
ENDSEC;
END-ISO-10303-21;
