ISO-10303-21;
HEADER;
FILE_DESCRIPTION (( 'STEP AP214' ),
    '1' );
FILE_NAME ('38893~0.STEP',
    '2017-07-04T09:04:17',
    ( '' ),
    ( '' ),
    'SwSTEP 2.0',
    'SolidWorks 2016',
    '' );
FILE_SCHEMA (( 'AUTOMOTIVE_DESIGN' ));
ENDSEC;

DATA;
#1 = EDGE_CURVE ( 'NONE', #55, #285, #23, .T. ) ;
#2 = DIRECTION ( 'NONE',  ( 0.0000000000000000000, 1.000000000000000000, 0.0000000000000000000 ) ) ;
#3 = CONICAL_SURFACE ( 'NONE', #244, 1.899999999999999900, 0.5235987755983002600 ) ;
#4 = AXIS2_PLACEMENT_3D ( 'NONE', #45, #182, #18 ) ;
#5 = CIRCLE ( 'NONE', #96, 1.000000000000000000 ) ;
#6 = CARTESIAN_POINT ( 'NONE',  ( 0.0000000000000000000, 13.00000000000000200, 0.0000000000000000000 ) ) ;
#7 = DIRECTION ( 'NONE',  ( 0.0000000000000000000, 0.0000000000000000000, -1.000000000000000000 ) ) ;
#8 = VERTEX_POINT ( 'NONE', #304 ) ;
#9 = PRODUCT_CONTEXT ( 'NONE', #237, 'mechanical' ) ;
#10 = EDGE_CURVE ( 'NONE', #66, #295, #78, .T. ) ;
#11 = APPLICATION_PROTOCOL_DEFINITION ( 'draft international standard', 'automotive_design', 1998, #65 ) ;
#12 = EDGE_CURVE ( 'NONE', #66, #212, #29, .T. ) ;
#13 = VERTEX_POINT ( 'NONE', #20 ) ;
#14 = SURFACE_STYLE_USAGE ( .BOTH. , #197 ) ;
#15 = DIRECTION ( 'NONE',  ( 0.0000000000000000000, 0.0000000000000000000, -1.000000000000000000 ) ) ;
#16 = CYLINDRICAL_SURFACE ( 'NONE', #85, 1.000000000000000000 ) ;
#17 = TOROIDAL_SURFACE ( 'NONE', #236, 0.9762395692965993900, 0.5999999999999999800 ) ;
#18 = DIRECTION ( 'NONE',  ( 0.0000000000000000000, 0.0000000000000000000, -1.000000000000000000 ) ) ;
#19 = EDGE_LOOP ( 'NONE', ( #60, #70, #286, #370 ) ) ;
#20 = CARTESIAN_POINT ( 'NONE',  ( 0.0000000000000000000, 6.999999999999999100, -1.000000000000000000 ) ) ;
#21 = AXIS2_PLACEMENT_3D ( 'NONE', #340, #159, #369 ) ;
#22 = ORIENTED_EDGE ( 'NONE', *, *, #137, .T. ) ;
#23 = CIRCLE ( 'NONE', #4, 1.899999999999999900 ) ;
#24 = ORIENTED_EDGE ( 'NONE', *, *, #177, .F. ) ;
#25 = CARTESIAN_POINT ( 'NONE',  ( 1.224646799147353200E-016, 0.0000000000000000000, 1.000000000000000000 ) ) ;
#26 = CARTESIAN_POINT ( 'NONE',  ( 1.000000000000000000, 6.999999999999999100, 0.0000000000000000000 ) ) ;
#27 = FACE_OUTER_BOUND ( 'NONE', #76, .T. ) ;
#28 = CARTESIAN_POINT ( 'NONE',  ( 0.0000000000000000000, 0.0000000000000000000, 0.0000000000000000000 ) ) ;
#29 = CIRCLE ( 'NONE', #43, 1.495854811567262100 ) ;
#30 = EDGE_CURVE ( 'NONE', #199, #107, #33, .T. ) ;
#31 = DIRECTION ( 'NONE',  ( 0.0000000000000000000, 0.0000000000000000000, -1.000000000000000000 ) ) ;
#32 = VERTEX_POINT ( 'NONE', #100 ) ;
#33 = CIRCLE ( 'NONE', #82, 0.9762395692965993900 ) ;
#34 = DIRECTION ( 'NONE',  ( 0.0000000000000000000, 0.0000000000000000000, -1.000000000000000000 ) ) ;
#35 = DIRECTION ( 'NONE',  ( -0.0000000000000000000, -1.000000000000000000, -0.0000000000000000000 ) ) ;
#36 = AXIS2_PLACEMENT_3D ( 'NONE', #77, #163, #368 ) ;
#37 = DIRECTION ( 'NONE',  ( 0.0000000000000000000, 0.0000000000000000000, -1.000000000000000000 ) ) ;
#38 = CIRCLE ( 'NONE', #151, 1.899999999999999900 ) ;
#39 = APPLICATION_PROTOCOL_DEFINITION ( 'draft international standard', 'automotive_design', 1998, #237 ) ;
#40 = ORIENTED_EDGE ( 'NONE', *, *, #12, .T. ) ;
#41 =( LENGTH_UNIT ( ) NAMED_UNIT ( * ) SI_UNIT ( .MILLI., .METRE. ) );
#42 = AXIS2_PLACEMENT_3D ( 'NONE', #138, #190, #31 ) ;
#43 = AXIS2_PLACEMENT_3D ( 'NONE', #72, #271, #126 ) ;
#44 = CIRCLE ( 'NONE', #90, 1.495854811567262100 ) ;
#45 = CARTESIAN_POINT ( 'NONE',  ( 0.0000000000000000000, 7.000000000000000000, 0.0000000000000000000 ) ) ;
#46 = VECTOR ( 'NONE', #141, 1000.000000000000000 ) ;
#47 = CARTESIAN_POINT ( 'NONE',  ( 0.0000000000000000000, 13.70000000000000100, 0.0000000000000000000 ) ) ;
#48 = AXIS2_PLACEMENT_3D ( 'NONE', #91, #146, #355 ) ;
#49 = ORIENTED_EDGE ( 'NONE', *, *, #71, .T. ) ;
#50 = ORIENTED_EDGE ( 'NONE', *, *, #12, .F. ) ;
#51 = DIRECTION ( 'NONE',  ( 0.0000000000000000000, 0.0000000000000000000, -1.000000000000000000 ) ) ;
#52 = SURFACE_STYLE_FILL_AREA ( #54 ) ;
#53 = CARTESIAN_POINT ( 'NONE',  ( 0.0000000000000000000, 0.0000000000000000000, 0.0000000000000000000 ) ) ;
#54 = FILL_AREA_STYLE ('',( #251 ) ) ;
#55 = VERTEX_POINT ( 'NONE', #208 ) ;
#56 = ORIENTED_EDGE ( 'NONE', *, *, #363, .F. ) ;
#57 =( GEOMETRIC_REPRESENTATION_CONTEXT ( 3 ) GLOBAL_UNCERTAINTY_ASSIGNED_CONTEXT ( ( #247 ) ) GLOBAL_UNIT_ASSIGNED_CONTEXT ( ( #323, #287, #142 ) ) REPRESENTATION_CONTEXT ( 'NONE', 'WORKASPACE' ) );
#58 = LINE ( 'NONE', #224, #46 ) ;
#59 = DIRECTION ( 'NONE',  ( 0.0000000000000000000, 0.0000000000000000000, -1.000000000000000000 ) ) ;
#60 = ORIENTED_EDGE ( 'NONE', *, *, #145, .T. ) ;
#61 = DIRECTION ( 'NONE',  ( 0.0000000000000000000, -0.0000000000000000000, 1.000000000000000000 ) ) ;
#62 = EDGE_CURVE ( 'NONE', #295, #285, #275, .T. ) ;
#63 = DIRECTION ( 'NONE',  ( 0.0000000000000000000, 0.0000000000000000000, -1.000000000000000000 ) ) ;
#64 = FACE_OUTER_BOUND ( 'NONE', #294, .T. ) ;
#65 = APPLICATION_CONTEXT ( 'automotive_design' ) ;
#66 = VERTEX_POINT ( 'NONE', #242 ) ;
#67 = VECTOR ( 'NONE', #207, 999.9999999999998900 ) ;
#68 = SURFACE_STYLE_FILL_AREA ( #144 ) ;
#69 = PRESENTATION_STYLE_ASSIGNMENT (( #86 ) ) ;
#70 = ORIENTED_EDGE ( 'NONE', *, *, #10, .T. ) ;
#71 = EDGE_CURVE ( 'NONE', #303, #354, #148, .T. ) ;
#72 = CARTESIAN_POINT ( 'NONE',  ( 0.0000000000000000000, 13.70000000000000100, 0.0000000000000000000 ) ) ;
#73 = EDGE_CURVE ( 'NONE', #107, #199, #309, .T. ) ;
#74 = CARTESIAN_POINT ( 'NONE',  ( 0.0000000000000000000, 13.99999999999999800, 0.0000000000000000000 ) ) ;
#75 = LINE ( 'NONE', #121, #179 ) ;
#76 = EDGE_LOOP ( 'NONE', ( #274, #22, #302, #347 ) ) ;
#77 = CARTESIAN_POINT ( 'NONE',  ( 1.195548663740071100E-016, 13.39999999999999900, -0.9762395692965993900 ) ) ;
#78 = LINE ( 'NONE', #306, #67 ) ;
#79 = ADVANCED_FACE ( 'NONE', ( #122 ), #16, .T. ) ;
#80 = CARTESIAN_POINT ( 'NONE',  ( 0.0000000000000000000, 13.99999999999999800, 0.9762395692965993900 ) ) ;
#81 = CIRCLE ( 'NONE', #361, 1.899999999999999900 ) ;
#82 = AXIS2_PLACEMENT_3D ( 'NONE', #74, #335, #276 ) ;
#83 = EDGE_CURVE ( 'NONE', #362, #13, #164, .T. ) ;
#84 = ORIENTED_EDGE ( 'NONE', *, *, #363, .T. ) ;
#85 = AXIS2_PLACEMENT_3D ( 'NONE', #315, #245, #308 ) ;
#86 = SURFACE_STYLE_USAGE ( .BOTH. , #324 ) ;
#87 = CARTESIAN_POINT ( 'NONE',  ( 0.0000000000000000000, 0.0000000000000000000, 0.0000000000000000000 ) ) ;
#88 = CARTESIAN_POINT ( 'NONE',  ( 0.0000000000000000000, 13.00000000000000200, -1.899999999999999900 ) ) ;
#89 = DIRECTION ( 'NONE',  ( 0.0000000000000000000, 0.0000000000000000000, 1.000000000000000000 ) ) ;
#90 = AXIS2_PLACEMENT_3D ( 'NONE', #47, #279, #129 ) ;
#91 = CARTESIAN_POINT ( 'NONE',  ( 0.0000000000000000000, 0.0000000000000000000, 0.0000000000000000000 ) ) ;
#92 = ORIENTED_EDGE ( 'NONE', *, *, #119, .T. ) ;
#93 = DIRECTION ( 'NONE',  ( -0.0000000000000000000, -1.000000000000000000, -0.0000000000000000000 ) ) ;
#94 = DIRECTION ( 'NONE',  ( 0.0000000000000000000, 0.0000000000000000000, -1.000000000000000000 ) ) ;
#95 = ORIENTED_EDGE ( 'NONE', *, *, #73, .T. ) ;
#96 = AXIS2_PLACEMENT_3D ( 'NONE', #329, #235, #94 ) ;
#97 = TOROIDAL_SURFACE ( 'NONE', #158, 0.9762395692965993900, 0.5999999999999999800 ) ;
#98 = CARTESIAN_POINT ( 'NONE',  ( 6.123233995736727800E-017, 0.0000000000000000000, -0.4999999999999970000 ) ) ;
#99 = EDGE_CURVE ( 'NONE', #212, #265, #348, .T. ) ;
#100 = CARTESIAN_POINT ( 'NONE',  ( 0.0000000000000000000, 0.0000000000000000000, 0.4999999999999970000 ) ) ;
#101 = AXIS2_PLACEMENT_3D ( 'NONE', #345, #172, #7 ) ;
#102 = DIRECTION ( 'NONE',  ( 0.0000000000000000000, 0.0000000000000000000, -1.000000000000000000 ) ) ;
#103 = DIRECTION ( 'NONE',  ( 0.0000000000000000000, 1.000000000000000000, 0.0000000000000000000 ) ) ;
#104 = FACE_OUTER_BOUND ( 'NONE', #367, .T. ) ;
#105 = CARTESIAN_POINT ( 'NONE',  ( 0.0000000000000000000, 0.0000000000000000000, 0.0000000000000000000 ) ) ;
#106 = PRODUCT_DEFINITION ( 'UNKNOWN', '', #261, #154 ) ;
#107 = VERTEX_POINT ( 'NONE', #80 ) ;
#108 = DIRECTION ( 'NONE',  ( -0.0000000000000000000, -1.000000000000000000, -0.0000000000000000000 ) ) ;
#109 = CARTESIAN_POINT ( 'NONE',  ( 0.0000000000000000000, 0.0000000000000000000, 0.0000000000000000000 ) ) ;
#110 = CIRCLE ( 'NONE', #21, 0.5999999999999999800 ) ;
#111 = AXIS2_PLACEMENT_3D ( 'NONE', #200, #298, #37 ) ;
#112 = DIRECTION ( 'NONE',  ( 0.0000000000000000000, 1.000000000000000000, 0.0000000000000000000 ) ) ;
#113 = DIRECTION ( 'NONE',  ( 0.0000000000000000000, 0.0000000000000000000, 1.000000000000000000 ) ) ;
#114 = FACE_OUTER_BOUND ( 'NONE', #322, .T. ) ;
#115 = CARTESIAN_POINT ( 'NONE',  ( 1.224646799147353200E-016, 6.999999999999999100, 1.000000000000000000 ) ) ;
#116 = ORIENTED_EDGE ( 'NONE', *, *, #99, .T. ) ;
#117 = CARTESIAN_POINT ( 'NONE',  ( 0.0000000000000000000, 13.00000000000000200, 0.0000000000000000000 ) ) ;
#118 = EDGE_CURVE ( 'NONE', #362, #8, #248, .T. ) ;
#119 = EDGE_CURVE ( 'NONE', #32, #8, #184, .T. ) ;
#120 = EDGE_CURVE ( 'NONE', #303, #32, #346, .T. ) ;
#121 = CARTESIAN_POINT ( 'NONE',  ( 0.0000000000000000000, 0.0000000000000000000, -1.000000000000000000 ) ) ;
#122 = FACE_OUTER_BOUND ( 'NONE', #238, .T. ) ;
#123 = CONICAL_SURFACE ( 'NONE', #156, 0.4999999999999970000, 0.7853981633974466100 ) ;
#124 = FACE_OUTER_BOUND ( 'NONE', #155, .T. ) ;
#125 = EDGE_CURVE ( 'NONE', #66, #107, #110, .T. ) ;
#126 = DIRECTION ( 'NONE',  ( 0.0000000000000000000, 0.0000000000000000000, 1.000000000000000000 ) ) ;
#127 = ORIENTED_EDGE ( 'NONE', *, *, #176, .F. ) ;
#128 = PRODUCT_DEFINITION_SHAPE ( 'NONE', 'NONE',  #106 ) ;
#129 = DIRECTION ( 'NONE',  ( 0.0000000000000000000, 0.0000000000000000000, 1.000000000000000000 ) ) ;
#130 = AXIS2_PLACEMENT_3D ( 'NONE', #330, #234, #296 ) ;
#131 = ADVANCED_FACE ( 'NONE', ( #263 ), #252, .T. ) ;
#132 = ORIENTED_EDGE ( 'NONE', *, *, #118, .T. ) ;
#133 = CARTESIAN_POINT ( 'NONE',  ( 0.0000000000000000000, 6.999999999999999100, 0.0000000000000000000 ) ) ;
#134 = DIRECTION ( 'NONE',  ( 0.0000000000000000000, -0.8660254037844380400, -0.5000000000000012200 ) ) ;
#135 = CYLINDRICAL_SURFACE ( 'NONE', #42, 1.899999999999999900 ) ;
#136 = AXIS2_PLACEMENT_3D ( 'NONE', #165, #103, #341 ) ;
#137 = EDGE_CURVE ( 'NONE', #212, #199, #273, .T. ) ;
#138 = CARTESIAN_POINT ( 'NONE',  ( 0.0000000000000000000, 0.0000000000000000000, 0.0000000000000000000 ) ) ;
#139 = ORIENTED_EDGE ( 'NONE', *, *, #83, .F. ) ;
#140 = CARTESIAN_POINT ( 'NONE',  ( 2.326828918379971400E-016, 13.00000000000000200, 1.899999999999999900 ) ) ;
#141 = DIRECTION ( 'NONE',  ( -0.0000000000000000000, -1.000000000000000000, -0.0000000000000000000 ) ) ;
#142 =( NAMED_UNIT ( * ) SI_UNIT ( $, .STERADIAN. ) SOLID_ANGLE_UNIT ( ) );
#143 = AXIS2_PLACEMENT_3D ( 'NONE', #26, #185, #51 ) ;
#144 = FILL_AREA_STYLE ('',( #325 ) ) ;
#145 = EDGE_CURVE ( 'NONE', #212, #66, #44, .T. ) ;
#146 = DIRECTION ( 'NONE',  ( 0.0000000000000000000, 0.0000000000000000000, 1.000000000000000000 ) ) ;
#147 =( NAMED_UNIT ( * ) PLANE_ANGLE_UNIT ( ) SI_UNIT ( $, .RADIAN. ) );
#148 = LINE ( 'NONE', #98, #201 ) ;
#149 = CARTESIAN_POINT ( 'NONE',  ( 0.0000000000000000000, 0.5000000000000047700, -1.000000000000000000 ) ) ;
#150 = COLOUR_RGB ( '',0.7529411764705882200, 0.7529411764705882200, 0.7529411764705882200 ) ;
#151 = AXIS2_PLACEMENT_3D ( 'NONE', #313, #188, #161 ) ;
#152 = ADVANCED_BREP_SHAPE_REPRESENTATION ( '38893~0', ( #288, #48 ), #217 ) ;
#153 = SHAPE_DEFINITION_REPRESENTATION ( #128, #152 ) ;
#154 = PRODUCT_DEFINITION_CONTEXT ( 'detailed design', #65, 'design' ) ;
#155 = EDGE_LOOP ( 'NONE', ( #270, #127, #92, #297 ) ) ;
#156 = AXIS2_PLACEMENT_3D ( 'NONE', #28, #365, #282 ) ;
#157 = EDGE_CURVE ( 'NONE', #265, #295, #38, .T. ) ;
#158 = AXIS2_PLACEMENT_3D ( 'NONE', #167, #257, #89 ) ;
#159 = DIRECTION ( 'NONE',  ( -1.000000000000000000, 0.0000000000000000000, 0.0000000000000000000 ) ) ;
#160 = ORIENTED_EDGE ( 'NONE', *, *, #1, .T. ) ;
#161 = DIRECTION ( 'NONE',  ( 0.0000000000000000000, 0.0000000000000000000, -1.000000000000000000 ) ) ;
#162 = AXIS2_PLACEMENT_3D ( 'NONE', #105, #250, #102 ) ;
#163 = DIRECTION ( 'NONE',  ( 1.000000000000000000, -0.0000000000000000000, 1.224646799147353200E-016 ) ) ;
#164 = CIRCLE ( 'NONE', #192, 1.000000000000000000 ) ;
#165 = CARTESIAN_POINT ( 'NONE',  ( 0.0000000000000000000, 13.99999999999999800, 0.0000000000000000000 ) ) ;
#166 = ADVANCED_FACE ( 'NONE', ( #124 ), #123, .T. ) ;
#167 = CARTESIAN_POINT ( 'NONE',  ( 0.0000000000000000000, 13.39999999999999900, 0.0000000000000000000 ) ) ;
#168 = DIRECTION ( 'NONE',  ( 0.0000000000000000000, 0.0000000000000000000, -1.000000000000000000 ) ) ;
#169 = FACE_OUTER_BOUND ( 'NONE', #260, .T. ) ;
#170 = ORIENTED_EDGE ( 'NONE', *, *, #177, .T. ) ;
#171 = ADVANCED_FACE ( 'NONE', ( #169, #231 ), #249, .T. ) ;
#172 = DIRECTION ( 'NONE',  ( -0.0000000000000000000, -1.000000000000000000, -0.0000000000000000000 ) ) ;
#173 = ORIENTED_EDGE ( 'NONE', *, *, #317, .F. ) ;
#174 =( LENGTH_UNIT ( ) NAMED_UNIT ( * ) SI_UNIT ( .MILLI., .METRE. ) );
#175 = DIRECTION ( 'NONE',  ( -0.0000000000000000000, -1.000000000000000000, -0.0000000000000000000 ) ) ;
#176 = EDGE_CURVE ( 'NONE', #32, #303, #180, .T. ) ;
#177 = EDGE_CURVE ( 'NONE', #13, #362, #272, .T. ) ;
#178 = CARTESIAN_POINT ( 'NONE',  ( 0.0000000000000000000, 13.00000000000000200, 0.0000000000000000000 ) ) ;
#179 = VECTOR ( 'NONE', #175, 1000.000000000000000 ) ;
#180 = CIRCLE ( 'NONE', #101, 0.4999999999999970000 ) ;
#181 = AXIS2_PLACEMENT_3D ( 'NONE', #229, #35, #193 ) ;
#182 = DIRECTION ( 'NONE',  ( -0.0000000000000000000, -1.000000000000000000, -0.0000000000000000000 ) ) ;
#183 = CARTESIAN_POINT ( 'NONE',  ( 2.326828918379971400E-016, 0.0000000000000000000, 1.899999999999999900 ) ) ;
#184 = LINE ( 'NONE', #216, #314 ) ;
#185 = DIRECTION ( 'NONE',  ( 0.0000000000000000000, -1.000000000000000000, -0.0000000000000000000 ) ) ;
#186 = ADVANCED_FACE ( 'NONE', ( #336 ), #195, .T. ) ;
#187 = CYLINDRICAL_SURFACE ( 'NONE', #209, 1.899999999999999900 ) ;
#188 = DIRECTION ( 'NONE',  ( -0.0000000000000000000, -1.000000000000000000, -0.0000000000000000000 ) ) ;
#189 = ADVANCED_FACE ( 'NONE', ( #104 ), #333, .T. ) ;
#190 = DIRECTION ( 'NONE',  ( -0.0000000000000000000, -1.000000000000000000, -0.0000000000000000000 ) ) ;
#191 = ORIENTED_EDGE ( 'NONE', *, *, #327, .T. ) ;
#192 = AXIS2_PLACEMENT_3D ( 'NONE', #133, #215, #344 ) ;
#193 = DIRECTION ( 'NONE',  ( 0.0000000000000000000, 0.0000000000000000000, -1.000000000000000000 ) ) ;
#194 = UNCERTAINTY_MEASURE_WITH_UNIT (LENGTH_MEASURE( 1.000000000000000100E-005 ), #41, 'distance_accuracy_value', 'NONE');
#195 = PLANE ( 'NONE',  #332 ) ;
#196 = AXIS2_PLACEMENT_3D ( 'NONE', #87, #291, #284 ) ;
#197 = SURFACE_SIDE_STYLE ('',( #68 ) ) ;
#198 = ORIENTED_EDGE ( 'NONE', *, *, #317, .T. ) ;
#199 = VERTEX_POINT ( 'NONE', #228 ) ;
#200 = CARTESIAN_POINT ( 'NONE',  ( 0.0000000000000000000, 0.0000000000000000000, 0.0000000000000000000 ) ) ;
#201 = VECTOR ( 'NONE', #205, 1000.000000000000000 ) ;
#202 = FACE_OUTER_BOUND ( 'NONE', #233, .T. ) ;
#203 = ORIENTED_EDGE ( 'NONE', *, *, #311, .F. ) ;
#204 = DIRECTION ( 'NONE',  ( -0.0000000000000000000, -1.000000000000000000, -0.0000000000000000000 ) ) ;
#205 = DIRECTION ( 'NONE',  ( 8.659560562354919300E-017, 0.7071067811865487900, -0.7071067811865463500 ) ) ;
#206 = ORIENTED_EDGE ( 'NONE', *, *, #326, .T. ) ;
#207 = DIRECTION ( 'NONE',  ( 6.123233995736782100E-017, -0.8660254037844380400, 0.5000000000000012200 ) ) ;
#208 = CARTESIAN_POINT ( 'NONE',  ( 0.0000000000000000000, 7.000000000000000000, -1.899999999999999900 ) ) ;
#209 = AXIS2_PLACEMENT_3D ( 'NONE', #109, #352, #59 ) ;
#210 = CIRCLE ( 'NONE', #130, 1.000000000000000000 ) ;
#211 = DIRECTION ( 'NONE',  ( -0.0000000000000000000, -1.000000000000000000, -0.0000000000000000000 ) ) ;
#212 = VERTEX_POINT ( 'NONE', #254 ) ;
#213 = EDGE_LOOP ( 'NONE', ( #24, #139 ) ) ;
#214 = ORIENTED_EDGE ( 'NONE', *, *, #119, .F. ) ;
#215 = DIRECTION ( 'NONE',  ( -0.0000000000000000000, -1.000000000000000000, -0.0000000000000000000 ) ) ;
#216 = CARTESIAN_POINT ( 'NONE',  ( 0.0000000000000000000, 0.0000000000000000000, 0.4999999999999970000 ) ) ;
#217 =( GEOMETRIC_REPRESENTATION_CONTEXT ( 3 ) GLOBAL_UNCERTAINTY_ASSIGNED_CONTEXT ( ( #194 ) ) GLOBAL_UNIT_ASSIGNED_CONTEXT ( ( #41, #147, #300 ) ) REPRESENTATION_CONTEXT ( 'NONE', 'WORKASPACE' ) );
#218 = FACE_OUTER_BOUND ( 'NONE', #334, .T. ) ;
#219 = ADVANCED_FACE ( 'NONE', ( #64 ), #187, .T. ) ;
#220 = DIRECTION ( 'NONE',  ( 0.0000000000000000000, 0.7071067811865487900, 0.7071067811865463500 ) ) ;
#221 = CLOSED_SHELL ( 'NONE', ( #281, #189, #79, #283, #349, #186, #371, #219, #171, #131, #318, #166, #222 ) ) ;
#222 = ADVANCED_FACE ( 'NONE', ( #114 ), #97, .T. ) ;
#223 = CARTESIAN_POINT ( 'NONE',  ( 2.326828918379971400E-016, 7.000000000000000000, 1.899999999999999900 ) ) ;
#224 = CARTESIAN_POINT ( 'NONE',  ( 0.0000000000000000000, 0.0000000000000000000, -1.899999999999999900 ) ) ;
#225 = ORIENTED_EDGE ( 'NONE', *, *, #83, .T. ) ;
#226 = ORIENTED_EDGE ( 'NONE', *, *, #62, .F. ) ;
#227 = AXIS2_PLACEMENT_3D ( 'NONE', #178, #93, #15 ) ;
#228 = CARTESIAN_POINT ( 'NONE',  ( 1.513721235357542700E-016, 13.99999999999999800, -0.9762395692965993900 ) ) ;
#229 = CARTESIAN_POINT ( 'NONE',  ( 0.0000000000000000000, 6.999999999999999100, 0.0000000000000000000 ) ) ;
#230 = PRESENTATION_STYLE_ASSIGNMENT (( #14 ) ) ;
#231 = FACE_BOUND ( 'NONE', #213, .T. ) ;
#232 = DIRECTION ( 'NONE',  ( -0.0000000000000000000, -1.000000000000000000, -0.0000000000000000000 ) ) ;
#233 = EDGE_LOOP ( 'NONE', ( #256, #40, #116, #203 ) ) ;
#234 = DIRECTION ( 'NONE',  ( 0.0000000000000000000, 1.000000000000000000, 0.0000000000000000000 ) ) ;
#235 = DIRECTION ( 'NONE',  ( 0.0000000000000000000, 1.000000000000000000, 0.0000000000000000000 ) ) ;
#236 = AXIS2_PLACEMENT_3D ( 'NONE', #372, #112, #113 ) ;
#237 = APPLICATION_CONTEXT ( 'automotive_design' ) ;
#238 = EDGE_LOOP ( 'NONE', ( #170, #132, #84, #328 ) ) ;
#239 = MECHANICAL_DESIGN_GEOMETRIC_PRESENTATION_REPRESENTATION (  '', ( #267 ), #351 ) ;
#240 = ORIENTED_EDGE ( 'NONE', *, *, #299, .T. ) ;
#241 = VECTOR ( 'NONE', #134, 999.9999999999998900 ) ;
#242 = CARTESIAN_POINT ( 'NONE',  ( 2.079361362677492800E-016, 13.70000000000000100, 1.495854811567262100 ) ) ;
#243 = DIRECTION ( 'NONE',  ( 0.0000000000000000000, 0.0000000000000000000, -1.000000000000000000 ) ) ;
#244 = AXIS2_PLACEMENT_3D ( 'NONE', #117, #232, #63 ) ;
#245 = DIRECTION ( 'NONE',  ( -0.0000000000000000000, -1.000000000000000000, -0.0000000000000000000 ) ) ;
#246 = CARTESIAN_POINT ( 'NONE',  ( 0.0000000000000000000, 13.00000000000000200, -1.899999999999999900 ) ) ;
#247 = UNCERTAINTY_MEASURE_WITH_UNIT (LENGTH_MEASURE( 1.000000000000000100E-005 ), #323, 'distance_accuracy_value', 'NONE');
#248 = LINE ( 'NONE', #25, #357 ) ;
#249 = PLANE ( 'NONE',  #143 ) ;
#250 = DIRECTION ( 'NONE',  ( -0.0000000000000000000, -1.000000000000000000, -0.0000000000000000000 ) ) ;
#251 = FILL_AREA_STYLE_COLOUR ( '', #312 ) ;
#252 = CYLINDRICAL_SURFACE ( 'NONE', #162, 1.000000000000000000 ) ;
#253 = PRESENTATION_LAYER_ASSIGNMENT (  '', '', ( #339 ) ) ;
#254 = CARTESIAN_POINT ( 'NONE',  ( 0.0000000000000000000, 13.70000000000000100, -1.495854811567262100 ) ) ;
#255 = ORIENTED_EDGE ( 'NONE', *, *, #118, .F. ) ;
#256 = ORIENTED_EDGE ( 'NONE', *, *, #10, .F. ) ;
#257 = DIRECTION ( 'NONE',  ( 0.0000000000000000000, 1.000000000000000000, 0.0000000000000000000 ) ) ;
#258 =( NAMED_UNIT ( * ) PLANE_ANGLE_UNIT ( ) SI_UNIT ( $, .RADIAN. ) );
#259 = ORIENTED_EDGE ( 'NONE', *, *, #120, .T. ) ;
#260 = EDGE_LOOP ( 'NONE', ( #160, #240 ) ) ;
#261 = PRODUCT_DEFINITION_FORMATION_WITH_SPECIFIED_SOURCE ( 'ANY', '', #289, .NOT_KNOWN. ) ;
#262 = PLANE ( 'NONE',  #111 ) ;
#263 = FACE_OUTER_BOUND ( 'NONE', #337, .T. ) ;
#264 = ORIENTED_EDGE ( 'NONE', *, *, #299, .F. ) ;
#265 = VERTEX_POINT ( 'NONE', #88 ) ;
#266 = CONICAL_SURFACE ( 'NONE', #227, 1.899999999999999900, 0.5235987755983002600 ) ;
#267 = STYLED_ITEM ( 'NONE', ( #230 ), #152 ) ;
#268 = FACE_OUTER_BOUND ( 'NONE', #364, .T. ) ;
#269 = ORIENTED_EDGE ( 'NONE', *, *, #176, .T. ) ;
#270 = ORIENTED_EDGE ( 'NONE', *, *, #71, .F. ) ;
#271 = DIRECTION ( 'NONE',  ( -0.0000000000000000000, -1.000000000000000000, -0.0000000000000000000 ) ) ;
#272 = CIRCLE ( 'NONE', #181, 1.000000000000000000 ) ;
#273 = CIRCLE ( 'NONE', #36, 0.5999999999999999800 ) ;
#274 = ORIENTED_EDGE ( 'NONE', *, *, #145, .F. ) ;
#275 = LINE ( 'NONE', #183, #338 ) ;
#276 = DIRECTION ( 'NONE',  ( 0.0000000000000000000, 0.0000000000000000000, 1.000000000000000000 ) ) ;
#277 = AXIS2_PLACEMENT_3D ( 'NONE', #321, #290, #168 ) ;
#278 = CIRCLE ( 'NONE', #277, 1.899999999999999900 ) ;
#279 = DIRECTION ( 'NONE',  ( -0.0000000000000000000, -1.000000000000000000, -0.0000000000000000000 ) ) ;
#280 = PRODUCT_RELATED_PRODUCT_CATEGORY ( 'part', '', ( #289 ) ) ;
#281 = ADVANCED_FACE ( 'NONE', ( #27 ), #17, .T. ) ;
#282 = DIRECTION ( 'NONE',  ( 0.0000000000000000000, 0.0000000000000000000, 1.000000000000000000 ) ) ;
#283 = ADVANCED_FACE ( 'NONE', ( #218 ), #135, .T. ) ;
#284 = DIRECTION ( 'NONE',  ( 0.0000000000000000000, 0.0000000000000000000, 1.000000000000000000 ) ) ;
#285 = VERTEX_POINT ( 'NONE', #223 ) ;
#286 = ORIENTED_EDGE ( 'NONE', *, *, #157, .F. ) ;
#287 =( NAMED_UNIT ( * ) PLANE_ANGLE_UNIT ( ) SI_UNIT ( $, .RADIAN. ) );
#288 = MANIFOLD_SOLID_BREP ( 'Verrundung1', #221 ) ;
#289 = PRODUCT ( '38893~0', '38893~0', '', ( #9 ) ) ;
#290 = DIRECTION ( 'NONE',  ( -0.0000000000000000000, -1.000000000000000000, -0.0000000000000000000 ) ) ;
#291 = DIRECTION ( 'NONE',  ( 0.0000000000000000000, 1.000000000000000000, 0.0000000000000000000 ) ) ;
#292 = PRESENTATION_LAYER_ASSIGNMENT (  '', '', ( #267 ) ) ;
#293 = CARTESIAN_POINT ( 'NONE',  ( 9.184850993605129900E-017, 0.0000000000000000000, -0.4999999999999970000 ) ) ;
#294 = EDGE_LOOP ( 'NONE', ( #226, #353, #198, #264 ) ) ;
#295 = VERTEX_POINT ( 'NONE', #140 ) ;
#296 = DIRECTION ( 'NONE',  ( 0.0000000000000000000, 0.0000000000000000000, -1.000000000000000000 ) ) ;
#297 = ORIENTED_EDGE ( 'NONE', *, *, #326, .F. ) ;
#298 = DIRECTION ( 'NONE',  ( 0.0000000000000000000, -1.000000000000000000, -0.0000000000000000000 ) ) ;
#299 = EDGE_CURVE ( 'NONE', #285, #55, #278, .T. ) ;
#300 =( NAMED_UNIT ( * ) SI_UNIT ( $, .STERADIAN. ) SOLID_ANGLE_UNIT ( ) );
#301 = AXIS2_PLACEMENT_3D ( 'NONE', #53, #108, #243 ) ;
#302 = ORIENTED_EDGE ( 'NONE', *, *, #73, .F. ) ;
#303 = VERTEX_POINT ( 'NONE', #293 ) ;
#304 = CARTESIAN_POINT ( 'NONE',  ( 1.224646799147353200E-016, 0.5000000000000047700, 1.000000000000000000 ) ) ;
#305 = ORIENTED_EDGE ( 'NONE', *, *, #125, .T. ) ;
#306 = CARTESIAN_POINT ( 'NONE',  ( 2.326828918379971400E-016, 13.00000000000000200, 1.899999999999999900 ) ) ;
#307 = FACE_OUTER_BOUND ( 'NONE', #19, .T. ) ;
#308 = DIRECTION ( 'NONE',  ( 0.0000000000000000000, 0.0000000000000000000, -1.000000000000000000 ) ) ;
#309 = CIRCLE ( 'NONE', #136, 0.9762395692965993900 ) ;
#310 = ORIENTED_EDGE ( 'NONE', *, *, #62, .T. ) ;
#311 = EDGE_CURVE ( 'NONE', #295, #265, #81, .T. ) ;
#312 = COLOUR_RGB ( '',0.7529411764705882200, 0.7529411764705882200, 0.7529411764705882200 ) ;
#313 = CARTESIAN_POINT ( 'NONE',  ( 0.0000000000000000000, 13.00000000000000200, 0.0000000000000000000 ) ) ;
#314 = VECTOR ( 'NONE', #220, 1000.000000000000000 ) ;
#315 = CARTESIAN_POINT ( 'NONE',  ( 0.0000000000000000000, 0.0000000000000000000, 0.0000000000000000000 ) ) ;
#316 = EDGE_LOOP ( 'NONE', ( #95, #342 ) ) ;
#317 = EDGE_CURVE ( 'NONE', #265, #55, #58, .T. ) ;
#318 = ADVANCED_FACE ( 'NONE', ( #268 ), #262, .T. ) ;
#319 = CARTESIAN_POINT ( 'NONE',  ( 1.322649730810372800, 13.99999999999999800, 0.0000000000000000000 ) ) ;
#320 = MECHANICAL_DESIGN_GEOMETRIC_PRESENTATION_REPRESENTATION (  '', ( #339 ), #57 ) ;
#321 = CARTESIAN_POINT ( 'NONE',  ( 0.0000000000000000000, 7.000000000000000000, 0.0000000000000000000 ) ) ;
#322 = EDGE_LOOP ( 'NONE', ( #358, #50, #305, #360 ) ) ;
#323 =( LENGTH_UNIT ( ) NAMED_UNIT ( * ) SI_UNIT ( .MILLI., .METRE. ) );
#324 = SURFACE_SIDE_STYLE ('',( #52 ) ) ;
#325 = FILL_AREA_STYLE_COLOUR ( '', #150 ) ;
#326 = EDGE_CURVE ( 'NONE', #354, #8, #5, .T. ) ;
#327 = EDGE_CURVE ( 'NONE', #13, #354, #75, .T. ) ;
#328 = ORIENTED_EDGE ( 'NONE', *, *, #327, .F. ) ;
#329 = CARTESIAN_POINT ( 'NONE',  ( 0.0000000000000000000, 0.5000000000000047700, 0.0000000000000000000 ) ) ;
#330 = CARTESIAN_POINT ( 'NONE',  ( 0.0000000000000000000, 0.5000000000000047700, 0.0000000000000000000 ) ) ;
#331 = UNCERTAINTY_MEASURE_WITH_UNIT (LENGTH_MEASURE( 1.000000000000000100E-005 ), #174, 'distance_accuracy_value', 'NONE');
#332 = AXIS2_PLACEMENT_3D ( 'NONE', #319, #2, #61 ) ;
#333 = CONICAL_SURFACE ( 'NONE', #196, 0.4999999999999970000, 0.7853981633974466100 ) ;
#334 = EDGE_LOOP ( 'NONE', ( #359, #310, #366, #173 ) ) ;
#335 = DIRECTION ( 'NONE',  ( 0.0000000000000000000, 1.000000000000000000, 0.0000000000000000000 ) ) ;
#336 = FACE_OUTER_BOUND ( 'NONE', #316, .T. ) ;
#337 = EDGE_LOOP ( 'NONE', ( #255, #225, #191, #206 ) ) ;
#338 = VECTOR ( 'NONE', #204, 1000.000000000000000 ) ;
#339 = STYLED_ITEM ( 'NONE', ( #69 ), #288 ) ;
#340 = CARTESIAN_POINT ( 'NONE',  ( 0.0000000000000000000, 13.39999999999999900, 0.9762395692965993900 ) ) ;
#341 = DIRECTION ( 'NONE',  ( 0.0000000000000000000, 0.0000000000000000000, 1.000000000000000000 ) ) ;
#342 = ORIENTED_EDGE ( 'NONE', *, *, #30, .T. ) ;
#343 = ORIENTED_EDGE ( 'NONE', *, *, #120, .F. ) ;
#344 = DIRECTION ( 'NONE',  ( 0.0000000000000000000, 0.0000000000000000000, -1.000000000000000000 ) ) ;
#345 = CARTESIAN_POINT ( 'NONE',  ( 0.0000000000000000000, 0.0000000000000000000, 0.0000000000000000000 ) ) ;
#346 = CIRCLE ( 'NONE', #301, 0.4999999999999970000 ) ;
#347 = ORIENTED_EDGE ( 'NONE', *, *, #125, .F. ) ;
#348 = LINE ( 'NONE', #246, #241 ) ;
#349 = ADVANCED_FACE ( 'NONE', ( #307 ), #266, .T. ) ;
#350 = DIRECTION ( 'NONE',  ( -0.0000000000000000000, -1.000000000000000000, -0.0000000000000000000 ) ) ;
#351 =( GEOMETRIC_REPRESENTATION_CONTEXT ( 3 ) GLOBAL_UNCERTAINTY_ASSIGNED_CONTEXT ( ( #331 ) ) GLOBAL_UNIT_ASSIGNED_CONTEXT ( ( #174, #258, #356 ) ) REPRESENTATION_CONTEXT ( 'NONE', 'WORKASPACE' ) );
#352 = DIRECTION ( 'NONE',  ( -0.0000000000000000000, -1.000000000000000000, -0.0000000000000000000 ) ) ;
#353 = ORIENTED_EDGE ( 'NONE', *, *, #311, .T. ) ;
#354 = VERTEX_POINT ( 'NONE', #149 ) ;
#355 = DIRECTION ( 'NONE',  ( 1.000000000000000000, 0.0000000000000000000, 0.0000000000000000000 ) ) ;
#356 =( NAMED_UNIT ( * ) SI_UNIT ( $, .STERADIAN. ) SOLID_ANGLE_UNIT ( ) );
#357 = VECTOR ( 'NONE', #211, 1000.000000000000000 ) ;
#358 = ORIENTED_EDGE ( 'NONE', *, *, #137, .F. ) ;
#359 = ORIENTED_EDGE ( 'NONE', *, *, #157, .T. ) ;
#360 = ORIENTED_EDGE ( 'NONE', *, *, #30, .F. ) ;
#361 = AXIS2_PLACEMENT_3D ( 'NONE', #6, #350, #34 ) ;
#362 = VERTEX_POINT ( 'NONE', #115 ) ;
#363 = EDGE_CURVE ( 'NONE', #8, #354, #210, .T. ) ;
#364 = EDGE_LOOP ( 'NONE', ( #269, #259 ) ) ;
#365 = DIRECTION ( 'NONE',  ( 0.0000000000000000000, 1.000000000000000000, 0.0000000000000000000 ) ) ;
#366 = ORIENTED_EDGE ( 'NONE', *, *, #1, .F. ) ;
#367 = EDGE_LOOP ( 'NONE', ( #343, #49, #56, #214 ) ) ;
#368 = DIRECTION ( 'NONE',  ( 1.224646799147353000E-016, 0.0000000000000000000, -1.000000000000000000 ) ) ;
#369 = DIRECTION ( 'NONE',  ( 0.0000000000000000000, 0.0000000000000000000, 1.000000000000000000 ) ) ;
#370 = ORIENTED_EDGE ( 'NONE', *, *, #99, .F. ) ;
#371 = ADVANCED_FACE ( 'NONE', ( #202 ), #3, .T. ) ;
#372 = CARTESIAN_POINT ( 'NONE',  ( 0.0000000000000000000, 13.39999999999999900, 0.0000000000000000000 ) ) ;
ENDSEC;
END-ISO-10303-21;
