ISO-10303-21;
HEADER;
FILE_DESCRIPTION (( 'STEP AP214' ),
    '1' );
FILE_NAME ('38890~0.STEP',
    '2017-07-04T09:02:53',
    ( '' ),
    ( '' ),
    'SwSTEP 2.0',
    'SolidWorks 2016',
    '' );
FILE_SCHEMA (( 'AUTOMOTIVE_DESIGN' ));
ENDSEC;

DATA;
#1 = ORIENTED_EDGE ( 'NONE', *, *, #337, .F. ) ;
#2 = ORIENTED_EDGE ( 'NONE', *, *, #63, .F. ) ;
#3 = EDGE_CURVE ( 'NONE', #191, #15, #58, .T. ) ;
#4 = DIRECTION ( 'NONE',  ( -0.0000000000000000000, -1.000000000000000000, -0.0000000000000000000 ) ) ;
#5 = CARTESIAN_POINT ( 'NONE',  ( 0.0000000000000000000, 13.39999999999999900, 0.8262395692965993600 ) ) ;
#6 = ORIENTED_EDGE ( 'NONE', *, *, #16, .T. ) ;
#7 = DIRECTION ( 'NONE',  ( 0.0000000000000000000, 0.0000000000000000000, -1.000000000000000000 ) ) ;
#8 = AXIS2_PLACEMENT_3D ( 'NONE', #85, #53, #291 ) ;
#9 = APPLICATION_PROTOCOL_DEFINITION ( 'draft international standard', 'automotive_design', 1998, #307 ) ;
#10 = FACE_OUTER_BOUND ( 'NONE', #129, .T. ) ;
#11 = ORIENTED_EDGE ( 'NONE', *, *, #197, .T. ) ;
#12 = ORIENTED_EDGE ( 'NONE', *, *, #325, .F. ) ;
#13 = FACE_OUTER_BOUND ( 'NONE', #259, .T. ) ;
#14 = ADVANCED_FACE ( 'NONE', ( #38 ), #94, .T. ) ;
#15 = VERTEX_POINT ( 'NONE', #18 ) ;
#16 = EDGE_CURVE ( 'NONE', #348, #323, #360, .T. ) ;
#17 = AXIS2_PLACEMENT_3D ( 'NONE', #264, #181, #91 ) ;
#18 = CARTESIAN_POINT ( 'NONE',  ( 1.330024215485439900E-016, 13.99999999999999800, -0.8262395692965993600 ) ) ;
#19 = TOROIDAL_SURFACE ( 'NONE', #74, 0.8262395692965993600, 0.5999999999999999800 ) ;
#20 = ORIENTED_EDGE ( 'NONE', *, *, #142, .F. ) ;
#21 = LINE ( 'NONE', #29, #154 ) ;
#22 = DIRECTION ( 'NONE',  ( 0.0000000000000000000, 1.000000000000000000, 0.0000000000000000000 ) ) ;
#23 = DIRECTION ( 'NONE',  ( -0.0000000000000000000, -1.000000000000000000, -0.0000000000000000000 ) ) ;
#24 = AXIS2_PLACEMENT_3D ( 'NONE', #200, #46, #170 ) ;
#25 = AXIS2_PLACEMENT_3D ( 'NONE', #239, #185, #238 ) ;
#26 = DIRECTION ( 'NONE',  ( -0.0000000000000000000, -1.000000000000000000, -0.0000000000000000000 ) ) ;
#27 = CARTESIAN_POINT ( 'NONE',  ( 0.0000000000000000000, 6.999999999999999100, 0.0000000000000000000 ) ) ;
#28 = DIRECTION ( 'NONE',  ( -1.000000000000000000, 0.0000000000000000000, 0.0000000000000000000 ) ) ;
#29 = CARTESIAN_POINT ( 'NONE',  ( 0.0000000000000000000, 0.0000000000000000000, -1.000000000000000000 ) ) ;
#30 = VERTEX_POINT ( 'NONE', #318 ) ;
#31 = ORIENTED_EDGE ( 'NONE', *, *, #72, .T. ) ;
#32 = LINE ( 'NONE', #269, #149 ) ;
#33 = AXIS2_PLACEMENT_3D ( 'NONE', #233, #116, #140 ) ;
#34 =( LENGTH_UNIT ( ) NAMED_UNIT ( * ) SI_UNIT ( .MILLI., .METRE. ) );
#35 = FILL_AREA_STYLE_COLOUR ( '', #40 ) ;
#36 = DIRECTION ( 'NONE',  ( 0.0000000000000000000, 1.000000000000000000, 0.0000000000000000000 ) ) ;
#37 =( NAMED_UNIT ( * ) PLANE_ANGLE_UNIT ( ) SI_UNIT ( $, .RADIAN. ) );
#38 = FACE_OUTER_BOUND ( 'NONE', #251, .T. ) ;
#39 = LINE ( 'NONE', #371, #270 ) ;
#40 = COLOUR_RGB ( '',0.7529411764705882200, 0.7529411764705882200, 0.7529411764705882200 ) ;
#41 = ADVANCED_FACE ( 'NONE', ( #210 ), #280, .T. ) ;
#42 = AXIS2_PLACEMENT_3D ( 'NONE', #230, #316, #137 ) ;
#43 = ADVANCED_BREP_SHAPE_REPRESENTATION ( '38890~0', ( #226, #235 ), #148 ) ;
#44 = EDGE_LOOP ( 'NONE', ( #80, #296, #121, #188 ) ) ;
#45 = CARTESIAN_POINT ( 'NONE',  ( 0.0000000000000000000, 13.00000000000000200, -1.750000000000000000 ) ) ;
#46 = DIRECTION ( 'NONE',  ( 1.000000000000000000, -0.0000000000000000000, 1.224646799147353200E-016 ) ) ;
#47 = EDGE_LOOP ( 'NONE', ( #113, #249, #70, #147 ) ) ;
#48 = DIRECTION ( 'NONE',  ( 0.0000000000000000000, 0.0000000000000000000, -1.000000000000000000 ) ) ;
#49 = VECTOR ( 'NONE', #277, 1000.000000000000000 ) ;
#50 = AXIS2_PLACEMENT_3D ( 'NONE', #372, #267, #87 ) ;
#51 = PLANE ( 'NONE',  #17 ) ;
#52 = ORIENTED_EDGE ( 'NONE', *, *, #317, .T. ) ;
#53 = DIRECTION ( 'NONE',  ( -0.0000000000000000000, -1.000000000000000000, -0.0000000000000000000 ) ) ;
#54 = DIRECTION ( 'NONE',  ( 0.0000000000000000000, 0.0000000000000000000, -1.000000000000000000 ) ) ;
#55 = EDGE_CURVE ( 'NONE', #323, #348, #343, .T. ) ;
#56 = ORIENTED_EDGE ( 'NONE', *, *, #161, .F. ) ;
#57 = DIRECTION ( 'NONE',  ( 0.0000000000000000000, -0.0000000000000000000, 1.000000000000000000 ) ) ;
#58 = CIRCLE ( 'NONE', #24, 0.5999999999999998700 ) ;
#59 = CARTESIAN_POINT ( 'NONE',  ( 0.0000000000000000000, 7.000000000000000000, -1.750000000000000000 ) ) ;
#60 = DIRECTION ( 'NONE',  ( -0.0000000000000000000, -1.000000000000000000, -0.0000000000000000000 ) ) ;
#61 = DIRECTION ( 'NONE',  ( 0.0000000000000000000, 1.000000000000000000, 0.0000000000000000000 ) ) ;
#62 = ORIENTED_EDGE ( 'NONE', *, *, #266, .T. ) ;
#63 = EDGE_CURVE ( 'NONE', #351, #323, #338, .T. ) ;
#64 = CARTESIAN_POINT ( 'NONE',  ( 0.0000000000000000000, 13.99999999999999800, 0.0000000000000000000 ) ) ;
#65 = FACE_OUTER_BOUND ( 'NONE', #110, .T. ) ;
#66 = DIRECTION ( 'NONE',  ( 1.000000000000000000, 0.0000000000000000000, 0.0000000000000000000 ) ) ;
#67 = AXIS2_PLACEMENT_3D ( 'NONE', #27, #23, #207 ) ;
#68 = PRODUCT_CONTEXT ( 'NONE', #111, 'mechanical' ) ;
#69 = VERTEX_POINT ( 'NONE', #89 ) ;
#70 = ORIENTED_EDGE ( 'NONE', *, *, #177, .F. ) ;
#71 = VECTOR ( 'NONE', #187, 1000.000000000000000 ) ;
#72 = EDGE_CURVE ( 'NONE', #69, #90, #130, .T. ) ;
#73 = COLOUR_RGB ( '',0.7529411764705882200, 0.7529411764705882200, 0.7529411764705882200 ) ;
#74 = AXIS2_PLACEMENT_3D ( 'NONE', #201, #22, #139 ) ;
#75 = VECTOR ( 'NONE', #60, 1000.000000000000000 ) ;
#76 = DIRECTION ( 'NONE',  ( 0.0000000000000000000, 0.0000000000000000000, 1.000000000000000000 ) ) ;
#77 = ADVANCED_FACE ( 'NONE', ( #353 ), #339, .T. ) ;
#78 = PRODUCT_DEFINITION_CONTEXT ( 'detailed design', #307, 'design' ) ;
#79 = VERTEX_POINT ( 'NONE', #237 ) ;
#80 = ORIENTED_EDGE ( 'NONE', *, *, #222, .F. ) ;
#81 = CARTESIAN_POINT ( 'NONE',  ( 0.0000000000000000000, 0.4999999999999995600, 0.0000000000000000000 ) ) ;
#82 = CONICAL_SURFACE ( 'NONE', #25, 1.750000000000000000, 0.5235987755983002600 ) ;
#83 = ORIENTED_EDGE ( 'NONE', *, *, #3, .F. ) ;
#84 = FACE_BOUND ( 'NONE', #175, .T. ) ;
#85 = CARTESIAN_POINT ( 'NONE',  ( 0.0000000000000000000, 13.00000000000000200, 0.0000000000000000000 ) ) ;
#86 = EDGE_CURVE ( 'NONE', #286, #229, #160, .T. ) ;
#87 = DIRECTION ( 'NONE',  ( 0.0000000000000000000, 0.0000000000000000000, 1.000000000000000000 ) ) ;
#88 = AXIS2_PLACEMENT_3D ( 'NONE', #5, #28, #151 ) ;
#89 = CARTESIAN_POINT ( 'NONE',  ( 0.0000000000000000000, 6.999999999999999100, -1.000000000000000000 ) ) ;
#90 = VERTEX_POINT ( 'NONE', #322 ) ;
#91 = DIRECTION ( 'NONE',  ( 0.0000000000000000000, 0.0000000000000000000, -1.000000000000000000 ) ) ;
#92 = DIRECTION ( 'NONE',  ( 0.0000000000000000000, 0.0000000000000000000, -1.000000000000000000 ) ) ;
#93 = SURFACE_STYLE_USAGE ( .BOTH. , #213 ) ;
#94 = CYLINDRICAL_SURFACE ( 'NONE', #42, 1.750000000000000000 ) ;
#95 = ORIENTED_EDGE ( 'NONE', *, *, #283, .T. ) ;
#96 = CONICAL_SURFACE ( 'NONE', #292, 0.5000000000000022200, 0.7853981633974466100 ) ;
#97 = DIRECTION ( 'NONE',  ( 0.0000000000000000000, 0.0000000000000000000, 1.000000000000000000 ) ) ;
#98 = AXIS2_PLACEMENT_3D ( 'NONE', #109, #227, #76 ) ;
#99 = CARTESIAN_POINT ( 'NONE',  ( 1.172649730810372900, 13.99999999999999800, 0.0000000000000000000 ) ) ;
#100 = APPLICATION_PROTOCOL_DEFINITION ( 'draft international standard', 'automotive_design', 1998, #111 ) ;
#101 = ORIENTED_EDGE ( 'NONE', *, *, #3, .T. ) ;
#102 =( LENGTH_UNIT ( ) NAMED_UNIT ( * ) SI_UNIT ( .MILLI., .METRE. ) );
#103 = UNCERTAINTY_MEASURE_WITH_UNIT (LENGTH_MEASURE( 1.000000000000000100E-005 ), #220, 'distance_accuracy_value', 'NONE');
#104 = SURFACE_STYLE_USAGE ( .BOTH. , #127 ) ;
#105 = CIRCLE ( 'NONE', #106, 1.750000000000000000 ) ;
#106 = AXIS2_PLACEMENT_3D ( 'NONE', #345, #265, #202 ) ;
#107 = ORIENTED_EDGE ( 'NONE', *, *, #86, .F. ) ;
#108 = AXIS2_PLACEMENT_3D ( 'NONE', #288, #263, #349 ) ;
#109 = CARTESIAN_POINT ( 'NONE',  ( 0.0000000000000000000, 13.69999999999999900, 0.0000000000000000000 ) ) ;
#110 = EDGE_LOOP ( 'NONE', ( #308, #52, #328, #20 ) ) ;
#111 = APPLICATION_CONTEXT ( 'automotive_design' ) ;
#112 = EDGE_LOOP ( 'NONE', ( #285, #163 ) ) ;
#113 = ORIENTED_EDGE ( 'NONE', *, *, #290, .T. ) ;
#114 = EDGE_CURVE ( 'NONE', #191, #329, #39, .T. ) ;
#115 = DIRECTION ( 'NONE',  ( 0.0000000000000000000, 0.0000000000000000000, -1.000000000000000000 ) ) ;
#116 = DIRECTION ( 'NONE',  ( -0.0000000000000000000, -1.000000000000000000, -0.0000000000000000000 ) ) ;
#117 = CARTESIAN_POINT ( 'NONE',  ( 0.0000000000000000000, 7.000000000000000000, 0.0000000000000000000 ) ) ;
#118 = CARTESIAN_POINT ( 'NONE',  ( 0.0000000000000000000, 6.999999999999999100, 0.0000000000000000000 ) ) ;
#119 = CARTESIAN_POINT ( 'NONE',  ( 0.0000000000000000000, 0.0000000000000000000, -1.750000000000000000 ) ) ;
#120 = ORIENTED_EDGE ( 'NONE', *, *, #86, .T. ) ;
#121 = ORIENTED_EDGE ( 'NONE', *, *, #16, .F. ) ;
#122 = FILL_AREA_STYLE_COLOUR ( '', #73 ) ;
#123 = FACE_OUTER_BOUND ( 'NONE', #112, .T. ) ;
#124 = PRESENTATION_LAYER_ASSIGNMENT (  '', '', ( #368 ) ) ;
#125 = CARTESIAN_POINT ( 'NONE',  ( 0.0000000000000000000, 13.69999999999999900, 0.0000000000000000000 ) ) ;
#126 = AXIS2_PLACEMENT_3D ( 'NONE', #293, #347, #232 ) ;
#127 = SURFACE_SIDE_STYLE ('',( #254 ) ) ;
#128 = AXIS2_PLACEMENT_3D ( 'NONE', #99, #61, #57 ) ;
#129 = EDGE_LOOP ( 'NONE', ( #221, #242 ) ) ;
#130 = CIRCLE ( 'NONE', #255, 1.000000000000000000 ) ;
#131 = AXIS2_PLACEMENT_3D ( 'NONE', #125, #350, #244 ) ;
#132 = ORIENTED_EDGE ( 'NONE', *, *, #225, .F. ) ;
#133 = CARTESIAN_POINT ( 'NONE',  ( 0.0000000000000000000, 0.0000000000000000000, 0.5000000000000022200 ) ) ;
#134 = LINE ( 'NONE', #133, #49 ) ;
#135 = CARTESIAN_POINT ( 'NONE',  ( 0.0000000000000000000, 0.0000000000000000000, 0.0000000000000000000 ) ) ;
#136 = ORIENTED_EDGE ( 'NONE', *, *, #290, .F. ) ;
#137 = DIRECTION ( 'NONE',  ( 0.0000000000000000000, 0.0000000000000000000, -1.000000000000000000 ) ) ;
#138 = PRESENTATION_LAYER_ASSIGNMENT (  '', '', ( #241 ) ) ;
#139 = DIRECTION ( 'NONE',  ( 0.0000000000000000000, 0.0000000000000000000, 1.000000000000000000 ) ) ;
#140 = DIRECTION ( 'NONE',  ( 0.0000000000000000000, 0.0000000000000000000, -1.000000000000000000 ) ) ;
#141 = CIRCLE ( 'NONE', #98, 1.345854811567261900 ) ;
#142 = EDGE_CURVE ( 'NONE', #79, #329, #268, .T. ) ;
#143 = AXIS2_PLACEMENT_3D ( 'NONE', #362, #36, #305 ) ;
#144 = CARTESIAN_POINT ( 'NONE',  ( 0.0000000000000000000, 13.69999999999999900, -1.345854811567261900 ) ) ;
#145 = ORIENTED_EDGE ( 'NONE', *, *, #246, .F. ) ;
#146 = CARTESIAN_POINT ( 'NONE',  ( 0.0000000000000000000, 0.0000000000000000000, 0.0000000000000000000 ) ) ;
#147 = ORIENTED_EDGE ( 'NONE', *, *, #114, .F. ) ;
#148 =( GEOMETRIC_REPRESENTATION_CONTEXT ( 3 ) GLOBAL_UNCERTAINTY_ASSIGNED_CONTEXT ( ( #278 ) ) GLOBAL_UNIT_ASSIGNED_CONTEXT ( ( #102, #333, #219 ) ) REPRESENTATION_CONTEXT ( 'NONE', 'WORKASPACE' ) );
#149 = VECTOR ( 'NONE', #271, 999.9999999999998900 ) ;
#150 = DIRECTION ( 'NONE',  ( 0.0000000000000000000, 1.000000000000000000, 0.0000000000000000000 ) ) ;
#151 = DIRECTION ( 'NONE',  ( 0.0000000000000000000, 0.0000000000000000000, 1.000000000000000000 ) ) ;
#152 = CARTESIAN_POINT ( 'NONE',  ( 2.143131898507868300E-016, 0.0000000000000000000, 1.750000000000000000 ) ) ;
#153 = ORIENTED_EDGE ( 'NONE', *, *, #225, .T. ) ;
#154 = VECTOR ( 'NONE', #4, 1000.000000000000000 ) ;
#155 = CARTESIAN_POINT ( 'NONE',  ( 0.0000000000000000000, 0.0000000000000000000, 0.0000000000000000000 ) ) ;
#156 = LINE ( 'NONE', #152, #171 ) ;
#157 = AXIS2_PLACEMENT_3D ( 'NONE', #341, #313, #189 ) ;
#158 = CARTESIAN_POINT ( 'NONE',  ( 1.224646799147353200E-016, 0.4999999999999995600, 1.000000000000000000 ) ) ;
#159 = FILL_AREA_STYLE ('',( #35 ) ) ;
#160 = CIRCLE ( 'NONE', #273, 1.750000000000000000 ) ;
#161 = EDGE_CURVE ( 'NONE', #229, #286, #105, .T. ) ;
#162 = ADVANCED_FACE ( 'NONE', ( #190 ), #261, .T. ) ;
#163 = ORIENTED_EDGE ( 'NONE', *, *, #222, .T. ) ;
#164 = CIRCLE ( 'NONE', #276, 0.5000000000000022200 ) ;
#165 = ADVANCED_FACE ( 'NONE', ( #199 ), #198, .T. ) ;
#166 = ADVANCED_FACE ( 'NONE', ( #282 ), #19, .T. ) ;
#167 = DIRECTION ( 'NONE',  ( 0.0000000000000000000, 0.0000000000000000000, -1.000000000000000000 ) ) ;
#168 =( GEOMETRIC_REPRESENTATION_CONTEXT ( 3 ) GLOBAL_UNCERTAINTY_ASSIGNED_CONTEXT ( ( #103 ) ) GLOBAL_UNIT_ASSIGNED_CONTEXT ( ( #220, #37, #247 ) ) REPRESENTATION_CONTEXT ( 'NONE', 'WORKASPACE' ) );
#169 = CLOSED_SHELL ( 'NONE', ( #162, #223, #195, #14, #77, #281, #260, #41, #193, #165, #314, #363, #166 ) ) ;
#170 = DIRECTION ( 'NONE',  ( 1.224646799147353500E-016, 0.0000000000000000000, -1.000000000000000000 ) ) ;
#171 = VECTOR ( 'NONE', #327, 1000.000000000000000 ) ;
#172 = PRODUCT_DEFINITION ( 'UNKNOWN', '', #194, #78 ) ;
#173 = DIRECTION ( 'NONE',  ( -0.0000000000000000000, -1.000000000000000000, -0.0000000000000000000 ) ) ;
#174 = VERTEX_POINT ( 'NONE', #346 ) ;
#175 = EDGE_LOOP ( 'NONE', ( #216, #320 ) ) ;
#176 = FACE_OUTER_BOUND ( 'NONE', #44, .T. ) ;
#177 = EDGE_CURVE ( 'NONE', #329, #79, #330, .T. ) ;
#178 = DIRECTION ( 'NONE',  ( 0.0000000000000000000, -0.8660254037844380400, -0.5000000000000012200 ) ) ;
#179 = DIRECTION ( 'NONE',  ( -0.0000000000000000000, -1.000000000000000000, -0.0000000000000000000 ) ) ;
#180 = ORIENTED_EDGE ( 'NONE', *, *, #142, .T. ) ;
#181 = DIRECTION ( 'NONE',  ( 0.0000000000000000000, -1.000000000000000000, -0.0000000000000000000 ) ) ;
#182 = EDGE_CURVE ( 'NONE', #90, #69, #310, .T. ) ;
#183 = CARTESIAN_POINT ( 'NONE',  ( 2.143131898507868300E-016, 7.000000000000000000, 1.750000000000000000 ) ) ;
#184 = EDGE_LOOP ( 'NONE', ( #83, #355, #11, #208 ) ) ;
#185 = DIRECTION ( 'NONE',  ( -0.0000000000000000000, -1.000000000000000000, -0.0000000000000000000 ) ) ;
#186 = EDGE_LOOP ( 'NONE', ( #31, #302, #6, #132 ) ) ;
#187 = DIRECTION ( 'NONE',  ( -0.0000000000000000000, -1.000000000000000000, -0.0000000000000000000 ) ) ;
#188 = ORIENTED_EDGE ( 'NONE', *, *, #366, .F. ) ;
#189 = DIRECTION ( 'NONE',  ( 0.0000000000000000000, 0.0000000000000000000, 1.000000000000000000 ) ) ;
#190 = FACE_OUTER_BOUND ( 'NONE', #203, .T. ) ;
#191 = VERTEX_POINT ( 'NONE', #144 ) ;
#192 = AXIS2_PLACEMENT_3D ( 'NONE', #81, #258, #167 ) ;
#193 = ADVANCED_FACE ( 'NONE', ( #13, #84 ), #51, .T. ) ;
#194 = PRODUCT_DEFINITION_FORMATION_WITH_SPECIFIED_SOURCE ( 'ANY', '', #272, .NOT_KNOWN. ) ;
#195 = ADVANCED_FACE ( 'NONE', ( #253 ), #321, .T. ) ;
#196 = DIRECTION ( 'NONE',  ( 8.659560562354918100E-017, 0.7071067811865487900, -0.7071067811865463500 ) ) ;
#197 = EDGE_CURVE ( 'NONE', #30, #174, #303, .T. ) ;
#198 = CYLINDRICAL_SURFACE ( 'NONE', #256, 1.000000000000000000 ) ;
#199 = FACE_OUTER_BOUND ( 'NONE', #252, .T. ) ;
#200 = CARTESIAN_POINT ( 'NONE',  ( 1.011851643867968000E-016, 13.39999999999999900, -0.8262395692965993600 ) ) ;
#201 = CARTESIAN_POINT ( 'NONE',  ( 0.0000000000000000000, 13.39999999999999900, 0.0000000000000000000 ) ) ;
#202 = DIRECTION ( 'NONE',  ( 0.0000000000000000000, 0.0000000000000000000, -1.000000000000000000 ) ) ;
#203 = EDGE_LOOP ( 'NONE', ( #136, #101, #145, #297 ) ) ;
#204 = DIRECTION ( 'NONE',  ( -0.0000000000000000000, -1.000000000000000000, -0.0000000000000000000 ) ) ;
#205 = LINE ( 'NONE', #312, #71 ) ;
#206 = DIRECTION ( 'NONE',  ( 0.0000000000000000000, 0.0000000000000000000, -1.000000000000000000 ) ) ;
#207 = DIRECTION ( 'NONE',  ( 0.0000000000000000000, 0.0000000000000000000, -1.000000000000000000 ) ) ;
#208 = ORIENTED_EDGE ( 'NONE', *, *, #358, .F. ) ;
#209 = MECHANICAL_DESIGN_GEOMETRIC_PRESENTATION_REPRESENTATION (  '', ( #368 ), #361 ) ;
#210 = FACE_OUTER_BOUND ( 'NONE', #240, .T. ) ;
#211 = PRESENTATION_STYLE_ASSIGNMENT (( #104 ) ) ;
#212 = CIRCLE ( 'NONE', #143, 0.8262395692965993600 ) ;
#213 = SURFACE_SIDE_STYLE ('',( #370 ) ) ;
#214 = DIRECTION ( 'NONE',  ( 0.0000000000000000000, 1.000000000000000000, 0.0000000000000000000 ) ) ;
#215 = DIRECTION ( 'NONE',  ( 0.0000000000000000000, 0.0000000000000000000, 1.000000000000000000 ) ) ;
#216 = ORIENTED_EDGE ( 'NONE', *, *, #72, .F. ) ;
#217 = PRODUCT_RELATED_PRODUCT_CATEGORY ( 'part', '', ( #272 ) ) ;
#218 = CIRCLE ( 'NONE', #284, 0.8262395692965993600 ) ;
#219 =( NAMED_UNIT ( * ) SI_UNIT ( $, .STERADIAN. ) SOLID_ANGLE_UNIT ( ) );
#220 =( LENGTH_UNIT ( ) NAMED_UNIT ( * ) SI_UNIT ( .MILLI., .METRE. ) );
#221 = ORIENTED_EDGE ( 'NONE', *, *, #246, .T. ) ;
#222 = EDGE_CURVE ( 'NONE', #351, #369, #164, .T. ) ;
#223 = ADVANCED_FACE ( 'NONE', ( #176 ), #96, .T. ) ;
#224 = AXIS2_PLACEMENT_3D ( 'NONE', #257, #279, #336 ) ;
#225 = EDGE_CURVE ( 'NONE', #69, #323, #21, .T. ) ;
#226 = MANIFOLD_SOLID_BREP ( 'Verrundung1', #169 ) ;
#227 = DIRECTION ( 'NONE',  ( -0.0000000000000000000, -1.000000000000000000, -0.0000000000000000000 ) ) ;
#228 = CARTESIAN_POINT ( 'NONE',  ( 6.123233995736791900E-017, 0.0000000000000000000, -0.5000000000000022200 ) ) ;
#229 = VERTEX_POINT ( 'NONE', #183 ) ;
#230 = CARTESIAN_POINT ( 'NONE',  ( 0.0000000000000000000, 0.0000000000000000000, 0.0000000000000000000 ) ) ;
#231 = MECHANICAL_DESIGN_GEOMETRIC_PRESENTATION_REPRESENTATION (  '', ( #241 ), #168 ) ;
#232 = DIRECTION ( 'NONE',  ( 0.0000000000000000000, 0.0000000000000000000, -1.000000000000000000 ) ) ;
#233 = CARTESIAN_POINT ( 'NONE',  ( 0.0000000000000000000, 0.0000000000000000000, 0.0000000000000000000 ) ) ;
#234 = FACE_OUTER_BOUND ( 'NONE', #364, .T. ) ;
#235 = AXIS2_PLACEMENT_3D ( 'NONE', #356, #250, #66 ) ;
#236 = ORIENTED_EDGE ( 'NONE', *, *, #182, .T. ) ;
#237 = CARTESIAN_POINT ( 'NONE',  ( 2.143131898507868300E-016, 13.00000000000000200, 1.750000000000000000 ) ) ;
#238 = DIRECTION ( 'NONE',  ( 0.0000000000000000000, 0.0000000000000000000, -1.000000000000000000 ) ) ;
#239 = CARTESIAN_POINT ( 'NONE',  ( 0.0000000000000000000, 13.00000000000000200, 0.0000000000000000000 ) ) ;
#240 = EDGE_LOOP ( 'NONE', ( #315, #180, #95, #56 ) ) ;
#241 = STYLED_ITEM ( 'NONE', ( #211 ), #43 ) ;
#242 = ORIENTED_EDGE ( 'NONE', *, *, #358, .T. ) ;
#243 = PRESENTATION_STYLE_ASSIGNMENT (( #93 ) ) ;
#244 = DIRECTION ( 'NONE',  ( 0.0000000000000000000, 0.0000000000000000000, 1.000000000000000000 ) ) ;
#245 = DIRECTION ( 'NONE',  ( 0.0000000000000000000, -1.000000000000000000, -0.0000000000000000000 ) ) ;
#246 = EDGE_CURVE ( 'NONE', #174, #15, #218, .T. ) ;
#247 =( NAMED_UNIT ( * ) SI_UNIT ( $, .STERADIAN. ) SOLID_ANGLE_UNIT ( ) );
#248 = CARTESIAN_POINT ( 'NONE',  ( 0.0000000000000000000, 0.0000000000000000000, 0.5000000000000022200 ) ) ;
#249 = ORIENTED_EDGE ( 'NONE', *, *, #300, .T. ) ;
#250 = DIRECTION ( 'NONE',  ( 0.0000000000000000000, 0.0000000000000000000, 1.000000000000000000 ) ) ;
#251 = EDGE_LOOP ( 'NONE', ( #262, #62, #107, #306 ) ) ;
#252 = EDGE_LOOP ( 'NONE', ( #12, #236, #153, #319 ) ) ;
#253 = FACE_OUTER_BOUND ( 'NONE', #186, .T. ) ;
#254 = SURFACE_STYLE_FILL_AREA ( #159 ) ;
#255 = AXIS2_PLACEMENT_3D ( 'NONE', #118, #179, #54 ) ;
#256 = AXIS2_PLACEMENT_3D ( 'NONE', #324, #204, #206 ) ;
#257 = CARTESIAN_POINT ( 'NONE',  ( 0.0000000000000000000, 0.0000000000000000000, 0.0000000000000000000 ) ) ;
#258 = DIRECTION ( 'NONE',  ( 0.0000000000000000000, 1.000000000000000000, 0.0000000000000000000 ) ) ;
#259 = EDGE_LOOP ( 'NONE', ( #120, #309 ) ) ;
#260 = ADVANCED_FACE ( 'NONE', ( #65 ), #82, .T. ) ;
#261 = TOROIDAL_SURFACE ( 'NONE', #50, 0.8262395692965993600, 0.5999999999999999800 ) ;
#262 = ORIENTED_EDGE ( 'NONE', *, *, #177, .T. ) ;
#263 = DIRECTION ( 'NONE',  ( 0.0000000000000000000, 1.000000000000000000, 0.0000000000000000000 ) ) ;
#264 = CARTESIAN_POINT ( 'NONE',  ( 1.000000000000000000, 6.999999999999999100, 0.0000000000000000000 ) ) ;
#265 = DIRECTION ( 'NONE',  ( -0.0000000000000000000, -1.000000000000000000, -0.0000000000000000000 ) ) ;
#266 = EDGE_CURVE ( 'NONE', #79, #229, #156, .T. ) ;
#267 = DIRECTION ( 'NONE',  ( 0.0000000000000000000, 1.000000000000000000, 0.0000000000000000000 ) ) ;
#268 = CIRCLE ( 'NONE', #331, 1.750000000000000000 ) ;
#269 = CARTESIAN_POINT ( 'NONE',  ( 2.143131898507868300E-016, 13.00000000000000200, 1.750000000000000000 ) ) ;
#270 = VECTOR ( 'NONE', #178, 999.9999999999998900 ) ;
#271 = DIRECTION ( 'NONE',  ( 6.123233995736782100E-017, -0.8660254037844380400, 0.5000000000000012200 ) ) ;
#272 = PRODUCT ( '38890~0', '38890~0', '', ( #68 ) ) ;
#273 = AXIS2_PLACEMENT_3D ( 'NONE', #117, #26, #115 ) ;
#274 = CARTESIAN_POINT ( 'NONE',  ( 0.0000000000000000000, 0.0000000000000000000, 0.0000000000000000000 ) ) ;
#275 =( NAMED_UNIT ( * ) SI_UNIT ( $, .STERADIAN. ) SOLID_ANGLE_UNIT ( ) );
#276 = AXIS2_PLACEMENT_3D ( 'NONE', #146, #354, #92 ) ;
#277 = DIRECTION ( 'NONE',  ( 0.0000000000000000000, 0.7071067811865487900, 0.7071067811865463500 ) ) ;
#278 = UNCERTAINTY_MEASURE_WITH_UNIT (LENGTH_MEASURE( 1.000000000000000100E-005 ), #102, 'distance_accuracy_value', 'NONE');
#279 = DIRECTION ( 'NONE',  ( -0.0000000000000000000, -1.000000000000000000, -0.0000000000000000000 ) ) ;
#280 = CYLINDRICAL_SURFACE ( 'NONE', #311, 1.750000000000000000 ) ;
#281 = ADVANCED_FACE ( 'NONE', ( #10 ), #301, .T. ) ;
#282 = FACE_OUTER_BOUND ( 'NONE', #184, .T. ) ;
#283 = EDGE_CURVE ( 'NONE', #329, #286, #289, .T. ) ;
#284 = AXIS2_PLACEMENT_3D ( 'NONE', #64, #150, #97 ) ;
#285 = ORIENTED_EDGE ( 'NONE', *, *, #337, .T. ) ;
#286 = VERTEX_POINT ( 'NONE', #59 ) ;
#287 = VECTOR ( 'NONE', #196, 1000.000000000000000 ) ;
#288 = CARTESIAN_POINT ( 'NONE',  ( 0.0000000000000000000, 0.4999999999999995600, 0.0000000000000000000 ) ) ;
#289 = LINE ( 'NONE', #119, #75 ) ;
#290 = EDGE_CURVE ( 'NONE', #191, #30, #299, .T. ) ;
#291 = DIRECTION ( 'NONE',  ( 0.0000000000000000000, 0.0000000000000000000, -1.000000000000000000 ) ) ;
#292 = AXIS2_PLACEMENT_3D ( 'NONE', #274, #214, #215 ) ;
#293 = CARTESIAN_POINT ( 'NONE',  ( 0.0000000000000000000, 13.00000000000000200, 0.0000000000000000000 ) ) ;
#294 = PRODUCT_DEFINITION_SHAPE ( 'NONE', 'NONE',  #172 ) ;
#295 = CARTESIAN_POINT ( 'NONE',  ( 0.0000000000000000000, 13.00000000000000200, 0.0000000000000000000 ) ) ;
#296 = ORIENTED_EDGE ( 'NONE', *, *, #63, .T. ) ;
#297 = ORIENTED_EDGE ( 'NONE', *, *, #197, .F. ) ;
#298 = FILL_AREA_STYLE ('',( #122 ) ) ;
#299 = CIRCLE ( 'NONE', #131, 1.345854811567261900 ) ;
#300 = EDGE_CURVE ( 'NONE', #30, #79, #32, .T. ) ;
#301 = PLANE ( 'NONE',  #128 ) ;
#302 = ORIENTED_EDGE ( 'NONE', *, *, #325, .T. ) ;
#303 = CIRCLE ( 'NONE', #88, 0.5999999999999998700 ) ;
#304 = CARTESIAN_POINT ( 'NONE',  ( 0.0000000000000000000, 0.4999999999999995600, -1.000000000000000000 ) ) ;
#305 = DIRECTION ( 'NONE',  ( 0.0000000000000000000, 0.0000000000000000000, 1.000000000000000000 ) ) ;
#306 = ORIENTED_EDGE ( 'NONE', *, *, #283, .F. ) ;
#307 = APPLICATION_CONTEXT ( 'automotive_design' ) ;
#308 = ORIENTED_EDGE ( 'NONE', *, *, #300, .F. ) ;
#309 = ORIENTED_EDGE ( 'NONE', *, *, #161, .T. ) ;
#310 = CIRCLE ( 'NONE', #67, 1.000000000000000000 ) ;
#311 = AXIS2_PLACEMENT_3D ( 'NONE', #135, #173, #48 ) ;
#312 = CARTESIAN_POINT ( 'NONE',  ( 1.224646799147353200E-016, 0.0000000000000000000, 1.000000000000000000 ) ) ;
#313 = DIRECTION ( 'NONE',  ( 0.0000000000000000000, 1.000000000000000000, 0.0000000000000000000 ) ) ;
#314 = ADVANCED_FACE ( 'NONE', ( #123 ), #332, .T. ) ;
#315 = ORIENTED_EDGE ( 'NONE', *, *, #266, .F. ) ;
#316 = DIRECTION ( 'NONE',  ( -0.0000000000000000000, -1.000000000000000000, -0.0000000000000000000 ) ) ;
#317 = EDGE_CURVE ( 'NONE', #30, #191, #141, .T. ) ;
#318 = CARTESIAN_POINT ( 'NONE',  ( 1.895664342805389800E-016, 13.69999999999999900, 1.345854811567261900 ) ) ;
#319 = ORIENTED_EDGE ( 'NONE', *, *, #55, .T. ) ;
#320 = ORIENTED_EDGE ( 'NONE', *, *, #182, .F. ) ;
#321 = CYLINDRICAL_SURFACE ( 'NONE', #33, 1.000000000000000000 ) ;
#322 = CARTESIAN_POINT ( 'NONE',  ( 1.224646799147353200E-016, 6.999999999999999100, 1.000000000000000000 ) ) ;
#323 = VERTEX_POINT ( 'NONE', #304 ) ;
#324 = CARTESIAN_POINT ( 'NONE',  ( 0.0000000000000000000, 0.0000000000000000000, 0.0000000000000000000 ) ) ;
#325 = EDGE_CURVE ( 'NONE', #90, #348, #205, .T. ) ;
#326 = DIRECTION ( 'NONE',  ( -0.0000000000000000000, -1.000000000000000000, -0.0000000000000000000 ) ) ;
#327 = DIRECTION ( 'NONE',  ( -0.0000000000000000000, -1.000000000000000000, -0.0000000000000000000 ) ) ;
#328 = ORIENTED_EDGE ( 'NONE', *, *, #114, .T. ) ;
#329 = VERTEX_POINT ( 'NONE', #45 ) ;
#330 = CIRCLE ( 'NONE', #8, 1.750000000000000000 ) ;
#331 = AXIS2_PLACEMENT_3D ( 'NONE', #295, #326, #367 ) ;
#332 = PLANE ( 'NONE',  #340 ) ;
#333 =( NAMED_UNIT ( * ) PLANE_ANGLE_UNIT ( ) SI_UNIT ( $, .RADIAN. ) );
#334 = ORIENTED_EDGE ( 'NONE', *, *, #366, .T. ) ;
#335 = SHAPE_DEFINITION_REPRESENTATION ( #294, #43 ) ;
#336 = DIRECTION ( 'NONE',  ( 0.0000000000000000000, 0.0000000000000000000, -1.000000000000000000 ) ) ;
#337 = EDGE_CURVE ( 'NONE', #369, #351, #365, .T. ) ;
#338 = LINE ( 'NONE', #228, #287 ) ;
#339 = CONICAL_SURFACE ( 'NONE', #126, 1.750000000000000000, 0.5235987755983002600 ) ;
#340 = AXIS2_PLACEMENT_3D ( 'NONE', #155, #245, #7 ) ;
#341 = CARTESIAN_POINT ( 'NONE',  ( 0.0000000000000000000, 0.0000000000000000000, 0.0000000000000000000 ) ) ;
#342 = UNCERTAINTY_MEASURE_WITH_UNIT (LENGTH_MEASURE( 1.000000000000000100E-005 ), #34, 'distance_accuracy_value', 'NONE');
#343 = CIRCLE ( 'NONE', #108, 1.000000000000000000 ) ;
#344 = CONICAL_SURFACE ( 'NONE', #157, 0.5000000000000022200, 0.7853981633974466100 ) ;
#345 = CARTESIAN_POINT ( 'NONE',  ( 0.0000000000000000000, 7.000000000000000000, 0.0000000000000000000 ) ) ;
#346 = CARTESIAN_POINT ( 'NONE',  ( 0.0000000000000000000, 13.99999999999999800, 0.8262395692965993600 ) ) ;
#347 = DIRECTION ( 'NONE',  ( -0.0000000000000000000, -1.000000000000000000, -0.0000000000000000000 ) ) ;
#348 = VERTEX_POINT ( 'NONE', #158 ) ;
#349 = DIRECTION ( 'NONE',  ( 0.0000000000000000000, 0.0000000000000000000, -1.000000000000000000 ) ) ;
#350 = DIRECTION ( 'NONE',  ( -0.0000000000000000000, -1.000000000000000000, -0.0000000000000000000 ) ) ;
#351 = VERTEX_POINT ( 'NONE', #357 ) ;
#352 =( NAMED_UNIT ( * ) PLANE_ANGLE_UNIT ( ) SI_UNIT ( $, .RADIAN. ) );
#353 = FACE_OUTER_BOUND ( 'NONE', #47, .T. ) ;
#354 = DIRECTION ( 'NONE',  ( -0.0000000000000000000, -1.000000000000000000, -0.0000000000000000000 ) ) ;
#355 = ORIENTED_EDGE ( 'NONE', *, *, #317, .F. ) ;
#356 = CARTESIAN_POINT ( 'NONE',  ( 0.0000000000000000000, 0.0000000000000000000, 0.0000000000000000000 ) ) ;
#357 = CARTESIAN_POINT ( 'NONE',  ( 9.184850993605162000E-017, 0.0000000000000000000, -0.5000000000000022200 ) ) ;
#358 = EDGE_CURVE ( 'NONE', #15, #174, #212, .T. ) ;
#359 = ORIENTED_EDGE ( 'NONE', *, *, #55, .F. ) ;
#360 = CIRCLE ( 'NONE', #192, 1.000000000000000000 ) ;
#361 =( GEOMETRIC_REPRESENTATION_CONTEXT ( 3 ) GLOBAL_UNCERTAINTY_ASSIGNED_CONTEXT ( ( #342 ) ) GLOBAL_UNIT_ASSIGNED_CONTEXT ( ( #34, #352, #275 ) ) REPRESENTATION_CONTEXT ( 'NONE', 'WORKASPACE' ) );
#362 = CARTESIAN_POINT ( 'NONE',  ( 0.0000000000000000000, 13.99999999999999800, 0.0000000000000000000 ) ) ;
#363 = ADVANCED_FACE ( 'NONE', ( #234 ), #344, .T. ) ;
#364 = EDGE_LOOP ( 'NONE', ( #2, #1, #334, #359 ) ) ;
#365 = CIRCLE ( 'NONE', #224, 0.5000000000000022200 ) ;
#366 = EDGE_CURVE ( 'NONE', #369, #348, #134, .T. ) ;
#367 = DIRECTION ( 'NONE',  ( 0.0000000000000000000, 0.0000000000000000000, -1.000000000000000000 ) ) ;
#368 = STYLED_ITEM ( 'NONE', ( #243 ), #226 ) ;
#369 = VERTEX_POINT ( 'NONE', #248 ) ;
#370 = SURFACE_STYLE_FILL_AREA ( #298 ) ;
#371 = CARTESIAN_POINT ( 'NONE',  ( 0.0000000000000000000, 13.00000000000000200, -1.750000000000000000 ) ) ;
#372 = CARTESIAN_POINT ( 'NONE',  ( 0.0000000000000000000, 13.39999999999999900, 0.0000000000000000000 ) ) ;
ENDSEC;
END-ISO-10303-21;
