ISO-10303-21;
HEADER;
FILE_DESCRIPTION (( 'STEP AP214' ),
    '1' );
FILE_NAME ('38888~0.STEP',
    '2017-07-04T09:01:56',
    ( '' ),
    ( '' ),
    'SwSTEP 2.0',
    'SolidWorks 2016',
    '' );
FILE_SCHEMA (( 'AUTOMOTIVE_DESIGN' ));
ENDSEC;

DATA;
#1 = ADVANCED_FACE ( 'NONE', ( #217 ), #208, .T. ) ;
#2 = CIRCLE ( 'NONE', #204, 1.000000000000000000 ) ;
#3 = PRESENTATION_LAYER_ASSIGNMENT (  '', '', ( #145 ) ) ;
#4 = CIRCLE ( 'NONE', #41, 1.649999999999999900 ) ;
#5 = VERTEX_POINT ( 'NONE', #293 ) ;
#6 = ADVANCED_FACE ( 'NONE', ( #313 ), #55, .T. ) ;
#7 = AXIS2_PLACEMENT_3D ( 'NONE', #334, #102, #368 ) ;
#8 = CIRCLE ( 'NONE', #163, 1.245854811567262100 ) ;
#9 = AXIS2_PLACEMENT_3D ( 'NONE', #35, #13, #194 ) ;
#10 = VECTOR ( 'NONE', #18, 1000.000000000000000 ) ;
#11 = TOROIDAL_SURFACE ( 'NONE', #336, 0.7262395692965993900, 0.5999999999999999800 ) ;
#12 = ORIENTED_EDGE ( 'NONE', *, *, #319, .T. ) ;
#13 = DIRECTION ( 'NONE',  ( -0.0000000000000000000, -1.000000000000000000, -0.0000000000000000000 ) ) ;
#14 = DIRECTION ( 'NONE',  ( -0.0000000000000000000, -1.000000000000000000, -0.0000000000000000000 ) ) ;
#15 = CARTESIAN_POINT ( 'NONE',  ( 0.0000000000000000000, 13.39999999999999900, 0.0000000000000000000 ) ) ;
#16 = ORIENTED_EDGE ( 'NONE', *, *, #56, .T. ) ;
#17 = DIRECTION ( 'NONE',  ( 0.0000000000000000000, 1.000000000000000000, 0.0000000000000000000 ) ) ;
#18 = DIRECTION ( 'NONE',  ( -0.0000000000000000000, -1.000000000000000000, -0.0000000000000000000 ) ) ;
#19 = FACE_OUTER_BOUND ( 'NONE', #318, .T. ) ;
#20 = ORIENTED_EDGE ( 'NONE', *, *, #303, .T. ) ;
#21 = APPLICATION_PROTOCOL_DEFINITION ( 'draft international standard', 'automotive_design', 1998, #171 ) ;
#22 = DIRECTION ( 'NONE',  ( 0.0000000000000000000, 0.0000000000000000000, -1.000000000000000000 ) ) ;
#23 = ORIENTED_EDGE ( 'NONE', *, *, #150, .F. ) ;
#24 = PRESENTATION_LAYER_ASSIGNMENT (  '', '', ( #191 ) ) ;
#25 = ORIENTED_EDGE ( 'NONE', *, *, #150, .T. ) ;
#26 = DIRECTION ( 'NONE',  ( -0.0000000000000000000, -1.000000000000000000, -0.0000000000000000000 ) ) ;
#27 = ADVANCED_FACE ( 'NONE', ( #131 ), #265, .T. ) ;
#28 = VECTOR ( 'NONE', #91, 999.9999999999998900 ) ;
#29 =( NAMED_UNIT ( * ) SI_UNIT ( $, .STERADIAN. ) SOLID_ANGLE_UNIT ( ) );
#30 = AXIS2_PLACEMENT_3D ( 'NONE', #97, #359, #189 ) ;
#31 = DIRECTION ( 'NONE',  ( 0.0000000000000000000, 0.0000000000000000000, -1.000000000000000000 ) ) ;
#32 = EDGE_CURVE ( 'NONE', #186, #239, #360, .T. ) ;
#33 = ORIENTED_EDGE ( 'NONE', *, *, #188, .T. ) ;
#34 = VERTEX_POINT ( 'NONE', #192 ) ;
#35 = CARTESIAN_POINT ( 'NONE',  ( 0.0000000000000000000, 13.00000000000000200, 0.0000000000000000000 ) ) ;
#36 = DIRECTION ( 'NONE',  ( 0.0000000000000000000, -0.0000000000000000000, 1.000000000000000000 ) ) ;
#37 = EDGE_CURVE ( 'NONE', #167, #186, #353, .T. ) ;
#38 = CONICAL_SURFACE ( 'NONE', #224, 1.649999999999999900, 0.5235987755983002600 ) ;
#39 = DIRECTION ( 'NONE',  ( -0.0000000000000000000, -1.000000000000000000, -0.0000000000000000000 ) ) ;
#40 = DIRECTION ( 'NONE',  ( 0.0000000000000000000, -1.000000000000000000, -0.0000000000000000000 ) ) ;
#41 = AXIS2_PLACEMENT_3D ( 'NONE', #51, #283, #74 ) ;
#42 = CARTESIAN_POINT ( 'NONE',  ( 0.0000000000000000000, 0.4999999999999995600, 0.0000000000000000000 ) ) ;
#43 = COLOUR_RGB ( '',0.7529411764705882200, 0.7529411764705882200, 0.7529411764705882200 ) ;
#44 = CARTESIAN_POINT ( 'NONE',  ( 0.0000000000000000000, 7.000000000000000000, -1.649999999999999900 ) ) ;
#45 = CIRCLE ( 'NONE', #159, 0.7262395692965993900 ) ;
#46 = CARTESIAN_POINT ( 'NONE',  ( 0.0000000000000000000, 6.999999999999999100, -1.000000000000000000 ) ) ;
#47 = ORIENTED_EDGE ( 'NONE', *, *, #154, .T. ) ;
#48 = DIRECTION ( 'NONE',  ( 0.0000000000000000000, 0.0000000000000000000, -1.000000000000000000 ) ) ;
#49 = LINE ( 'NONE', #310, #10 ) ;
#50 = AXIS2_PLACEMENT_3D ( 'NONE', #67, #339, #48 ) ;
#51 = CARTESIAN_POINT ( 'NONE',  ( 0.0000000000000000000, 13.00000000000000200, 0.0000000000000000000 ) ) ;
#52 = FILL_AREA_STYLE_COLOUR ( '', #43 ) ;
#53 = EDGE_LOOP ( 'NONE', ( #215, #291 ) ) ;
#54 = SURFACE_STYLE_FILL_AREA ( #68 ) ;
#55 = CYLINDRICAL_SURFACE ( 'NONE', #366, 1.000000000000000000 ) ;
#56 = EDGE_CURVE ( 'NONE', #179, #275, #45, .T. ) ;
#57 = EDGE_LOOP ( 'NONE', ( #12, #349 ) ) ;
#58 = DIRECTION ( 'NONE',  ( 0.0000000000000000000, 1.000000000000000000, 0.0000000000000000000 ) ) ;
#59 = EDGE_LOOP ( 'NONE', ( #20, #25 ) ) ;
#60 = EDGE_CURVE ( 'NONE', #186, #34, #271, .T. ) ;
#61 = ORIENTED_EDGE ( 'NONE', *, *, #303, .F. ) ;
#62 = DIRECTION ( 'NONE',  ( 0.0000000000000000000, 0.7071067811865474600, 0.7071067811865474600 ) ) ;
#63 = DIRECTION ( 'NONE',  ( 0.0000000000000000000, 0.0000000000000000000, 1.000000000000000000 ) ) ;
#64 = AXIS2_PLACEMENT_3D ( 'NONE', #341, #256, #175 ) ;
#65 = EDGE_CURVE ( 'NONE', #244, #235, #348, .T. ) ;
#66 = CIRCLE ( 'NONE', #180, 1.649999999999999900 ) ;
#67 = CARTESIAN_POINT ( 'NONE',  ( 0.0000000000000000000, 13.00000000000000200, 0.0000000000000000000 ) ) ;
#68 = FILL_AREA_STYLE ('',( #250 ) ) ;
#69 = ORIENTED_EDGE ( 'NONE', *, *, #37, .F. ) ;
#70 = CIRCLE ( 'NONE', #64, 1.000000000000000000 ) ;
#71 = APPLICATION_PROTOCOL_DEFINITION ( 'draft international standard', 'automotive_design', 1998, #225 ) ;
#72 = ORIENTED_EDGE ( 'NONE', *, *, #37, .T. ) ;
#73 = PRODUCT_CONTEXT ( 'NONE', #171, 'mechanical' ) ;
#74 = DIRECTION ( 'NONE',  ( 0.0000000000000000000, 0.0000000000000000000, -1.000000000000000000 ) ) ;
#75 = EDGE_CURVE ( 'NONE', #367, #244, #342, .T. ) ;
#76 = PRODUCT_DEFINITION ( 'UNKNOWN', '', #261, #169 ) ;
#77 = UNCERTAINTY_MEASURE_WITH_UNIT (LENGTH_MEASURE( 1.000000000000000100E-005 ), #177, 'distance_accuracy_value', 'NONE');
#78 = CARTESIAN_POINT ( 'NONE',  ( 9.184850993605152100E-017, 0.0000000000000000000, -0.5000000000000004400 ) ) ;
#79 = DIRECTION ( 'NONE',  ( 1.224646799147353000E-016, 0.0000000000000000000, -1.000000000000000000 ) ) ;
#80 = DIRECTION ( 'NONE',  ( 0.0000000000000000000, 0.0000000000000000000, -1.000000000000000000 ) ) ;
#81 = PRESENTATION_STYLE_ASSIGNMENT (( #372 ) ) ;
#82 = ORIENTED_EDGE ( 'NONE', *, *, #211, .T. ) ;
#83 = PRODUCT_DEFINITION_SHAPE ( 'NONE', 'NONE',  #76 ) ;
#84 = MECHANICAL_DESIGN_GEOMETRIC_PRESENTATION_REPRESENTATION (  '', ( #191 ), #280 ) ;
#85 = DIRECTION ( 'NONE',  ( 0.0000000000000000000, 0.0000000000000000000, 1.000000000000000000 ) ) ;
#86 = EDGE_CURVE ( 'NONE', #5, #167, #105, .T. ) ;
#87 = ORIENTED_EDGE ( 'NONE', *, *, #174, .T. ) ;
#88 = CARTESIAN_POINT ( 'NONE',  ( 1.072649730810372800, 13.99999999999999800, 0.0000000000000000000 ) ) ;
#89 = ORIENTED_EDGE ( 'NONE', *, *, #277, .T. ) ;
#90 = FACE_OUTER_BOUND ( 'NONE', #155, .T. ) ;
#91 = DIRECTION ( 'NONE',  ( 0.0000000000000000000, -0.8660254037844380400, -0.5000000000000012200 ) ) ;
#92 = ORIENTED_EDGE ( 'NONE', *, *, #277, .F. ) ;
#93 = DIRECTION ( 'NONE',  ( 0.0000000000000000000, 0.0000000000000000000, 1.000000000000000000 ) ) ;
#94 = AXIS2_PLACEMENT_3D ( 'NONE', #88, #181, #36 ) ;
#95 = CARTESIAN_POINT ( 'NONE',  ( 0.0000000000000000000, 0.0000000000000000000, -1.000000000000000000 ) ) ;
#96 = LINE ( 'NONE', #218, #324 ) ;
#97 = CARTESIAN_POINT ( 'NONE',  ( 0.0000000000000000000, 0.0000000000000000000, 0.0000000000000000000 ) ) ;
#98 = ORIENTED_EDGE ( 'NONE', *, *, #174, .F. ) ;
#99 = PRODUCT_RELATED_PRODUCT_CATEGORY ( 'part', '', ( #241 ) ) ;
#100 = SHAPE_DEFINITION_REPRESENTATION ( #83, #317 ) ;
#101 = CARTESIAN_POINT ( 'NONE',  ( 0.0000000000000000000, 13.00000000000000200, -1.649999999999999900 ) ) ;
#102 = DIRECTION ( 'NONE',  ( -1.000000000000000000, 0.0000000000000000000, 0.0000000000000000000 ) ) ;
#103 = LINE ( 'NONE', #315, #229 ) ;
#104 =( LENGTH_UNIT ( ) NAMED_UNIT ( * ) SI_UNIT ( .MILLI., .METRE. ) );
#105 = CIRCLE ( 'NONE', #138, 1.245854811567262100 ) ;
#106 = EDGE_LOOP ( 'NONE', ( #176, #158, #207, #306 ) ) ;
#107 = DIRECTION ( 'NONE',  ( 0.0000000000000000000, 0.0000000000000000000, -1.000000000000000000 ) ) ;
#108 = EDGE_CURVE ( 'NONE', #275, #179, #172, .T. ) ;
#109 = DIRECTION ( 'NONE',  ( 1.000000000000000000, 0.0000000000000000000, 0.0000000000000000000 ) ) ;
#110 = CARTESIAN_POINT ( 'NONE',  ( 1.224646799147353200E-016, 0.4999999999999995600, 1.000000000000000000 ) ) ;
#111 = DIRECTION ( 'NONE',  ( 0.0000000000000000000, 0.0000000000000000000, -1.000000000000000000 ) ) ;
#112 = CYLINDRICAL_SURFACE ( 'NONE', #30, 1.649999999999999900 ) ;
#113 = ORIENTED_EDGE ( 'NONE', *, *, #60, .T. ) ;
#114 = ADVANCED_FACE ( 'NONE', ( #19 ), #112, .T. ) ;
#115 = DIRECTION ( 'NONE',  ( 0.0000000000000000000, 0.0000000000000000000, -1.000000000000000000 ) ) ;
#116 = CARTESIAN_POINT ( 'NONE',  ( 0.0000000000000000000, 13.99999999999999800, 0.7262395692965993900 ) ) ;
#117 = DIRECTION ( 'NONE',  ( 0.0000000000000000000, 0.0000000000000000000, 1.000000000000000000 ) ) ;
#118 = CIRCLE ( 'NONE', #364, 0.5999999999999999800 ) ;
#119 = ADVANCED_FACE ( 'NONE', ( #165 ), #11, .T. ) ;
#120 = DIRECTION ( 'NONE',  ( 0.0000000000000000000, 1.000000000000000000, 0.0000000000000000000 ) ) ;
#121 = ORIENTED_EDGE ( 'NONE', *, *, #86, .F. ) ;
#122 = ADVANCED_FACE ( 'NONE', ( #255 ), #38, .T. ) ;
#123 = DIRECTION ( 'NONE',  ( -0.0000000000000000000, -1.000000000000000000, -0.0000000000000000000 ) ) ;
#124 = LINE ( 'NONE', #276, #130 ) ;
#125 = VECTOR ( 'NONE', #128, 1000.000000000000000 ) ;
#126 = DIRECTION ( 'NONE',  ( -0.0000000000000000000, -1.000000000000000000, -0.0000000000000000000 ) ) ;
#127 = EDGE_CURVE ( 'NONE', #295, #235, #328, .T. ) ;
#128 = DIRECTION ( 'NONE',  ( -0.0000000000000000000, -1.000000000000000000, -0.0000000000000000000 ) ) ;
#129 = ORIENTED_EDGE ( 'NONE', *, *, #108, .F. ) ;
#130 = VECTOR ( 'NONE', #196, 1000.000000000000100 ) ;
#131 = FACE_OUTER_BOUND ( 'NONE', #279, .T. ) ;
#132 = CARTESIAN_POINT ( 'NONE',  ( 0.0000000000000000000, 13.00000000000000200, 0.0000000000000000000 ) ) ;
#133 = DIRECTION ( 'NONE',  ( -0.0000000000000000000, -1.000000000000000000, -0.0000000000000000000 ) ) ;
#134 = DIRECTION ( 'NONE',  ( 0.0000000000000000000, 0.0000000000000000000, 1.000000000000000000 ) ) ;
#135 = ORIENTED_EDGE ( 'NONE', *, *, #108, .T. ) ;
#136 = DIRECTION ( 'NONE',  ( 0.0000000000000000000, 0.0000000000000000000, -1.000000000000000000 ) ) ;
#137 =( NAMED_UNIT ( * ) SI_UNIT ( $, .STERADIAN. ) SOLID_ANGLE_UNIT ( ) );
#138 = AXIS2_PLACEMENT_3D ( 'NONE', #160, #39, #93 ) ;
#139 = ORIENTED_EDGE ( 'NONE', *, *, #297, .T. ) ;
#140 = CONICAL_SURFACE ( 'NONE', #50, 1.649999999999999900, 0.5235987755983002600 ) ;
#141 = CARTESIAN_POINT ( 'NONE',  ( 0.0000000000000000000, 0.0000000000000000000, 0.0000000000000000000 ) ) ;
#142 = EDGE_CURVE ( 'NONE', #34, #246, #96, .T. ) ;
#143 = CARTESIAN_POINT ( 'NONE',  ( 0.0000000000000000000, 13.39999999999999900, 0.0000000000000000000 ) ) ;
#144 = CARTESIAN_POINT ( 'NONE',  ( 0.0000000000000000000, 7.000000000000000000, 0.0000000000000000000 ) ) ;
#145 = STYLED_ITEM ( 'NONE', ( #268 ), #245 ) ;
#146 = CARTESIAN_POINT ( 'NONE',  ( 2.020667218593132800E-016, 7.000000000000000000, 1.649999999999999900 ) ) ;
#147 = ADVANCED_FACE ( 'NONE', ( #185, #190 ), #220, .T. ) ;
#148 = CARTESIAN_POINT ( 'NONE',  ( 0.0000000000000000000, 0.0000000000000000000, 0.0000000000000000000 ) ) ;
#149 = EDGE_LOOP ( 'NONE', ( #92, #121, #47, #262 ) ) ;
#150 = EDGE_CURVE ( 'NONE', #246, #239, #346, .T. ) ;
#151 = DIRECTION ( 'NONE',  ( 0.0000000000000000000, 0.0000000000000000000, -1.000000000000000000 ) ) ;
#152 = ORIENTED_EDGE ( 'NONE', *, *, #60, .F. ) ;
#153 = CARTESIAN_POINT ( 'NONE',  ( 0.0000000000000000000, 0.0000000000000000000, 0.0000000000000000000 ) ) ;
#154 = EDGE_CURVE ( 'NONE', #5, #275, #323, .T. ) ;
#155 = EDGE_LOOP ( 'NONE', ( #321, #290, #173, #23 ) ) ;
#156 = TOROIDAL_SURFACE ( 'NONE', #320, 0.7262395692965993900, 0.5999999999999999800 ) ;
#157 = AXIS2_PLACEMENT_3D ( 'NONE', #272, #365, #63 ) ;
#158 = ORIENTED_EDGE ( 'NONE', *, *, #319, .F. ) ;
#159 = AXIS2_PLACEMENT_3D ( 'NONE', #358, #326, #187 ) ;
#160 = CARTESIAN_POINT ( 'NONE',  ( 0.0000000000000000000, 13.70000000000000100, 0.0000000000000000000 ) ) ;
#161 =( GEOMETRIC_REPRESENTATION_CONTEXT ( 3 ) GLOBAL_UNCERTAINTY_ASSIGNED_CONTEXT ( ( #287 ) ) GLOBAL_UNIT_ASSIGNED_CONTEXT ( ( #104, #164, #137 ) ) REPRESENTATION_CONTEXT ( 'NONE', 'WORKASPACE' ) );
#162 = CARTESIAN_POINT ( 'NONE',  ( 1.207559535570704100E-016, 13.99999999999999800, -0.7262395692965993900 ) ) ;
#163 = AXIS2_PLACEMENT_3D ( 'NONE', #166, #199, #134 ) ;
#164 =( NAMED_UNIT ( * ) PLANE_ANGLE_UNIT ( ) SI_UNIT ( $, .RADIAN. ) );
#165 = FACE_OUTER_BOUND ( 'NONE', #149, .T. ) ;
#166 = CARTESIAN_POINT ( 'NONE',  ( 0.0000000000000000000, 13.70000000000000100, 0.0000000000000000000 ) ) ;
#167 = VERTEX_POINT ( 'NONE', #305 ) ;
#168 = CARTESIAN_POINT ( 'NONE',  ( 0.0000000000000000000, 0.0000000000000000000, 0.0000000000000000000 ) ) ;
#169 = PRODUCT_DEFINITION_CONTEXT ( 'detailed design', #225, 'design' ) ;
#170 = ADVANCED_FACE ( 'NONE', ( #90 ), #237, .T. ) ;
#171 = APPLICATION_CONTEXT ( 'automotive_design' ) ;
#172 = CIRCLE ( 'NONE', #157, 0.7262395692965993900 ) ;
#173 = ORIENTED_EDGE ( 'NONE', *, *, #32, .T. ) ;
#174 = EDGE_CURVE ( 'NONE', #167, #5, #8, .T. ) ;
#175 = DIRECTION ( 'NONE',  ( 0.0000000000000000000, 0.0000000000000000000, -1.000000000000000000 ) ) ;
#176 = ORIENTED_EDGE ( 'NONE', *, *, #188, .F. ) ;
#177 =( LENGTH_UNIT ( ) NAMED_UNIT ( * ) SI_UNIT ( .MILLI., .METRE. ) );
#178 = AXIS2_PLACEMENT_3D ( 'NONE', #42, #296, #301 ) ;
#179 = VERTEX_POINT ( 'NONE', #162 ) ;
#180 = AXIS2_PLACEMENT_3D ( 'NONE', #144, #202, #343 ) ;
#181 = DIRECTION ( 'NONE',  ( 0.0000000000000000000, 1.000000000000000000, 0.0000000000000000000 ) ) ;
#182 = ORIENTED_EDGE ( 'NONE', *, *, #263, .F. ) ;
#183 = FACE_OUTER_BOUND ( 'NONE', #57, .T. ) ;
#184 = AXIS2_PLACEMENT_3D ( 'NONE', #168, #274, #136 ) ;
#185 = FACE_OUTER_BOUND ( 'NONE', #59, .T. ) ;
#186 = VERTEX_POINT ( 'NONE', #101 ) ;
#187 = DIRECTION ( 'NONE',  ( 0.0000000000000000000, 0.0000000000000000000, 1.000000000000000000 ) ) ;
#188 = EDGE_CURVE ( 'NONE', #337, #235, #124, .T. ) ;
#189 = DIRECTION ( 'NONE',  ( 0.0000000000000000000, 0.0000000000000000000, -1.000000000000000000 ) ) ;
#190 = FACE_BOUND ( 'NONE', #53, .T. ) ;
#191 = STYLED_ITEM ( 'NONE', ( #81 ), #317 ) ;
#192 = CARTESIAN_POINT ( 'NONE',  ( 2.020667218593132800E-016, 13.00000000000000200, 1.649999999999999900 ) ) ;
#193 = ORIENTED_EDGE ( 'NONE', *, *, #32, .F. ) ;
#194 = DIRECTION ( 'NONE',  ( 0.0000000000000000000, 0.0000000000000000000, -1.000000000000000000 ) ) ;
#195 = EDGE_CURVE ( 'NONE', #337, #367, #292, .T. ) ;
#196 = DIRECTION ( 'NONE',  ( 8.659560562354932900E-017, 0.7071067811865474600, -0.7071067811865474600 ) ) ;
#197 = ORIENTED_EDGE ( 'NONE', *, *, #142, .T. ) ;
#198 = CARTESIAN_POINT ( 'NONE',  ( 0.0000000000000000000, 0.0000000000000000000, 0.0000000000000000000 ) ) ;
#199 = DIRECTION ( 'NONE',  ( -0.0000000000000000000, -1.000000000000000000, -0.0000000000000000000 ) ) ;
#200 = CYLINDRICAL_SURFACE ( 'NONE', #344, 1.000000000000000000 ) ;
#201 = AXIS2_PLACEMENT_3D ( 'NONE', #316, #281, #111 ) ;
#202 = DIRECTION ( 'NONE',  ( -0.0000000000000000000, -1.000000000000000000, -0.0000000000000000000 ) ) ;
#203 = DIRECTION ( 'NONE',  ( 0.0000000000000000000, 1.000000000000000000, 0.0000000000000000000 ) ) ;
#204 = AXIS2_PLACEMENT_3D ( 'NONE', #347, #258, #115 ) ;
#205 = ORIENTED_EDGE ( 'NONE', *, *, #86, .T. ) ;
#206 =( NAMED_UNIT ( * ) PLANE_ANGLE_UNIT ( ) SI_UNIT ( $, .RADIAN. ) );
#207 = ORIENTED_EDGE ( 'NONE', *, *, #75, .T. ) ;
#208 = CONICAL_SURFACE ( 'NONE', #322, 0.5000000000000004400, 0.7853981633974482800 ) ;
#209 = ORIENTED_EDGE ( 'NONE', *, *, #65, .T. ) ;
#210 = MECHANICAL_DESIGN_GEOMETRIC_PRESENTATION_REPRESENTATION (  '', ( #145 ), #161 ) ;
#211 = EDGE_CURVE ( 'NONE', #333, #244, #49, .T. ) ;
#212 = CIRCLE ( 'NONE', #201, 0.5000000000000004400 ) ;
#213 = ORIENTED_EDGE ( 'NONE', *, *, #263, .T. ) ;
#214 = CARTESIAN_POINT ( 'NONE',  ( 0.0000000000000000000, 0.0000000000000000000, 0.5000000000000004400 ) ) ;
#215 = ORIENTED_EDGE ( 'NONE', *, *, #254, .F. ) ;
#216 = AXIS2_PLACEMENT_3D ( 'NONE', #226, #17, #251 ) ;
#217 = FACE_OUTER_BOUND ( 'NONE', #298, .T. ) ;
#218 = CARTESIAN_POINT ( 'NONE',  ( 2.020667218593132800E-016, 0.0000000000000000000, 1.649999999999999900 ) ) ;
#219 = ORIENTED_EDGE ( 'NONE', *, *, #127, .T. ) ;
#220 = PLANE ( 'NONE',  #327 ) ;
#221 = FACE_OUTER_BOUND ( 'NONE', #242, .T. ) ;
#222 = COLOUR_RGB ( '',0.7529411764705882200, 0.7529411764705882200, 0.7529411764705882200 ) ;
#223 = CARTESIAN_POINT ( 'NONE',  ( 0.0000000000000000000, 0.4999999999999995600, -1.000000000000000000 ) ) ;
#224 = AXIS2_PLACEMENT_3D ( 'NONE', #132, #14, #363 ) ;
#225 = APPLICATION_CONTEXT ( 'automotive_design' ) ;
#226 = CARTESIAN_POINT ( 'NONE',  ( 0.0000000000000000000, 0.0000000000000000000, 0.0000000000000000000 ) ) ;
#227 = EDGE_LOOP ( 'NONE', ( #98, #89, #129, #248 ) ) ;
#228 = CARTESIAN_POINT ( 'NONE',  ( 0.0000000000000000000, 0.0000000000000000000, 0.0000000000000000000 ) ) ;
#229 = VECTOR ( 'NONE', #233, 999.9999999999998900 ) ;
#230 = ORIENTED_EDGE ( 'NONE', *, *, #266, .F. ) ;
#231 = ADVANCED_FACE ( 'NONE', ( #282 ), #273, .T. ) ;
#232 = CARTESIAN_POINT ( 'NONE',  ( 1.224646799147353200E-016, 6.999999999999999100, 1.000000000000000000 ) ) ;
#233 = DIRECTION ( 'NONE',  ( 6.123233995736782100E-017, -0.8660254037844380400, 0.5000000000000012200 ) ) ;
#234 = CARTESIAN_POINT ( 'NONE',  ( 8.893869639532328800E-017, 13.39999999999999900, -0.7262395692965993900 ) ) ;
#235 = VERTEX_POINT ( 'NONE', #223 ) ;
#236 = CARTESIAN_POINT ( 'NONE',  ( 0.0000000000000000000, 0.4999999999999995600, 0.0000000000000000000 ) ) ;
#237 = CYLINDRICAL_SURFACE ( 'NONE', #357, 1.649999999999999900 ) ;
#238 = AXIS2_PLACEMENT_3D ( 'NONE', #148, #350, #80 ) ;
#239 = VERTEX_POINT ( 'NONE', #44 ) ;
#240 = ADVANCED_FACE ( 'NONE', ( #270 ), #140, .T. ) ;
#241 = PRODUCT ( '38888~0', '38888~0', '', ( #73 ) ) ;
#242 = EDGE_LOOP ( 'NONE', ( #330, #82, #209, #294 ) ) ;
#243 = AXIS2_PLACEMENT_3D ( 'NONE', #236, #120, #151 ) ;
#244 = VERTEX_POINT ( 'NONE', #110 ) ;
#245 = MANIFOLD_SOLID_BREP ( 'Verrundung1', #249 ) ;
#246 = VERTEX_POINT ( 'NONE', #146 ) ;
#247 = CARTESIAN_POINT ( 'NONE',  ( 0.0000000000000000000, 13.00000000000000200, -1.649999999999999900 ) ) ;
#248 = ORIENTED_EDGE ( 'NONE', *, *, #154, .F. ) ;
#249 = CLOSED_SHELL ( 'NONE', ( #284, #1, #345, #114, #122, #27, #240, #170, #147, #6, #354, #231, #119 ) ) ;
#250 = FILL_AREA_STYLE_COLOUR ( '', #222 ) ;
#251 = DIRECTION ( 'NONE',  ( 0.0000000000000000000, 0.0000000000000000000, 1.000000000000000000 ) ) ;
#252 = DIRECTION ( 'NONE',  ( 0.0000000000000000000, 0.0000000000000000000, -1.000000000000000000 ) ) ;
#253 =( NAMED_UNIT ( * ) SI_UNIT ( $, .STERADIAN. ) SOLID_ANGLE_UNIT ( ) );
#254 = EDGE_CURVE ( 'NONE', #295, #333, #70, .T. ) ;
#255 = FACE_OUTER_BOUND ( 'NONE', #356, .T. ) ;
#256 = DIRECTION ( 'NONE',  ( -0.0000000000000000000, -1.000000000000000000, -0.0000000000000000000 ) ) ;
#257 = UNCERTAINTY_MEASURE_WITH_UNIT (LENGTH_MEASURE( 1.000000000000000100E-005 ), #309, 'distance_accuracy_value', 'NONE');
#258 = DIRECTION ( 'NONE',  ( -0.0000000000000000000, -1.000000000000000000, -0.0000000000000000000 ) ) ;
#259 = EDGE_LOOP ( 'NONE', ( #269, #139, #219, #285 ) ) ;
#260 = FILL_AREA_STYLE ('',( #52 ) ) ;
#261 = PRODUCT_DEFINITION_FORMATION_WITH_SPECIFIED_SOURCE ( 'ANY', '', #241, .NOT_KNOWN. ) ;
#262 = ORIENTED_EDGE ( 'NONE', *, *, #56, .F. ) ;
#263 = EDGE_CURVE ( 'NONE', #5, #34, #103, .T. ) ;
#264 = VECTOR ( 'NONE', #62, 1000.000000000000100 ) ;
#265 = PLANE ( 'NONE',  #94 ) ;
#266 = EDGE_CURVE ( 'NONE', #34, #186, #4, .T. ) ;
#267 = SURFACE_STYLE_FILL_AREA ( #260 ) ;
#268 = PRESENTATION_STYLE_ASSIGNMENT (( #307 ) ) ;
#269 = ORIENTED_EDGE ( 'NONE', *, *, #211, .F. ) ;
#270 = FACE_OUTER_BOUND ( 'NONE', #362, .T. ) ;
#271 = CIRCLE ( 'NONE', #9, 1.649999999999999900 ) ;
#272 = CARTESIAN_POINT ( 'NONE',  ( 0.0000000000000000000, 13.99999999999999800, 0.0000000000000000000 ) ) ;
#273 = CONICAL_SURFACE ( 'NONE', #216, 0.5000000000000004400, 0.7853981633974482800 ) ;
#274 = DIRECTION ( 'NONE',  ( -0.0000000000000000000, -1.000000000000000000, -0.0000000000000000000 ) ) ;
#275 = VERTEX_POINT ( 'NONE', #116 ) ;
#276 = CARTESIAN_POINT ( 'NONE',  ( 6.123233995736772200E-017, 0.0000000000000000000, -0.5000000000000004400 ) ) ;
#277 = EDGE_CURVE ( 'NONE', #167, #179, #118, .T. ) ;
#278 = ORIENTED_EDGE ( 'NONE', *, *, #65, .F. ) ;
#279 = EDGE_LOOP ( 'NONE', ( #135, #16 ) ) ;
#280 =( GEOMETRIC_REPRESENTATION_CONTEXT ( 3 ) GLOBAL_UNCERTAINTY_ASSIGNED_CONTEXT ( ( #257 ) ) GLOBAL_UNIT_ASSIGNED_CONTEXT ( ( #309, #338, #253 ) ) REPRESENTATION_CONTEXT ( 'NONE', 'WORKASPACE' ) );
#281 = DIRECTION ( 'NONE',  ( -0.0000000000000000000, -1.000000000000000000, -0.0000000000000000000 ) ) ;
#282 = FACE_OUTER_BOUND ( 'NONE', #106, .T. ) ;
#283 = DIRECTION ( 'NONE',  ( -0.0000000000000000000, -1.000000000000000000, -0.0000000000000000000 ) ) ;
#284 = ADVANCED_FACE ( 'NONE', ( #352 ), #156, .T. ) ;
#285 = ORIENTED_EDGE ( 'NONE', *, *, #340, .T. ) ;
#286 = PLANE ( 'NONE',  #238 ) ;
#287 = UNCERTAINTY_MEASURE_WITH_UNIT (LENGTH_MEASURE( 1.000000000000000100E-005 ), #104, 'distance_accuracy_value', 'NONE');
#288 = CARTESIAN_POINT ( 'NONE',  ( 0.0000000000000000000, 0.0000000000000000000, 0.5000000000000004400 ) ) ;
#289 = ORIENTED_EDGE ( 'NONE', *, *, #195, .F. ) ;
#290 = ORIENTED_EDGE ( 'NONE', *, *, #266, .T. ) ;
#291 = ORIENTED_EDGE ( 'NONE', *, *, #297, .F. ) ;
#292 = CIRCLE ( 'NONE', #184, 0.5000000000000004400 ) ;
#293 = CARTESIAN_POINT ( 'NONE',  ( 1.773199662890654500E-016, 13.70000000000000100, 1.245854811567262300 ) ) ;
#294 = ORIENTED_EDGE ( 'NONE', *, *, #127, .F. ) ;
#295 = VERTEX_POINT ( 'NONE', #46 ) ;
#296 = DIRECTION ( 'NONE',  ( 0.0000000000000000000, 1.000000000000000000, 0.0000000000000000000 ) ) ;
#297 = EDGE_CURVE ( 'NONE', #333, #295, #2, .T. ) ;
#298 = EDGE_LOOP ( 'NONE', ( #289, #33, #278, #371 ) ) ;
#299 = DIRECTION ( 'NONE',  ( 0.0000000000000000000, 1.000000000000000000, 0.0000000000000000000 ) ) ;
#300 = AXIS2_PLACEMENT_3D ( 'NONE', #332, #335, #252 ) ;
#301 = DIRECTION ( 'NONE',  ( 0.0000000000000000000, 0.0000000000000000000, -1.000000000000000000 ) ) ;
#302 = CIRCLE ( 'NONE', #243, 1.000000000000000000 ) ;
#303 = EDGE_CURVE ( 'NONE', #239, #246, #66, .T. ) ;
#304 = SURFACE_SIDE_STYLE ('',( #54 ) ) ;
#305 = CARTESIAN_POINT ( 'NONE',  ( 0.0000000000000000000, 13.70000000000000100, -1.245854811567262300 ) ) ;
#306 = ORIENTED_EDGE ( 'NONE', *, *, #340, .F. ) ;
#307 = SURFACE_STYLE_USAGE ( .BOTH. , #304 ) ;
#308 = VECTOR ( 'NONE', #126, 1000.000000000000000 ) ;
#309 =( LENGTH_UNIT ( ) NAMED_UNIT ( * ) SI_UNIT ( .MILLI., .METRE. ) );
#310 = CARTESIAN_POINT ( 'NONE',  ( 1.224646799147353200E-016, 0.0000000000000000000, 1.000000000000000000 ) ) ;
#311 =( GEOMETRIC_REPRESENTATION_CONTEXT ( 3 ) GLOBAL_UNCERTAINTY_ASSIGNED_CONTEXT ( ( #77 ) ) GLOBAL_UNIT_ASSIGNED_CONTEXT ( ( #177, #206, #29 ) ) REPRESENTATION_CONTEXT ( 'NONE', 'WORKASPACE' ) );
#312 = DIRECTION ( 'NONE',  ( 0.0000000000000000000, 0.0000000000000000000, 1.000000000000000000 ) ) ;
#313 = FACE_OUTER_BOUND ( 'NONE', #259, .T. ) ;
#314 = DIRECTION ( 'NONE',  ( 1.000000000000000000, -0.0000000000000000000, 1.224646799147353200E-016 ) ) ;
#315 = CARTESIAN_POINT ( 'NONE',  ( 2.020667218593132800E-016, 13.00000000000000200, 1.649999999999999900 ) ) ;
#316 = CARTESIAN_POINT ( 'NONE',  ( 0.0000000000000000000, 0.0000000000000000000, 0.0000000000000000000 ) ) ;
#317 = ADVANCED_BREP_SHAPE_REPRESENTATION ( '38888~0', ( #245, #351 ), #311 ) ;
#318 = EDGE_LOOP ( 'NONE', ( #113, #197, #61, #193 ) ) ;
#319 = EDGE_CURVE ( 'NONE', #367, #337, #212, .T. ) ;
#320 = AXIS2_PLACEMENT_3D ( 'NONE', #143, #203, #117 ) ;
#321 = ORIENTED_EDGE ( 'NONE', *, *, #142, .F. ) ;
#322 = AXIS2_PLACEMENT_3D ( 'NONE', #355, #58, #85 ) ;
#323 = CIRCLE ( 'NONE', #7, 0.5999999999999999800 ) ;
#324 = VECTOR ( 'NONE', #133, 1000.000000000000000 ) ;
#325 = CARTESIAN_POINT ( 'NONE',  ( 1.000000000000000000, 6.999999999999999100, 0.0000000000000000000 ) ) ;
#326 = DIRECTION ( 'NONE',  ( 0.0000000000000000000, 1.000000000000000000, 0.0000000000000000000 ) ) ;
#327 = AXIS2_PLACEMENT_3D ( 'NONE', #325, #40, #331 ) ;
#328 = LINE ( 'NONE', #95, #308 ) ;
#329 = DIRECTION ( 'NONE',  ( 0.0000000000000000000, 0.0000000000000000000, 1.000000000000000000 ) ) ;
#330 = ORIENTED_EDGE ( 'NONE', *, *, #254, .T. ) ;
#331 = DIRECTION ( 'NONE',  ( 0.0000000000000000000, 0.0000000000000000000, -1.000000000000000000 ) ) ;
#332 = CARTESIAN_POINT ( 'NONE',  ( 0.0000000000000000000, 7.000000000000000000, 0.0000000000000000000 ) ) ;
#333 = VERTEX_POINT ( 'NONE', #232 ) ;
#334 = CARTESIAN_POINT ( 'NONE',  ( 0.0000000000000000000, 13.39999999999999900, 0.7262395692965993900 ) ) ;
#335 = DIRECTION ( 'NONE',  ( -0.0000000000000000000, -1.000000000000000000, -0.0000000000000000000 ) ) ;
#336 = AXIS2_PLACEMENT_3D ( 'NONE', #15, #299, #329 ) ;
#337 = VERTEX_POINT ( 'NONE', #78 ) ;
#338 =( NAMED_UNIT ( * ) PLANE_ANGLE_UNIT ( ) SI_UNIT ( $, .RADIAN. ) );
#339 = DIRECTION ( 'NONE',  ( -0.0000000000000000000, -1.000000000000000000, -0.0000000000000000000 ) ) ;
#340 = EDGE_CURVE ( 'NONE', #235, #244, #302, .T. ) ;
#341 = CARTESIAN_POINT ( 'NONE',  ( 0.0000000000000000000, 6.999999999999999100, 0.0000000000000000000 ) ) ;
#342 = LINE ( 'NONE', #214, #264 ) ;
#343 = DIRECTION ( 'NONE',  ( 0.0000000000000000000, 0.0000000000000000000, -1.000000000000000000 ) ) ;
#344 = AXIS2_PLACEMENT_3D ( 'NONE', #141, #26, #22 ) ;
#345 = ADVANCED_FACE ( 'NONE', ( #221 ), #200, .T. ) ;
#346 = CIRCLE ( 'NONE', #300, 1.649999999999999900 ) ;
#347 = CARTESIAN_POINT ( 'NONE',  ( 0.0000000000000000000, 6.999999999999999100, 0.0000000000000000000 ) ) ;
#348 = CIRCLE ( 'NONE', #178, 1.000000000000000000 ) ;
#349 = ORIENTED_EDGE ( 'NONE', *, *, #195, .T. ) ;
#350 = DIRECTION ( 'NONE',  ( 0.0000000000000000000, -1.000000000000000000, -0.0000000000000000000 ) ) ;
#351 = AXIS2_PLACEMENT_3D ( 'NONE', #228, #312, #109 ) ;
#352 = FACE_OUTER_BOUND ( 'NONE', #227, .T. ) ;
#353 = LINE ( 'NONE', #247, #28 ) ;
#354 = ADVANCED_FACE ( 'NONE', ( #183 ), #286, .T. ) ;
#355 = CARTESIAN_POINT ( 'NONE',  ( 0.0000000000000000000, 0.0000000000000000000, 0.0000000000000000000 ) ) ;
#356 = EDGE_LOOP ( 'NONE', ( #87, #213, #152, #69 ) ) ;
#357 = AXIS2_PLACEMENT_3D ( 'NONE', #198, #370, #107 ) ;
#358 = CARTESIAN_POINT ( 'NONE',  ( 0.0000000000000000000, 13.99999999999999800, 0.0000000000000000000 ) ) ;
#359 = DIRECTION ( 'NONE',  ( -0.0000000000000000000, -1.000000000000000000, -0.0000000000000000000 ) ) ;
#360 = LINE ( 'NONE', #361, #125 ) ;
#361 = CARTESIAN_POINT ( 'NONE',  ( 0.0000000000000000000, 0.0000000000000000000, -1.649999999999999900 ) ) ;
#362 = EDGE_LOOP ( 'NONE', ( #182, #205, #72, #230 ) ) ;
#363 = DIRECTION ( 'NONE',  ( 0.0000000000000000000, 0.0000000000000000000, -1.000000000000000000 ) ) ;
#364 = AXIS2_PLACEMENT_3D ( 'NONE', #234, #314, #79 ) ;
#365 = DIRECTION ( 'NONE',  ( 0.0000000000000000000, 1.000000000000000000, 0.0000000000000000000 ) ) ;
#366 = AXIS2_PLACEMENT_3D ( 'NONE', #153, #123, #31 ) ;
#367 = VERTEX_POINT ( 'NONE', #288 ) ;
#368 = DIRECTION ( 'NONE',  ( 0.0000000000000000000, 0.0000000000000000000, 1.000000000000000000 ) ) ;
#369 = SURFACE_SIDE_STYLE ('',( #267 ) ) ;
#370 = DIRECTION ( 'NONE',  ( -0.0000000000000000000, -1.000000000000000000, -0.0000000000000000000 ) ) ;
#371 = ORIENTED_EDGE ( 'NONE', *, *, #75, .F. ) ;
#372 = SURFACE_STYLE_USAGE ( .BOTH. , #369 ) ;
ENDSEC;
END-ISO-10303-21;
