ISO-10303-21;
HEADER;
FILE_DESCRIPTION (( 'STEP AP214' ),
    '1' );
FILE_NAME ('38887~0.STEP',
    '2017-07-04T09:01:31',
    ( '' ),
    ( '' ),
    'SwSTEP 2.0',
    'SolidWorks 2016',
    '' );
FILE_SCHEMA (( 'AUTOMOTIVE_DESIGN' ));
ENDSEC;

DATA;
#1 = VECTOR ( 'NONE', #323, 1000.000000000000000 ) ;
#2 = CIRCLE ( 'NONE', #259, 1.195854811567261100 ) ;
#3 = DIRECTION ( 'NONE',  ( 0.0000000000000000000, 0.0000000000000000000, 1.000000000000000000 ) ) ;
#4 = PRODUCT_DEFINITION ( 'UNKNOWN', '', #201, #234 ) ;
#5 = DIRECTION ( 'NONE',  ( 0.0000000000000000000, 0.0000000000000000000, 1.000000000000000000 ) ) ;
#6 = VERTEX_POINT ( 'NONE', #257 ) ;
#7 = DIRECTION ( 'NONE',  ( -0.0000000000000000000, -1.000000000000000000, -0.0000000000000000000 ) ) ;
#8 = CARTESIAN_POINT ( 'NONE',  ( 0.0000000000000000000, 13.99999999999999800, 0.0000000000000000000 ) ) ;
#9 = DIRECTION ( 'NONE',  ( 0.0000000000000000000, 0.0000000000000000000, 1.000000000000000000 ) ) ;
#10 =( GEOMETRIC_REPRESENTATION_CONTEXT ( 3 ) GLOBAL_UNCERTAINTY_ASSIGNED_CONTEXT ( ( #108 ) ) GLOBAL_UNIT_ASSIGNED_CONTEXT ( ( #219, #240, #274 ) ) REPRESENTATION_CONTEXT ( 'NONE', 'WORKASPACE' ) );
#11 = PRODUCT_DEFINITION_SHAPE ( 'NONE', 'NONE',  #4 ) ;
#12 = CARTESIAN_POINT ( 'NONE',  ( 0.0000000000000000000, 13.99999999999999800, 0.0000000000000000000 ) ) ;
#13 = EDGE_CURVE ( 'NONE', #127, #39, #322, .T. ) ;
#14 = VECTOR ( 'NONE', #176, 1000.000000000000000 ) ;
#15 = CIRCLE ( 'NONE', #202, 0.6762395692965993400 ) ;
#16 = AXIS2_PLACEMENT_3D ( 'NONE', #277, #189, #112 ) ;
#17 = CARTESIAN_POINT ( 'NONE',  ( 0.0000000000000000000, 13.00000000000000200, 0.0000000000000000000 ) ) ;
#18 = ORIENTED_EDGE ( 'NONE', *, *, #301, .F. ) ;
#19 = APPLICATION_PROTOCOL_DEFINITION ( 'draft international standard', 'automotive_design', 1998, #185 ) ;
#20 = EDGE_LOOP ( 'NONE', ( #226, #332, #81, #295 ) ) ;
#21 = CARTESIAN_POINT ( 'NONE',  ( 0.0000000000000000000, 0.0000000000000000000, 0.0000000000000000000 ) ) ;
#22 = AXIS2_PLACEMENT_3D ( 'NONE', #276, #282, #254 ) ;
#23 = AXIS2_PLACEMENT_3D ( 'NONE', #72, #160, #270 ) ;
#24 = DIRECTION ( 'NONE',  ( 0.0000000000000000000, 0.0000000000000000000, -1.000000000000000000 ) ) ;
#25 = CARTESIAN_POINT ( 'NONE',  ( 0.0000000000000000000, 0.5000000000000030000, -1.000000000000000000 ) ) ;
#26 = CIRCLE ( 'NONE', #82, 0.4999999999999987200 ) ;
#27 = ADVANCED_FACE ( 'NONE', ( #101, #344 ), #85, .T. ) ;
#28 = EDGE_LOOP ( 'NONE', ( #264, #32, #188, #190 ) ) ;
#29 = LINE ( 'NONE', #62, #170 ) ;
#30 = EDGE_CURVE ( 'NONE', #64, #256, #236, .T. ) ;
#31 = CARTESIAN_POINT ( 'NONE',  ( 0.0000000000000000000, 13.00000000000000200, -1.600000000000000100 ) ) ;
#32 = ORIENTED_EDGE ( 'NONE', *, *, #13, .T. ) ;
#33 =( NAMED_UNIT ( * ) SI_UNIT ( $, .STERADIAN. ) SOLID_ANGLE_UNIT ( ) );
#34 = FILL_AREA_STYLE_COLOUR ( '', #308 ) ;
#35 = ORIENTED_EDGE ( 'NONE', *, *, #119, .F. ) ;
#36 = STYLED_ITEM ( 'NONE', ( #204 ), #40 ) ;
#37 = COLOUR_RGB ( '',0.7529411764705882200, 0.7529411764705882200, 0.7529411764705882200 ) ;
#38 = CIRCLE ( 'NONE', #280, 1.000000000000000000 ) ;
#39 = VERTEX_POINT ( 'NONE', #340 ) ;
#40 = ADVANCED_BREP_SHAPE_REPRESENTATION ( '38887~0', ( #235, #97 ), #10 ) ;
#41 = DIRECTION ( 'NONE',  ( -0.0000000000000000000, -1.000000000000000000, -0.0000000000000000000 ) ) ;
#42 = AXIS2_PLACEMENT_3D ( 'NONE', #17, #302, #354 ) ;
#43 = EDGE_CURVE ( 'NONE', #64, #227, #368, .T. ) ;
#44 = FACE_OUTER_BOUND ( 'NONE', #299, .T. ) ;
#45 = ORIENTED_EDGE ( 'NONE', *, *, #301, .T. ) ;
#46 = CARTESIAN_POINT ( 'NONE',  ( 1.711967322933286500E-016, 13.70000000000000100, 1.195854811567261100 ) ) ;
#47 = FILL_AREA_STYLE ('',( #134 ) ) ;
#48 = EDGE_LOOP ( 'NONE', ( #166, #292 ) ) ;
#49 = APPLICATION_PROTOCOL_DEFINITION ( 'draft international standard', 'automotive_design', 1998, #77 ) ;
#50 = AXIS2_PLACEMENT_3D ( 'NONE', #296, #212, #163 ) ;
#51 = AXIS2_PLACEMENT_3D ( 'NONE', #223, #57, #251 ) ;
#52 = CARTESIAN_POINT ( 'NONE',  ( 1.146327195613336600E-016, 13.99999999999999800, -0.6762395692965993400 ) ) ;
#53 = DIRECTION ( 'NONE',  ( 0.0000000000000000000, 0.0000000000000000000, -1.000000000000000000 ) ) ;
#54 =( LENGTH_UNIT ( ) NAMED_UNIT ( * ) SI_UNIT ( .MILLI., .METRE. ) );
#55 = ORIENTED_EDGE ( 'NONE', *, *, #63, .F. ) ;
#56 = AXIS2_PLACEMENT_3D ( 'NONE', #8, #73, #5 ) ;
#57 = DIRECTION ( 'NONE',  ( -0.0000000000000000000, -1.000000000000000000, -0.0000000000000000000 ) ) ;
#58 = DIRECTION ( 'NONE',  ( 0.0000000000000000000, -1.000000000000000000, -0.0000000000000000000 ) ) ;
#59 =( GEOMETRIC_REPRESENTATION_CONTEXT ( 3 ) GLOBAL_UNCERTAINTY_ASSIGNED_CONTEXT ( ( #95 ) ) GLOBAL_UNIT_ASSIGNED_CONTEXT ( ( #260, #123, #33 ) ) REPRESENTATION_CONTEXT ( 'NONE', 'WORKASPACE' ) );
#60 = ORIENTED_EDGE ( 'NONE', *, *, #321, .T. ) ;
#61 = ORIENTED_EDGE ( 'NONE', *, *, #211, .F. ) ;
#62 = CARTESIAN_POINT ( 'NONE',  ( 0.0000000000000000000, 0.0000000000000000000, 0.4999999999999987200 ) ) ;
#63 = EDGE_CURVE ( 'NONE', #337, #227, #250, .T. ) ;
#64 = VERTEX_POINT ( 'NONE', #31 ) ;
#65 = CARTESIAN_POINT ( 'NONE',  ( 1.959434878635765200E-016, 13.00000000000000200, 1.600000000000000100 ) ) ;
#66 = ORIENTED_EDGE ( 'NONE', *, *, #249, .T. ) ;
#67 = ORIENTED_EDGE ( 'NONE', *, *, #316, .T. ) ;
#68 = AXIS2_PLACEMENT_3D ( 'NONE', #319, #129, #271 ) ;
#69 = DIRECTION ( 'NONE',  ( -0.0000000000000000000, -1.000000000000000000, -0.0000000000000000000 ) ) ;
#70 = CYLINDRICAL_SURFACE ( 'NONE', #315, 1.600000000000000100 ) ;
#71 = VERTEX_POINT ( 'NONE', #25 ) ;
#72 = CARTESIAN_POINT ( 'NONE',  ( 0.0000000000000000000, 0.0000000000000000000, 0.0000000000000000000 ) ) ;
#73 = DIRECTION ( 'NONE',  ( 0.0000000000000000000, 1.000000000000000000, 0.0000000000000000000 ) ) ;
#74 = ORIENTED_EDGE ( 'NONE', *, *, #171, .T. ) ;
#75 = ORIENTED_EDGE ( 'NONE', *, *, #30, .F. ) ;
#76 = EDGE_CURVE ( 'NONE', #39, #71, #116, .T. ) ;
#77 = APPLICATION_CONTEXT ( 'automotive_design' ) ;
#78 = DIRECTION ( 'NONE',  ( 0.0000000000000000000, 0.0000000000000000000, -1.000000000000000000 ) ) ;
#79 = SHAPE_DEFINITION_REPRESENTATION ( #11, #40 ) ;
#80 = CARTESIAN_POINT ( 'NONE',  ( 0.0000000000000000000, 6.999999999999999100, 0.0000000000000000000 ) ) ;
#81 = ORIENTED_EDGE ( 'NONE', *, *, #371, .T. ) ;
#82 = AXIS2_PLACEMENT_3D ( 'NONE', #158, #41, #266 ) ;
#83 = FACE_OUTER_BOUND ( 'NONE', #356, .T. ) ;
#84 = ORIENTED_EDGE ( 'NONE', *, *, #294, .F. ) ;
#85 = PLANE ( 'NONE',  #137 ) ;
#86 = DIRECTION ( 'NONE',  ( 0.0000000000000000000, 1.000000000000000000, 0.0000000000000000000 ) ) ;
#87 = PRESENTATION_LAYER_ASSIGNMENT (  '', '', ( #36 ) ) ;
#88 = CARTESIAN_POINT ( 'NONE',  ( 0.0000000000000000000, 6.999999999999999100, -1.000000000000000000 ) ) ;
#89 = FACE_OUTER_BOUND ( 'NONE', #28, .T. ) ;
#90 = ORIENTED_EDGE ( 'NONE', *, *, #119, .T. ) ;
#91 = DIRECTION ( 'NONE',  ( 0.0000000000000000000, 0.0000000000000000000, -1.000000000000000000 ) ) ;
#92 = SURFACE_STYLE_FILL_AREA ( #290 ) ;
#93 = AXIS2_PLACEMENT_3D ( 'NONE', #346, #69, #130 ) ;
#94 = EDGE_CURVE ( 'NONE', #154, #6, #15, .T. ) ;
#95 = UNCERTAINTY_MEASURE_WITH_UNIT (LENGTH_MEASURE( 1.000000000000000100E-005 ), #260, 'distance_accuracy_value', 'NONE');
#96 = ORIENTED_EDGE ( 'NONE', *, *, #316, .F. ) ;
#97 = AXIS2_PLACEMENT_3D ( 'NONE', #352, #241, #243 ) ;
#98 = DIRECTION ( 'NONE',  ( 0.0000000000000000000, 0.0000000000000000000, -1.000000000000000000 ) ) ;
#99 = PLANE ( 'NONE',  #358 ) ;
#100 = CARTESIAN_POINT ( 'NONE',  ( 0.0000000000000000000, 13.70000000000000100, 0.0000000000000000000 ) ) ;
#101 = FACE_OUTER_BOUND ( 'NONE', #231, .T. ) ;
#102 = DIRECTION ( 'NONE',  ( 0.0000000000000000000, 1.000000000000000000, 0.0000000000000000000 ) ) ;
#103 = CARTESIAN_POINT ( 'NONE',  ( 0.0000000000000000000, 0.0000000000000000000, 0.0000000000000000000 ) ) ;
#104 = DIRECTION ( 'NONE',  ( -0.0000000000000000000, -1.000000000000000000, -0.0000000000000000000 ) ) ;
#105 = CYLINDRICAL_SURFACE ( 'NONE', #258, 1.600000000000000100 ) ;
#106 = CARTESIAN_POINT ( 'NONE',  ( 0.0000000000000000000, 13.70000000000000100, -1.195854811567261100 ) ) ;
#107 = MECHANICAL_DESIGN_GEOMETRIC_PRESENTATION_REPRESENTATION (  '', ( #36 ), #278 ) ;
#108 = UNCERTAINTY_MEASURE_WITH_UNIT (LENGTH_MEASURE( 1.000000000000000100E-005 ), #219, 'distance_accuracy_value', 'NONE');
#109 = ORIENTED_EDGE ( 'NONE', *, *, #63, .T. ) ;
#110 = AXIS2_PLACEMENT_3D ( 'NONE', #213, #102, #98 ) ;
#111 = DIRECTION ( 'NONE',  ( 0.0000000000000000000, 0.0000000000000000000, -1.000000000000000000 ) ) ;
#112 = DIRECTION ( 'NONE',  ( 0.0000000000000000000, 0.0000000000000000000, -1.000000000000000000 ) ) ;
#113 = DIRECTION ( 'NONE',  ( -0.0000000000000000000, -1.000000000000000000, -0.0000000000000000000 ) ) ;
#114 = CARTESIAN_POINT ( 'NONE',  ( 1.959434878635765200E-016, 7.000000000000000000, 1.600000000000000100 ) ) ;
#115 = CYLINDRICAL_SURFACE ( 'NONE', #369, 1.000000000000000000 ) ;
#116 = CIRCLE ( 'NONE', #110, 1.000000000000000000 ) ;
#117 = DIRECTION ( 'NONE',  ( 1.000000000000000000, -0.0000000000000000000, 1.224646799147353200E-016 ) ) ;
#118 = AXIS2_PLACEMENT_3D ( 'NONE', #21, #167, #53 ) ;
#119 = EDGE_CURVE ( 'NONE', #337, #365, #2, .T. ) ;
#120 = VECTOR ( 'NONE', #173, 999.9999999999998900 ) ;
#121 = CLOSED_SHELL ( 'NONE', ( #218, #307, #140, #304, #191, #331, #361, #221, #27, #350, #279, #248, #196 ) ) ;
#122 = PLANE ( 'NONE',  #362 ) ;
#123 =( NAMED_UNIT ( * ) PLANE_ANGLE_UNIT ( ) SI_UNIT ( $, .RADIAN. ) );
#124 = CARTESIAN_POINT ( 'NONE',  ( 0.0000000000000000000, 0.0000000000000000000, 0.0000000000000000000 ) ) ;
#125 = VECTOR ( 'NONE', #293, 1000.000000000000000 ) ;
#126 = TOROIDAL_SURFACE ( 'NONE', #22, 0.6762395692965993400, 0.5999999999999999800 ) ;
#127 = VERTEX_POINT ( 'NONE', #238 ) ;
#128 = AXIS2_PLACEMENT_3D ( 'NONE', #124, #203, #3 ) ;
#129 = DIRECTION ( 'NONE',  ( 0.0000000000000000000, 1.000000000000000000, 0.0000000000000000000 ) ) ;
#130 = DIRECTION ( 'NONE',  ( 0.0000000000000000000, 0.0000000000000000000, 1.000000000000000000 ) ) ;
#131 = ORIENTED_EDGE ( 'NONE', *, *, #94, .F. ) ;
#132 = CARTESIAN_POINT ( 'NONE',  ( 1.022649730810373000, 13.99999999999999800, 0.0000000000000000000 ) ) ;
#133 = DIRECTION ( 'NONE',  ( 0.0000000000000000000, 0.0000000000000000000, 1.000000000000000000 ) ) ;
#134 = FILL_AREA_STYLE_COLOUR ( '', #37 ) ;
#135 = CIRCLE ( 'NONE', #93, 1.195854811567261100 ) ;
#136 = ORIENTED_EDGE ( 'NONE', *, *, #321, .F. ) ;
#137 = AXIS2_PLACEMENT_3D ( 'NONE', #284, #58, #199 ) ;
#138 = ORIENTED_EDGE ( 'NONE', *, *, #143, .F. ) ;
#139 = DIRECTION ( 'NONE',  ( 0.0000000000000000000, 0.0000000000000000000, -1.000000000000000000 ) ) ;
#140 = ADVANCED_FACE ( 'NONE', ( #89 ), #184, .T. ) ;
#141 = CONICAL_SURFACE ( 'NONE', #42, 1.600000000000000100, 0.5235987755983002600 ) ;
#142 = EDGE_LOOP ( 'NONE', ( #84, #273, #153, #18 ) ) ;
#143 = EDGE_CURVE ( 'NONE', #127, #230, #38, .T. ) ;
#144 = DIRECTION ( 'NONE',  ( 0.0000000000000000000, 0.0000000000000000000, 1.000000000000000000 ) ) ;
#145 = ORIENTED_EDGE ( 'NONE', *, *, #194, .F. ) ;
#146 = DIRECTION ( 'NONE',  ( -0.0000000000000000000, -1.000000000000000000, -0.0000000000000000000 ) ) ;
#147 = AXIS2_PLACEMENT_3D ( 'NONE', #320, #318, #348 ) ;
#148 = CARTESIAN_POINT ( 'NONE',  ( 0.0000000000000000000, 0.0000000000000000000, -1.600000000000000100 ) ) ;
#149 = LINE ( 'NONE', #300, #1 ) ;
#150 = ORIENTED_EDGE ( 'NONE', *, *, #228, .T. ) ;
#151 = DIRECTION ( 'NONE',  ( 0.0000000000000000000, 0.7071067811865487900, 0.7071067811865463500 ) ) ;
#152 = FACE_OUTER_BOUND ( 'NONE', #48, .T. ) ;
#153 = ORIENTED_EDGE ( 'NONE', *, *, #30, .T. ) ;
#154 = VERTEX_POINT ( 'NONE', #52 ) ;
#155 = DIRECTION ( 'NONE',  ( 0.0000000000000000000, 0.0000000000000000000, -1.000000000000000000 ) ) ;
#156 = FACE_OUTER_BOUND ( 'NONE', #328, .T. ) ;
#157 = VERTEX_POINT ( 'NONE', #114 ) ;
#158 = CARTESIAN_POINT ( 'NONE',  ( 0.0000000000000000000, 0.0000000000000000000, 0.0000000000000000000 ) ) ;
#159 = AXIS2_PLACEMENT_3D ( 'NONE', #252, #86, #253 ) ;
#160 = DIRECTION ( 'NONE',  ( -0.0000000000000000000, -1.000000000000000000, -0.0000000000000000000 ) ) ;
#161 = CARTESIAN_POINT ( 'NONE',  ( 0.0000000000000000000, 0.0000000000000000000, 0.4999999999999987200 ) ) ;
#162 = PRODUCT_CONTEXT ( 'NONE', #77, 'mechanical' ) ;
#163 = DIRECTION ( 'NONE',  ( 0.0000000000000000000, 0.0000000000000000000, 1.000000000000000000 ) ) ;
#164 =( NAMED_UNIT ( * ) PLANE_ANGLE_UNIT ( ) SI_UNIT ( $, .RADIAN. ) );
#165 = ORIENTED_EDGE ( 'NONE', *, *, #180, .F. ) ;
#166 = ORIENTED_EDGE ( 'NONE', *, *, #330, .T. ) ;
#167 = DIRECTION ( 'NONE',  ( -0.0000000000000000000, -1.000000000000000000, -0.0000000000000000000 ) ) ;
#168 = CARTESIAN_POINT ( 'NONE',  ( 0.0000000000000000000, 13.00000000000000200, 0.0000000000000000000 ) ) ;
#169 = PRODUCT ( '38887~0', '38887~0', '', ( #162 ) ) ;
#170 = VECTOR ( 'NONE', #151, 1000.000000000000000 ) ;
#171 = EDGE_CURVE ( 'NONE', #365, #64, #263, .T. ) ;
#172 = EDGE_LOOP ( 'NONE', ( #370, #138 ) ) ;
#173 = DIRECTION ( 'NONE',  ( 6.123233995736782100E-017, -0.8660254037844380400, 0.5000000000000012200 ) ) ;
#174 = CIRCLE ( 'NONE', #56, 0.6762395692965993400 ) ;
#175 = VERTEX_POINT ( 'NONE', #161 ) ;
#176 = DIRECTION ( 'NONE',  ( 8.659560562354918100E-017, 0.7071067811865487900, -0.7071067811865463500 ) ) ;
#177 = SURFACE_STYLE_USAGE ( .BOTH. , #314 ) ;
#178 = FACE_OUTER_BOUND ( 'NONE', #20, .T. ) ;
#179 = FACE_OUTER_BOUND ( 'NONE', #345, .T. ) ;
#180 = EDGE_CURVE ( 'NONE', #256, #157, #239, .T. ) ;
#181 = CARTESIAN_POINT ( 'NONE',  ( 0.0000000000000000000, 0.0000000000000000000, 0.0000000000000000000 ) ) ;
#182 = DIRECTION ( 'NONE',  ( 0.0000000000000000000, 1.000000000000000000, 0.0000000000000000000 ) ) ;
#183 = CIRCLE ( 'NONE', #303, 1.000000000000000000 ) ;
#184 = CYLINDRICAL_SURFACE ( 'NONE', #23, 1.000000000000000000 ) ;
#185 = APPLICATION_CONTEXT ( 'automotive_design' ) ;
#186 = PRODUCT_RELATED_PRODUCT_CATEGORY ( 'part', '', ( #169 ) ) ;
#187 = CARTESIAN_POINT ( 'NONE',  ( 0.0000000000000000000, 7.000000000000000000, 0.0000000000000000000 ) ) ;
#188 = ORIENTED_EDGE ( 'NONE', *, *, #76, .T. ) ;
#189 = DIRECTION ( 'NONE',  ( -0.0000000000000000000, -1.000000000000000000, -0.0000000000000000000 ) ) ;
#190 = ORIENTED_EDGE ( 'NONE', *, *, #371, .F. ) ;
#191 = ADVANCED_FACE ( 'NONE', ( #327 ), #283, .T. ) ;
#192 = DIRECTION ( 'NONE',  ( 0.0000000000000000000, -0.8660254037844380400, -0.5000000000000012200 ) ) ;
#193 = CIRCLE ( 'NONE', #147, 1.600000000000000100 ) ;
#194 = EDGE_CURVE ( 'NONE', #71, #39, #197, .T. ) ;
#195 = ORIENTED_EDGE ( 'NONE', *, *, #76, .F. ) ;
#196 = ADVANCED_FACE ( 'NONE', ( #313 ), #126, .T. ) ;
#197 = CIRCLE ( 'NONE', #159, 1.000000000000000000 ) ;
#198 = ORIENTED_EDGE ( 'NONE', *, *, #211, .T. ) ;
#199 = DIRECTION ( 'NONE',  ( 0.0000000000000000000, 0.0000000000000000000, -1.000000000000000000 ) ) ;
#200 = DIRECTION ( 'NONE',  ( -0.0000000000000000000, -1.000000000000000000, -0.0000000000000000000 ) ) ;
#201 = PRODUCT_DEFINITION_FORMATION_WITH_SPECIFIED_SOURCE ( 'ANY', '', #169, .NOT_KNOWN. ) ;
#202 = AXIS2_PLACEMENT_3D ( 'NONE', #12, #182, #9 ) ;
#203 = DIRECTION ( 'NONE',  ( 0.0000000000000000000, 1.000000000000000000, 0.0000000000000000000 ) ) ;
#204 = PRESENTATION_STYLE_ASSIGNMENT (( #246 ) ) ;
#205 = ORIENTED_EDGE ( 'NONE', *, *, #359, .F. ) ;
#206 = CARTESIAN_POINT ( 'NONE',  ( 6.123233995736750000E-017, 0.0000000000000000000, -0.4999999999999987200 ) ) ;
#207 = CARTESIAN_POINT ( 'NONE',  ( 9.184850993605141000E-017, 0.0000000000000000000, -0.4999999999999987200 ) ) ;
#208 = FACE_OUTER_BOUND ( 'NONE', #142, .T. ) ;
#209 = AXIS2_PLACEMENT_3D ( 'NONE', #334, #117, #367 ) ;
#210 = ORIENTED_EDGE ( 'NONE', *, *, #294, .T. ) ;
#211 = EDGE_CURVE ( 'NONE', #365, #154, #255, .T. ) ;
#212 = DIRECTION ( 'NONE',  ( -1.000000000000000000, 0.0000000000000000000, 0.0000000000000000000 ) ) ;
#213 = CARTESIAN_POINT ( 'NONE',  ( 0.0000000000000000000, 0.5000000000000030000, 0.0000000000000000000 ) ) ;
#214 = DIRECTION ( 'NONE',  ( 0.0000000000000000000, 1.000000000000000000, 0.0000000000000000000 ) ) ;
#215 = PRESENTATION_STYLE_ASSIGNMENT (( #177 ) ) ;
#216 = ORIENTED_EDGE ( 'NONE', *, *, #94, .T. ) ;
#217 = CARTESIAN_POINT ( 'NONE',  ( 0.0000000000000000000, 6.999999999999999100, 0.0000000000000000000 ) ) ;
#218 = ADVANCED_FACE ( 'NONE', ( #179 ), #244, .T. ) ;
#219 =( LENGTH_UNIT ( ) NAMED_UNIT ( * ) SI_UNIT ( .MILLI., .METRE. ) );
#220 = VECTOR ( 'NONE', #146, 1000.000000000000000 ) ;
#221 = ADVANCED_FACE ( 'NONE', ( #208 ), #105, .T. ) ;
#222 = ORIENTED_EDGE ( 'NONE', *, *, #289, .T. ) ;
#223 = CARTESIAN_POINT ( 'NONE',  ( 0.0000000000000000000, 13.00000000000000200, 0.0000000000000000000 ) ) ;
#224 = CARTESIAN_POINT ( 'NONE',  ( 1.224646799147353200E-016, 0.0000000000000000000, 1.000000000000000000 ) ) ;
#225 = CONICAL_SURFACE ( 'NONE', #68, 0.4999999999999987200, 0.7853981633974466100 ) ;
#226 = ORIENTED_EDGE ( 'NONE', *, *, #13, .F. ) ;
#227 = VERTEX_POINT ( 'NONE', #65 ) ;
#228 = EDGE_CURVE ( 'NONE', #175, #39, #29, .T. ) ;
#229 = CARTESIAN_POINT ( 'NONE',  ( 1.959434878635765200E-016, 13.00000000000000200, 1.600000000000000100 ) ) ;
#230 = VERTEX_POINT ( 'NONE', #88 ) ;
#231 = EDGE_LOOP ( 'NONE', ( #347, #45 ) ) ;
#232 = FACE_OUTER_BOUND ( 'NONE', #245, .T. ) ;
#233 = VECTOR ( 'NONE', #192, 999.9999999999998900 ) ;
#234 = PRODUCT_DEFINITION_CONTEXT ( 'detailed design', #185, 'design' ) ;
#235 = MANIFOLD_SOLID_BREP ( 'Verrundung1', #121 ) ;
#236 = LINE ( 'NONE', #148, #291 ) ;
#237 = ORIENTED_EDGE ( 'NONE', *, *, #330, .F. ) ;
#238 = CARTESIAN_POINT ( 'NONE',  ( 1.224646799147353200E-016, 6.999999999999999100, 1.000000000000000000 ) ) ;
#239 = CIRCLE ( 'NONE', #310, 1.600000000000000100 ) ;
#240 =( NAMED_UNIT ( * ) PLANE_ANGLE_UNIT ( ) SI_UNIT ( $, .RADIAN. ) );
#241 = DIRECTION ( 'NONE',  ( 0.0000000000000000000, 0.0000000000000000000, 1.000000000000000000 ) ) ;
#242 = AXIS2_PLACEMENT_3D ( 'NONE', #168, #357, #24 ) ;
#243 = DIRECTION ( 'NONE',  ( 1.000000000000000000, 0.0000000000000000000, 0.0000000000000000000 ) ) ;
#244 = TOROIDAL_SURFACE ( 'NONE', #336, 0.6762395692965993400, 0.5999999999999999800 ) ;
#245 = EDGE_LOOP ( 'NONE', ( #222, #216 ) ) ;
#246 = SURFACE_STYLE_USAGE ( .BOTH. , #329 ) ;
#247 =( NAMED_UNIT ( * ) SI_UNIT ( $, .STERADIAN. ) SOLID_ANGLE_UNIT ( ) );
#248 = ADVANCED_FACE ( 'NONE', ( #156 ), #267, .T. ) ;
#249 = EDGE_CURVE ( 'NONE', #275, #71, #317, .T. ) ;
#250 = LINE ( 'NONE', #229, #120 ) ;
#251 = DIRECTION ( 'NONE',  ( 0.0000000000000000000, 0.0000000000000000000, -1.000000000000000000 ) ) ;
#252 = CARTESIAN_POINT ( 'NONE',  ( 0.0000000000000000000, 0.5000000000000030000, 0.0000000000000000000 ) ) ;
#253 = DIRECTION ( 'NONE',  ( 0.0000000000000000000, 0.0000000000000000000, -1.000000000000000000 ) ) ;
#254 = DIRECTION ( 'NONE',  ( 0.0000000000000000000, 0.0000000000000000000, 1.000000000000000000 ) ) ;
#255 = CIRCLE ( 'NONE', #209, 0.5999999999999998700 ) ;
#256 = VERTEX_POINT ( 'NONE', #288 ) ;
#257 = CARTESIAN_POINT ( 'NONE',  ( 0.0000000000000000000, 13.99999999999999800, 0.6762395692965993400 ) ) ;
#258 = AXIS2_PLACEMENT_3D ( 'NONE', #333, #200, #366 ) ;
#259 = AXIS2_PLACEMENT_3D ( 'NONE', #100, #297, #133 ) ;
#260 =( LENGTH_UNIT ( ) NAMED_UNIT ( * ) SI_UNIT ( .MILLI., .METRE. ) );
#261 = ORIENTED_EDGE ( 'NONE', *, *, #286, .F. ) ;
#262 = CIRCLE ( 'NONE', #16, 1.600000000000000100 ) ;
#263 = LINE ( 'NONE', #355, #233 ) ;
#264 = ORIENTED_EDGE ( 'NONE', *, *, #342, .T. ) ;
#265 = CARTESIAN_POINT ( 'NONE',  ( 1.959434878635765200E-016, 0.0000000000000000000, 1.600000000000000100 ) ) ;
#266 = DIRECTION ( 'NONE',  ( 0.0000000000000000000, 0.0000000000000000000, -1.000000000000000000 ) ) ;
#267 = CONICAL_SURFACE ( 'NONE', #128, 0.4999999999999987200, 0.7853981633974466100 ) ;
#268 = MECHANICAL_DESIGN_GEOMETRIC_PRESENTATION_REPRESENTATION (  '', ( #343 ), #59 ) ;
#269 = ORIENTED_EDGE ( 'NONE', *, *, #43, .F. ) ;
#270 = DIRECTION ( 'NONE',  ( 0.0000000000000000000, 0.0000000000000000000, -1.000000000000000000 ) ) ;
#271 = DIRECTION ( 'NONE',  ( 0.0000000000000000000, 0.0000000000000000000, 1.000000000000000000 ) ) ;
#272 = LINE ( 'NONE', #265, #125 ) ;
#273 = ORIENTED_EDGE ( 'NONE', *, *, #359, .T. ) ;
#274 =( NAMED_UNIT ( * ) SI_UNIT ( $, .STERADIAN. ) SOLID_ANGLE_UNIT ( ) );
#275 = VERTEX_POINT ( 'NONE', #207 ) ;
#276 = CARTESIAN_POINT ( 'NONE',  ( 0.0000000000000000000, 13.39999999999999900, 0.0000000000000000000 ) ) ;
#277 = CARTESIAN_POINT ( 'NONE',  ( 0.0000000000000000000, 13.00000000000000200, 0.0000000000000000000 ) ) ;
#278 =( GEOMETRIC_REPRESENTATION_CONTEXT ( 3 ) GLOBAL_UNCERTAINTY_ASSIGNED_CONTEXT ( ( #339 ) ) GLOBAL_UNIT_ASSIGNED_CONTEXT ( ( #54, #164, #247 ) ) REPRESENTATION_CONTEXT ( 'NONE', 'WORKASPACE' ) );
#279 = ADVANCED_FACE ( 'NONE', ( #152 ), #122, .T. ) ;
#280 = AXIS2_PLACEMENT_3D ( 'NONE', #80, #113, #78 ) ;
#281 = ORIENTED_EDGE ( 'NONE', *, *, #289, .F. ) ;
#282 = DIRECTION ( 'NONE',  ( 0.0000000000000000000, 1.000000000000000000, 0.0000000000000000000 ) ) ;
#283 = CONICAL_SURFACE ( 'NONE', #242, 1.600000000000000100, 0.5235987755983002600 ) ;
#284 = CARTESIAN_POINT ( 'NONE',  ( 1.000000000000000000, 6.999999999999999100, 0.0000000000000000000 ) ) ;
#285 = ORIENTED_EDGE ( 'NONE', *, *, #171, .F. ) ;
#286 = EDGE_CURVE ( 'NONE', #275, #175, #26, .T. ) ;
#287 = EDGE_LOOP ( 'NONE', ( #61, #35, #60, #131 ) ) ;
#288 = CARTESIAN_POINT ( 'NONE',  ( 0.0000000000000000000, 7.000000000000000000, -1.600000000000000100 ) ) ;
#289 = EDGE_CURVE ( 'NONE', #6, #154, #174, .T. ) ;
#290 = FILL_AREA_STYLE ('',( #34 ) ) ;
#291 = VECTOR ( 'NONE', #364, 1000.000000000000000 ) ;
#292 = ORIENTED_EDGE ( 'NONE', *, *, #286, .T. ) ;
#293 = DIRECTION ( 'NONE',  ( -0.0000000000000000000, -1.000000000000000000, -0.0000000000000000000 ) ) ;
#294 = EDGE_CURVE ( 'NONE', #227, #157, #272, .T. ) ;
#295 = ORIENTED_EDGE ( 'NONE', *, *, #194, .T. ) ;
#296 = CARTESIAN_POINT ( 'NONE',  ( 0.0000000000000000000, 13.39999999999999900, 0.6762395692965993400 ) ) ;
#297 = DIRECTION ( 'NONE',  ( -0.0000000000000000000, -1.000000000000000000, -0.0000000000000000000 ) ) ;
#298 = DIRECTION ( 'NONE',  ( -0.0000000000000000000, -1.000000000000000000, -0.0000000000000000000 ) ) ;
#299 = EDGE_LOOP ( 'NONE', ( #363, #210, #165, #75 ) ) ;
#300 = CARTESIAN_POINT ( 'NONE',  ( 0.0000000000000000000, 0.0000000000000000000, -1.000000000000000000 ) ) ;
#301 = EDGE_CURVE ( 'NONE', #157, #256, #193, .T. ) ;
#302 = DIRECTION ( 'NONE',  ( -0.0000000000000000000, -1.000000000000000000, -0.0000000000000000000 ) ) ;
#303 = AXIS2_PLACEMENT_3D ( 'NONE', #217, #325, #139 ) ;
#304 = ADVANCED_FACE ( 'NONE', ( #44 ), #70, .T. ) ;
#305 = CIRCLE ( 'NONE', #50, 0.5999999999999998700 ) ;
#306 = EDGE_LOOP ( 'NONE', ( #67, #109, #269, #285 ) ) ;
#307 = ADVANCED_FACE ( 'NONE', ( #326 ), #225, .T. ) ;
#308 = COLOUR_RGB ( '',0.7529411764705882200, 0.7529411764705882200, 0.7529411764705882200 ) ;
#309 = EDGE_LOOP ( 'NONE', ( #261, #66, #195, #351 ) ) ;
#310 = AXIS2_PLACEMENT_3D ( 'NONE', #187, #104, #111 ) ;
#311 = CARTESIAN_POINT ( 'NONE',  ( 0.0000000000000000000, 0.0000000000000000000, 0.0000000000000000000 ) ) ;
#312 = SURFACE_STYLE_FILL_AREA ( #47 ) ;
#313 = FACE_OUTER_BOUND ( 'NONE', #287, .T. ) ;
#314 = SURFACE_SIDE_STYLE ('',( #92 ) ) ;
#315 = AXIS2_PLACEMENT_3D ( 'NONE', #181, #7, #155 ) ;
#316 = EDGE_CURVE ( 'NONE', #365, #337, #135, .T. ) ;
#317 = LINE ( 'NONE', #206, #14 ) ;
#318 = DIRECTION ( 'NONE',  ( -0.0000000000000000000, -1.000000000000000000, -0.0000000000000000000 ) ) ;
#319 = CARTESIAN_POINT ( 'NONE',  ( 0.0000000000000000000, 0.0000000000000000000, 0.0000000000000000000 ) ) ;
#320 = CARTESIAN_POINT ( 'NONE',  ( 0.0000000000000000000, 7.000000000000000000, 0.0000000000000000000 ) ) ;
#321 = EDGE_CURVE ( 'NONE', #337, #6, #305, .T. ) ;
#322 = LINE ( 'NONE', #224, #220 ) ;
#323 = DIRECTION ( 'NONE',  ( -0.0000000000000000000, -1.000000000000000000, -0.0000000000000000000 ) ) ;
#324 = PRESENTATION_LAYER_ASSIGNMENT (  '', '', ( #343 ) ) ;
#325 = DIRECTION ( 'NONE',  ( -0.0000000000000000000, -1.000000000000000000, -0.0000000000000000000 ) ) ;
#326 = FACE_OUTER_BOUND ( 'NONE', #309, .T. ) ;
#327 = FACE_OUTER_BOUND ( 'NONE', #306, .T. ) ;
#328 = EDGE_LOOP ( 'NONE', ( #341, #237, #150, #145 ) ) ;
#329 = SURFACE_SIDE_STYLE ('',( #312 ) ) ;
#330 = EDGE_CURVE ( 'NONE', #175, #275, #335, .T. ) ;
#331 = ADVANCED_FACE ( 'NONE', ( #232 ), #99, .T. ) ;
#332 = ORIENTED_EDGE ( 'NONE', *, *, #143, .T. ) ;
#333 = CARTESIAN_POINT ( 'NONE',  ( 0.0000000000000000000, 0.0000000000000000000, 0.0000000000000000000 ) ) ;
#334 = CARTESIAN_POINT ( 'NONE',  ( 8.281546239958651000E-017, 13.39999999999999900, -0.6762395692965993400 ) ) ;
#335 = CIRCLE ( 'NONE', #118, 0.4999999999999987200 ) ;
#336 = AXIS2_PLACEMENT_3D ( 'NONE', #338, #360, #144 ) ;
#337 = VERTEX_POINT ( 'NONE', #46 ) ;
#338 = CARTESIAN_POINT ( 'NONE',  ( 0.0000000000000000000, 13.39999999999999900, 0.0000000000000000000 ) ) ;
#339 = UNCERTAINTY_MEASURE_WITH_UNIT (LENGTH_MEASURE( 1.000000000000000100E-005 ), #54, 'distance_accuracy_value', 'NONE');
#340 = CARTESIAN_POINT ( 'NONE',  ( 1.224646799147353200E-016, 0.5000000000000030000, 1.000000000000000000 ) ) ;
#341 = ORIENTED_EDGE ( 'NONE', *, *, #249, .F. ) ;
#342 = EDGE_CURVE ( 'NONE', #230, #127, #183, .T. ) ;
#343 = STYLED_ITEM ( 'NONE', ( #215 ), #235 ) ;
#344 = FACE_BOUND ( 'NONE', #172, .T. ) ;
#345 = EDGE_LOOP ( 'NONE', ( #96, #198, #281, #136 ) ) ;
#346 = CARTESIAN_POINT ( 'NONE',  ( 0.0000000000000000000, 13.70000000000000100, 0.0000000000000000000 ) ) ;
#347 = ORIENTED_EDGE ( 'NONE', *, *, #180, .T. ) ;
#348 = DIRECTION ( 'NONE',  ( 0.0000000000000000000, 0.0000000000000000000, -1.000000000000000000 ) ) ;
#349 = DIRECTION ( 'NONE',  ( 0.0000000000000000000, -0.0000000000000000000, 1.000000000000000000 ) ) ;
#350 = ADVANCED_FACE ( 'NONE', ( #178 ), #115, .T. ) ;
#351 = ORIENTED_EDGE ( 'NONE', *, *, #228, .F. ) ;
#352 = CARTESIAN_POINT ( 'NONE',  ( 0.0000000000000000000, 0.0000000000000000000, 0.0000000000000000000 ) ) ;
#353 = DIRECTION ( 'NONE',  ( 0.0000000000000000000, 0.0000000000000000000, -1.000000000000000000 ) ) ;
#354 = DIRECTION ( 'NONE',  ( 0.0000000000000000000, 0.0000000000000000000, -1.000000000000000000 ) ) ;
#355 = CARTESIAN_POINT ( 'NONE',  ( 0.0000000000000000000, 13.00000000000000200, -1.600000000000000100 ) ) ;
#356 = EDGE_LOOP ( 'NONE', ( #55, #90, #74, #205 ) ) ;
#357 = DIRECTION ( 'NONE',  ( -0.0000000000000000000, -1.000000000000000000, -0.0000000000000000000 ) ) ;
#358 = AXIS2_PLACEMENT_3D ( 'NONE', #132, #214, #349 ) ;
#359 = EDGE_CURVE ( 'NONE', #227, #64, #262, .T. ) ;
#360 = DIRECTION ( 'NONE',  ( 0.0000000000000000000, 1.000000000000000000, 0.0000000000000000000 ) ) ;
#361 = ADVANCED_FACE ( 'NONE', ( #83 ), #141, .T. ) ;
#362 = AXIS2_PLACEMENT_3D ( 'NONE', #311, #372, #91 ) ;
#363 = ORIENTED_EDGE ( 'NONE', *, *, #43, .T. ) ;
#364 = DIRECTION ( 'NONE',  ( -0.0000000000000000000, -1.000000000000000000, -0.0000000000000000000 ) ) ;
#365 = VERTEX_POINT ( 'NONE', #106 ) ;
#366 = DIRECTION ( 'NONE',  ( 0.0000000000000000000, 0.0000000000000000000, -1.000000000000000000 ) ) ;
#367 = DIRECTION ( 'NONE',  ( 1.224646799147353500E-016, 0.0000000000000000000, -1.000000000000000000 ) ) ;
#368 = CIRCLE ( 'NONE', #51, 1.600000000000000100 ) ;
#369 = AXIS2_PLACEMENT_3D ( 'NONE', #103, #298, #353 ) ;
#370 = ORIENTED_EDGE ( 'NONE', *, *, #342, .F. ) ;
#371 = EDGE_CURVE ( 'NONE', #230, #71, #149, .T. ) ;
#372 = DIRECTION ( 'NONE',  ( 0.0000000000000000000, -1.000000000000000000, -0.0000000000000000000 ) ) ;
ENDSEC;
END-ISO-10303-21;
