ISO-10303-21;
HEADER;
FILE_DESCRIPTION (( 'STEP AP214' ),
    '1' );
FILE_NAME ('38885~0.STEP',
    '2017-07-04T09:00:09',
    ( '' ),
    ( '' ),
    'SwSTEP 2.0',
    'SolidWorks 2016',
    '' );
FILE_SCHEMA (( 'AUTOMOTIVE_DESIGN' ));
ENDSEC;

DATA;
#1 = FILL_AREA_STYLE_COLOUR ( '', #14 ) ;
#2 = SURFACE_STYLE_FILL_AREA ( #121 ) ;
#3 = AXIS2_PLACEMENT_3D ( 'NONE', #254, #285, #220 ) ;
#4 = ORIENTED_EDGE ( 'NONE', *, *, #284, .F. ) ;
#5 = DIRECTION ( 'NONE',  ( 0.0000000000000000000, 0.0000000000000000000, -1.000000000000000000 ) ) ;
#6 = DIRECTION ( 'NONE',  ( 0.0000000000000000000, 0.0000000000000000000, 1.000000000000000000 ) ) ;
#7 = LINE ( 'NONE', #311, #77 ) ;
#8 = VERTEX_POINT ( 'NONE', #271 ) ;
#9 = VECTOR ( 'NONE', #196, 1000.000000000000000 ) ;
#10 = FACE_OUTER_BOUND ( 'NONE', #167, .T. ) ;
#11 = VERTEX_POINT ( 'NONE', #128 ) ;
#12 = DIRECTION ( 'NONE',  ( -0.0000000000000000000, -1.000000000000000000, -0.0000000000000000000 ) ) ;
#13 = FACE_OUTER_BOUND ( 'NONE', #182, .T. ) ;
#14 = COLOUR_RGB ( '',0.7529411764705882200, 0.7529411764705882200, 0.7529411764705882200 ) ;
#15 = PLANE ( 'NONE',  #89 ) ;
#16 = CARTESIAN_POINT ( 'NONE',  ( 1.224646799147353200E-016, 0.0000000000000000000, 1.000000000000000000 ) ) ;
#17 = DIRECTION ( 'NONE',  ( -0.0000000000000000000, -1.000000000000000000, -0.0000000000000000000 ) ) ;
#18 = FACE_OUTER_BOUND ( 'NONE', #174, .T. ) ;
#19 = PRODUCT_RELATED_PRODUCT_CATEGORY ( 'part', '', ( #172 ) ) ;
#20 = CIRCLE ( 'NONE', #179, 1.000000000000000000 ) ;
#21 = DIRECTION ( 'NONE',  ( 0.0000000000000000000, 0.0000000000000000000, 1.000000000000000000 ) ) ;
#22 = ADVANCED_FACE ( 'NONE', ( #353 ), #239, .T. ) ;
#23 = ORIENTED_EDGE ( 'NONE', *, *, #150, .T. ) ;
#24 = EDGE_CURVE ( 'NONE', #130, #135, #100, .T. ) ;
#25 =( LENGTH_UNIT ( ) NAMED_UNIT ( * ) SI_UNIT ( .MILLI., .METRE. ) );
#26 = CARTESIAN_POINT ( 'NONE',  ( 0.0000000000000000000, 0.0000000000000000000, 0.0000000000000000000 ) ) ;
#27 =( LENGTH_UNIT ( ) NAMED_UNIT ( * ) SI_UNIT ( .MILLI., .METRE. ) );
#28 = CARTESIAN_POINT ( 'NONE',  ( 0.0000000000000000000, 13.39999999999999900, 0.0000000000000000000 ) ) ;
#29 = AXIS2_PLACEMENT_3D ( 'NONE', #34, #322, #205 ) ;
#30 = CIRCLE ( 'NONE', #112, 0.4999999999999987200 ) ;
#31 = CIRCLE ( 'NONE', #355, 1.095854811567261900 ) ;
#32 = EDGE_LOOP ( 'NONE', ( #65, #240, #206, #72 ) ) ;
#33 = CLOSED_SHELL ( 'NONE', ( #316, #58, #141, #61, #22, #169, #198, #52, #160, #290, #259, #137, #229 ) ) ;
#34 = CARTESIAN_POINT ( 'NONE',  ( 0.0000000000000000000, 6.999999999999999100, 0.0000000000000000000 ) ) ;
#35 = CARTESIAN_POINT ( 'NONE',  ( 1.023862515698601900E-016, 13.99999999999999800, -0.5762395692965994700 ) ) ;
#36 = COLOUR_RGB ( '',0.7529411764705882200, 0.7529411764705882200, 0.7529411764705882200 ) ;
#37 = DIRECTION ( 'NONE',  ( -0.0000000000000000000, -1.000000000000000000, -0.0000000000000000000 ) ) ;
#38 = ORIENTED_EDGE ( 'NONE', *, *, #275, .T. ) ;
#39 = CARTESIAN_POINT ( 'NONE',  ( 0.0000000000000000000, 0.0000000000000000000, 0.0000000000000000000 ) ) ;
#40 = LINE ( 'NONE', #156, #335 ) ;
#41 = ORIENTED_EDGE ( 'NONE', *, *, #199, .F. ) ;
#42 = AXIS2_PLACEMENT_3D ( 'NONE', #95, #148, #288 ) ;
#43 = CARTESIAN_POINT ( 'NONE',  ( 0.0000000000000000000, 13.69999999999999900, 0.0000000000000000000 ) ) ;
#44 = EDGE_CURVE ( 'NONE', #140, #320, #31, .T. ) ;
#45 = EDGE_LOOP ( 'NONE', ( #152, #126, #108, #195 ) ) ;
#46 = AXIS2_PLACEMENT_3D ( 'NONE', #184, #213, #74 ) ;
#47 = DIRECTION ( 'NONE',  ( 0.0000000000000000000, 0.0000000000000000000, -1.000000000000000000 ) ) ;
#48 = CIRCLE ( 'NONE', #125, 0.5999999999999999800 ) ;
#49 = VERTEX_POINT ( 'NONE', #154 ) ;
#50 = VERTEX_POINT ( 'NONE', #153 ) ;
#51 = FILL_AREA_STYLE_COLOUR ( '', #36 ) ;
#52 = ADVANCED_FACE ( 'NONE', ( #55 ), #344, .T. ) ;
#53 = CARTESIAN_POINT ( 'NONE',  ( 6.123233995736750000E-017, 0.0000000000000000000, -0.4999999999999987200 ) ) ;
#54 =( GEOMETRIC_REPRESENTATION_CONTEXT ( 3 ) GLOBAL_UNCERTAINTY_ASSIGNED_CONTEXT ( ( #212 ) ) GLOBAL_UNIT_ASSIGNED_CONTEXT ( ( #27, #59, #226 ) ) REPRESENTATION_CONTEXT ( 'NONE', 'WORKASPACE' ) );
#55 = FACE_OUTER_BOUND ( 'NONE', #85, .T. ) ;
#56 = ORIENTED_EDGE ( 'NONE', *, *, #284, .T. ) ;
#57 = DIRECTION ( 'NONE',  ( 0.0000000000000000000, 0.0000000000000000000, -1.000000000000000000 ) ) ;
#58 = ADVANCED_FACE ( 'NONE', ( #326 ), #292, .T. ) ;
#59 =( NAMED_UNIT ( * ) PLANE_ANGLE_UNIT ( ) SI_UNIT ( $, .RADIAN. ) );
#60 = DIRECTION ( 'NONE',  ( 0.0000000000000000000, 1.000000000000000000, 0.0000000000000000000 ) ) ;
#61 = ADVANCED_FACE ( 'NONE', ( #115 ), #269, .T. ) ;
#62 = CIRCLE ( 'NONE', #238, 0.5999999999999999800 ) ;
#63 = ORIENTED_EDGE ( 'NONE', *, *, #362, .T. ) ;
#64 = DIRECTION ( 'NONE',  ( 1.000000000000000000, -0.0000000000000000000, 1.224646799147353200E-016 ) ) ;
#65 = ORIENTED_EDGE ( 'NONE', *, *, #44, .T. ) ;
#66 = CARTESIAN_POINT ( 'NONE',  ( 0.0000000000000000000, 13.69999999999999900, 0.0000000000000000000 ) ) ;
#67 = AXIS2_PLACEMENT_3D ( 'NONE', #97, #295, #346 ) ;
#68 = DIRECTION ( 'NONE',  ( -0.0000000000000000000, -1.000000000000000000, -0.0000000000000000000 ) ) ;
#69 = VECTOR ( 'NONE', #296, 1000.000000000000000 ) ;
#70 = FACE_OUTER_BOUND ( 'NONE', #354, .T. ) ;
#71 = EDGE_CURVE ( 'NONE', #130, #11, #249, .T. ) ;
#72 = ORIENTED_EDGE ( 'NONE', *, *, #187, .F. ) ;
#73 = ORIENTED_EDGE ( 'NONE', *, *, #93, .F. ) ;
#74 = DIRECTION ( 'NONE',  ( 0.0000000000000000000, 0.0000000000000000000, -1.000000000000000000 ) ) ;
#75 = AXIS2_PLACEMENT_3D ( 'NONE', #142, #315, #176 ) ;
#76 = CARTESIAN_POINT ( 'NONE',  ( 0.0000000000000000000, 13.99999999999999800, 0.0000000000000000000 ) ) ;
#77 = VECTOR ( 'NONE', #163, 1000.000000000000000 ) ;
#78 = VECTOR ( 'NONE', #293, 999.9999999999998900 ) ;
#79 = DIRECTION ( 'NONE',  ( 0.0000000000000000000, -1.000000000000000000, -0.0000000000000000000 ) ) ;
#80 = EDGE_CURVE ( 'NONE', #234, #270, #188, .T. ) ;
#81 = CARTESIAN_POINT ( 'NONE',  ( 0.0000000000000000000, 13.99999999999999800, 0.0000000000000000000 ) ) ;
#82 = PLANE ( 'NONE',  #91 ) ;
#83 = DIRECTION ( 'NONE',  ( 8.659560562354918100E-017, 0.7071067811865487900, -0.7071067811865463500 ) ) ;
#84 = ORIENTED_EDGE ( 'NONE', *, *, #187, .T. ) ;
#85 = EDGE_LOOP ( 'NONE', ( #342, #177, #294, #217 ) ) ;
#86 = PLANE ( 'NONE',  #42 ) ;
#87 =( NAMED_UNIT ( * ) PLANE_ANGLE_UNIT ( ) SI_UNIT ( $, .RADIAN. ) );
#88 =( NAMED_UNIT ( * ) SI_UNIT ( $, .STERADIAN. ) SOLID_ANGLE_UNIT ( ) );
#89 = AXIS2_PLACEMENT_3D ( 'NONE', #133, #246, #245 ) ;
#90 = FACE_OUTER_BOUND ( 'NONE', #45, .T. ) ;
#91 = AXIS2_PLACEMENT_3D ( 'NONE', #222, #79, #308 ) ;
#92 = CIRCLE ( 'NONE', #202, 1.095854811567261900 ) ;
#93 = EDGE_CURVE ( 'NONE', #135, #262, #139, .T. ) ;
#94 = FACE_OUTER_BOUND ( 'NONE', #231, .T. ) ;
#95 = CARTESIAN_POINT ( 'NONE',  ( 0.0000000000000000000, 0.0000000000000000000, 0.0000000000000000000 ) ) ;
#96 = AXIS2_PLACEMENT_3D ( 'NONE', #28, #60, #255 ) ;
#97 = CARTESIAN_POINT ( 'NONE',  ( 0.0000000000000000000, 13.00000000000000200, 0.0000000000000000000 ) ) ;
#98 = DIRECTION ( 'NONE',  ( -0.0000000000000000000, -1.000000000000000000, -0.0000000000000000000 ) ) ;
#99 = CARTESIAN_POINT ( 'NONE',  ( 1.836970198721029900E-016, 0.0000000000000000000, 1.500000000000000000 ) ) ;
#100 = LINE ( 'NONE', #299, #210 ) ;
#101 = ORIENTED_EDGE ( 'NONE', *, *, #317, .T. ) ;
#102 = CARTESIAN_POINT ( 'NONE',  ( 0.0000000000000000000, 13.00000000000000200, 0.0000000000000000000 ) ) ;
#103 = VECTOR ( 'NONE', #83, 1000.000000000000000 ) ;
#104 = MECHANICAL_DESIGN_GEOMETRIC_PRESENTATION_REPRESENTATION (  '', ( #117 ), #143 ) ;
#105 = CARTESIAN_POINT ( 'NONE',  ( 0.0000000000000000000, 0.5000000000000030000, 0.0000000000000000000 ) ) ;
#106 = AXIS2_PLACEMENT_3D ( 'NONE', #165, #372, #194 ) ;
#107 = EDGE_LOOP ( 'NONE', ( #181, #350, #63, #310 ) ) ;
#108 = ORIENTED_EDGE ( 'NONE', *, *, #110, .F. ) ;
#109 = SURFACE_SIDE_STYLE ('',( #155 ) ) ;
#110 = EDGE_CURVE ( 'NONE', #270, #234, #300, .T. ) ;
#111 = CARTESIAN_POINT ( 'NONE',  ( 1.836970198721029900E-016, 7.000000000000000000, 1.500000000000000000 ) ) ;
#112 = AXIS2_PLACEMENT_3D ( 'NONE', #39, #37, #348 ) ;
#113 = EDGE_LOOP ( 'NONE', ( #4, #101, #203, #189 ) ) ;
#114 = CARTESIAN_POINT ( 'NONE',  ( 0.0000000000000000000, 0.5000000000000030000, 0.0000000000000000000 ) ) ;
#115 = FACE_OUTER_BOUND ( 'NONE', #267, .T. ) ;
#116 = ORIENTED_EDGE ( 'NONE', *, *, #134, .F. ) ;
#117 = STYLED_ITEM ( 'NONE', ( #232 ), #201 ) ;
#118 = ADVANCED_BREP_SHAPE_REPRESENTATION ( '38885~0', ( #201, #3 ), #54 ) ;
#119 = DIRECTION ( 'NONE',  ( -0.0000000000000000000, -1.000000000000000000, -0.0000000000000000000 ) ) ;
#120 = FACE_OUTER_BOUND ( 'NONE', #107, .T. ) ;
#121 = FILL_AREA_STYLE ('',( #1 ) ) ;
#122 = DIRECTION ( 'NONE',  ( 0.0000000000000000000, 0.0000000000000000000, -1.000000000000000000 ) ) ;
#123 = AXIS2_PLACEMENT_3D ( 'NONE', #283, #360, #47 ) ;
#124 = LINE ( 'NONE', #53, #103 ) ;
#125 = AXIS2_PLACEMENT_3D ( 'NONE', #208, #64, #168 ) ;
#126 = ORIENTED_EDGE ( 'NONE', *, *, #215, .T. ) ;
#127 = ORIENTED_EDGE ( 'NONE', *, *, #215, .F. ) ;
#128 = CARTESIAN_POINT ( 'NONE',  ( 1.836970198721029900E-016, 13.00000000000000200, 1.500000000000000000 ) ) ;
#129 = CARTESIAN_POINT ( 'NONE',  ( 0.0000000000000000000, 0.0000000000000000000, 0.0000000000000000000 ) ) ;
#130 = VERTEX_POINT ( 'NONE', #274 ) ;
#131 = ORIENTED_EDGE ( 'NONE', *, *, #80, .T. ) ;
#132 = CYLINDRICAL_SURFACE ( 'NONE', #136, 1.000000000000000000 ) ;
#133 = CARTESIAN_POINT ( 'NONE',  ( 0.9226497308103729400, 13.99999999999999800, 0.0000000000000000000 ) ) ;
#134 = EDGE_CURVE ( 'NONE', #320, #11, #40, .T. ) ;
#135 = VERTEX_POINT ( 'NONE', #361 ) ;
#136 = AXIS2_PLACEMENT_3D ( 'NONE', #218, #17, #253 ) ;
#137 = ADVANCED_FACE ( 'NONE', ( #70 ), #319, .T. ) ;
#138 = CARTESIAN_POINT ( 'NONE',  ( 0.0000000000000000000, 0.0000000000000000000, 0.4999999999999987200 ) ) ;
#139 = CIRCLE ( 'NONE', #123, 1.500000000000000000 ) ;
#140 = VERTEX_POINT ( 'NONE', #159 ) ;
#141 = ADVANCED_FACE ( 'NONE', ( #158 ), #132, .T. ) ;
#142 = CARTESIAN_POINT ( 'NONE',  ( 0.0000000000000000000, 13.00000000000000200, 0.0000000000000000000 ) ) ;
#143 =( GEOMETRIC_REPRESENTATION_CONTEXT ( 3 ) GLOBAL_UNCERTAINTY_ASSIGNED_CONTEXT ( ( #280 ) ) GLOBAL_UNIT_ASSIGNED_CONTEXT ( ( #321, #166, #88 ) ) REPRESENTATION_CONTEXT ( 'NONE', 'WORKASPACE' ) );
#144 = AXIS2_PLACEMENT_3D ( 'NONE', #306, #164, #221 ) ;
#145 = UNCERTAINTY_MEASURE_WITH_UNIT (LENGTH_MEASURE( 1.000000000000000100E-005 ), #25, 'distance_accuracy_value', 'NONE');
#146 = ORIENTED_EDGE ( 'NONE', *, *, #110, .T. ) ;
#147 = CARTESIAN_POINT ( 'NONE',  ( 0.0000000000000000000, 13.00000000000000200, -1.500000000000000000 ) ) ;
#148 = DIRECTION ( 'NONE',  ( 0.0000000000000000000, -1.000000000000000000, -0.0000000000000000000 ) ) ;
#149 = CONICAL_SURFACE ( 'NONE', #67, 1.500000000000000000, 0.5235987755983002600 ) ;
#150 = EDGE_CURVE ( 'NONE', #320, #270, #62, .T. ) ;
#151 = CIRCLE ( 'NONE', #29, 1.000000000000000000 ) ;
#152 = ORIENTED_EDGE ( 'NONE', *, *, #44, .F. ) ;
#153 = CARTESIAN_POINT ( 'NONE',  ( 0.0000000000000000000, 0.0000000000000000000, 0.4999999999999987200 ) ) ;
#154 = CARTESIAN_POINT ( 'NONE',  ( 9.184850993605141000E-017, 0.0000000000000000000, -0.4999999999999987200 ) ) ;
#155 = SURFACE_STYLE_FILL_AREA ( #363 ) ;
#156 = CARTESIAN_POINT ( 'NONE',  ( 1.836970198721029900E-016, 13.00000000000000200, 1.500000000000000000 ) ) ;
#157 = AXIS2_PLACEMENT_3D ( 'NONE', #26, #227, #256 ) ;
#158 = FACE_OUTER_BOUND ( 'NONE', #347, .T. ) ;
#159 = CARTESIAN_POINT ( 'NONE',  ( 0.0000000000000000000, 13.69999999999999900, -1.095854811567261900 ) ) ;
#160 = ADVANCED_FACE ( 'NONE', ( #173, #223 ), #82, .T. ) ;
#161 = ORIENTED_EDGE ( 'NONE', *, *, #204, .F. ) ;
#162 = EDGE_CURVE ( 'NONE', #324, #214, #20, .T. ) ;
#163 = DIRECTION ( 'NONE',  ( -0.0000000000000000000, -1.000000000000000000, -0.0000000000000000000 ) ) ;
#164 = DIRECTION ( 'NONE',  ( -0.0000000000000000000, -1.000000000000000000, -0.0000000000000000000 ) ) ;
#165 = CARTESIAN_POINT ( 'NONE',  ( 0.0000000000000000000, 7.000000000000000000, 0.0000000000000000000 ) ) ;
#166 =( NAMED_UNIT ( * ) PLANE_ANGLE_UNIT ( ) SI_UNIT ( $, .RADIAN. ) );
#167 = EDGE_LOOP ( 'NONE', ( #146, #131 ) ) ;
#168 = DIRECTION ( 'NONE',  ( 1.224646799147353000E-016, 0.0000000000000000000, -1.000000000000000000 ) ) ;
#169 = ADVANCED_FACE ( 'NONE', ( #10 ), #15, .T. ) ;
#170 = EDGE_CURVE ( 'NONE', #8, #359, #151, .T. ) ;
#171 = LINE ( 'NONE', #99, #69 ) ;
#172 = PRODUCT ( '38885~0', '38885~0', '', ( #192 ) ) ;
#173 = FACE_OUTER_BOUND ( 'NONE', #224, .T. ) ;
#174 = EDGE_LOOP ( 'NONE', ( #263, #56 ) ) ;
#175 = AXIS2_PLACEMENT_3D ( 'NONE', #268, #98, #122 ) ;
#176 = DIRECTION ( 'NONE',  ( 0.0000000000000000000, 0.0000000000000000000, -1.000000000000000000 ) ) ;
#177 = ORIENTED_EDGE ( 'NONE', *, *, #204, .T. ) ;
#178 = AXIS2_PLACEMENT_3D ( 'NONE', #114, #235, #57 ) ;
#179 = AXIS2_PLACEMENT_3D ( 'NONE', #105, #367, #185 ) ;
#180 = LINE ( 'NONE', #138, #9 ) ;
#181 = ORIENTED_EDGE ( 'NONE', *, *, #349, .F. ) ;
#182 = EDGE_LOOP ( 'NONE', ( #127, #327, #23, #301 ) ) ;
#183 = ORIENTED_EDGE ( 'NONE', *, *, #257, .F. ) ;
#184 = CARTESIAN_POINT ( 'NONE',  ( 0.0000000000000000000, 0.0000000000000000000, 0.0000000000000000000 ) ) ;
#185 = DIRECTION ( 'NONE',  ( 0.0000000000000000000, 0.0000000000000000000, -1.000000000000000000 ) ) ;
#186 = CARTESIAN_POINT ( 'NONE',  ( 0.0000000000000000000, 0.0000000000000000000, 0.0000000000000000000 ) ) ;
#187 = EDGE_CURVE ( 'NONE', #140, #130, #366, .T. ) ;
#188 = CIRCLE ( 'NONE', #318, 0.5762395692965994700 ) ;
#189 = ORIENTED_EDGE ( 'NONE', *, *, #307, .F. ) ;
#190 = CARTESIAN_POINT ( 'NONE',  ( 0.0000000000000000000, 0.5000000000000030000, -1.000000000000000000 ) ) ;
#191 = DIRECTION ( 'NONE',  ( 0.0000000000000000000, 0.0000000000000000000, 1.000000000000000000 ) ) ;
#192 = PRODUCT_CONTEXT ( 'NONE', #365, 'mechanical' ) ;
#193 = CARTESIAN_POINT ( 'NONE',  ( 0.0000000000000000000, 6.999999999999999100, -1.000000000000000000 ) ) ;
#194 = DIRECTION ( 'NONE',  ( 0.0000000000000000000, 0.0000000000000000000, -1.000000000000000000 ) ) ;
#195 = ORIENTED_EDGE ( 'NONE', *, *, #150, .F. ) ;
#196 = DIRECTION ( 'NONE',  ( 0.0000000000000000000, 0.7071067811865487900, 0.7071067811865463500 ) ) ;
#197 = CARTESIAN_POINT ( 'NONE',  ( 1.224646799147353200E-016, 0.5000000000000030000, 1.000000000000000000 ) ) ;
#198 = ADVANCED_FACE ( 'NONE', ( #94 ), #149, .T. ) ;
#199 = EDGE_CURVE ( 'NONE', #359, #8, #309, .T. ) ;
#200 = ORIENTED_EDGE ( 'NONE', *, *, #237, .T. ) ;
#201 = MANIFOLD_SOLID_BREP ( 'Verrundung1', #33 ) ;
#202 = AXIS2_PLACEMENT_3D ( 'NONE', #66, #68, #6 ) ;
#203 = ORIENTED_EDGE ( 'NONE', *, *, #216, .F. ) ;
#204 = EDGE_CURVE ( 'NONE', #11, #130, #325, .T. ) ;
#205 = DIRECTION ( 'NONE',  ( 0.0000000000000000000, 0.0000000000000000000, -1.000000000000000000 ) ) ;
#206 = ORIENTED_EDGE ( 'NONE', *, *, #71, .F. ) ;
#207 = AXIS2_PLACEMENT_3D ( 'NONE', #351, #356, #352 ) ;
#208 = CARTESIAN_POINT ( 'NONE',  ( 7.056899440811298100E-017, 13.39999999999999900, -0.5762395692965994700 ) ) ;
#209 = CARTESIAN_POINT ( 'NONE',  ( 0.0000000000000000000, 13.99999999999999800, 0.5762395692965994700 ) ) ;
#210 = VECTOR ( 'NONE', #273, 1000.000000000000000 ) ;
#211 = AXIS2_PLACEMENT_3D ( 'NONE', #102, #12, #242 ) ;
#212 = UNCERTAINTY_MEASURE_WITH_UNIT (LENGTH_MEASURE( 1.000000000000000100E-005 ), #27, 'distance_accuracy_value', 'NONE');
#213 = DIRECTION ( 'NONE',  ( -0.0000000000000000000, -1.000000000000000000, -0.0000000000000000000 ) ) ;
#214 = VERTEX_POINT ( 'NONE', #197 ) ;
#215 = EDGE_CURVE ( 'NONE', #140, #234, #48, .T. ) ;
#216 = EDGE_CURVE ( 'NONE', #214, #324, #297, .T. ) ;
#217 = ORIENTED_EDGE ( 'NONE', *, *, #237, .F. ) ;
#218 = CARTESIAN_POINT ( 'NONE',  ( 0.0000000000000000000, 0.0000000000000000000, 0.0000000000000000000 ) ) ;
#219 = AXIS2_PLACEMENT_3D ( 'NONE', #186, #244, #191 ) ;
#220 = DIRECTION ( 'NONE',  ( 1.000000000000000000, 0.0000000000000000000, 0.0000000000000000000 ) ) ;
#221 = DIRECTION ( 'NONE',  ( 0.0000000000000000000, 0.0000000000000000000, -1.000000000000000000 ) ) ;
#222 = CARTESIAN_POINT ( 'NONE',  ( 1.000000000000000000, 6.999999999999999100, 0.0000000000000000000 ) ) ;
#223 = FACE_BOUND ( 'NONE', #340, .T. ) ;
#224 = EDGE_LOOP ( 'NONE', ( #286, #200 ) ) ;
#225 = PRODUCT_DEFINITION_CONTEXT ( 'detailed design', #287, 'design' ) ;
#226 =( NAMED_UNIT ( * ) SI_UNIT ( $, .STERADIAN. ) SOLID_ANGLE_UNIT ( ) );
#227 = DIRECTION ( 'NONE',  ( -0.0000000000000000000, -1.000000000000000000, -0.0000000000000000000 ) ) ;
#228 = PRODUCT_DEFINITION_FORMATION_WITH_SPECIFIED_SOURCE ( 'ANY', '', #172, .NOT_KNOWN. ) ;
#229 = ADVANCED_FACE ( 'NONE', ( #13 ), #323, .T. ) ;
#230 = PRESENTATION_STYLE_ASSIGNMENT (( #339 ) ) ;
#231 = EDGE_LOOP ( 'NONE', ( #116, #291, #84, #161 ) ) ;
#232 = PRESENTATION_STYLE_ASSIGNMENT (( #258 ) ) ;
#233 =( GEOMETRIC_REPRESENTATION_CONTEXT ( 3 ) GLOBAL_UNCERTAINTY_ASSIGNED_CONTEXT ( ( #145 ) ) GLOBAL_UNIT_ASSIGNED_CONTEXT ( ( #25, #87, #334 ) ) REPRESENTATION_CONTEXT ( 'NONE', 'WORKASPACE' ) );
#234 = VERTEX_POINT ( 'NONE', #35 ) ;
#235 = DIRECTION ( 'NONE',  ( 0.0000000000000000000, 1.000000000000000000, 0.0000000000000000000 ) ) ;
#236 = CARTESIAN_POINT ( 'NONE',  ( 0.0000000000000000000, 13.39999999999999900, 0.0000000000000000000 ) ) ;
#237 = EDGE_CURVE ( 'NONE', #262, #135, #247, .T. ) ;
#238 = AXIS2_PLACEMENT_3D ( 'NONE', #364, #357, #21 ) ;
#239 = CONICAL_SURFACE ( 'NONE', #211, 1.500000000000000000, 0.5235987755983002600 ) ;
#240 = ORIENTED_EDGE ( 'NONE', *, *, #134, .T. ) ;
#241 = DIRECTION ( 'NONE',  ( -0.0000000000000000000, -1.000000000000000000, -0.0000000000000000000 ) ) ;
#242 = DIRECTION ( 'NONE',  ( 0.0000000000000000000, 0.0000000000000000000, -1.000000000000000000 ) ) ;
#243 = AXIS2_PLACEMENT_3D ( 'NONE', #129, #331, #250 ) ;
#244 = DIRECTION ( 'NONE',  ( 0.0000000000000000000, 1.000000000000000000, 0.0000000000000000000 ) ) ;
#245 = DIRECTION ( 'NONE',  ( 0.0000000000000000000, -0.0000000000000000000, 1.000000000000000000 ) ) ;
#246 = DIRECTION ( 'NONE',  ( 0.0000000000000000000, 1.000000000000000000, 0.0000000000000000000 ) ) ;
#247 = CIRCLE ( 'NONE', #106, 1.500000000000000000 ) ;
#248 = APPLICATION_PROTOCOL_DEFINITION ( 'draft international standard', 'automotive_design', 1998, #287 ) ;
#249 = CIRCLE ( 'NONE', #144, 1.500000000000000000 ) ;
#250 = DIRECTION ( 'NONE',  ( 0.0000000000000000000, 0.0000000000000000000, -1.000000000000000000 ) ) ;
#251 = ORIENTED_EDGE ( 'NONE', *, *, #71, .T. ) ;
#252 = DIRECTION ( 'NONE',  ( 0.0000000000000000000, 0.0000000000000000000, 1.000000000000000000 ) ) ;
#253 = DIRECTION ( 'NONE',  ( 0.0000000000000000000, 0.0000000000000000000, -1.000000000000000000 ) ) ;
#254 = CARTESIAN_POINT ( 'NONE',  ( 0.0000000000000000000, 0.0000000000000000000, 0.0000000000000000000 ) ) ;
#255 = DIRECTION ( 'NONE',  ( 0.0000000000000000000, 0.0000000000000000000, 1.000000000000000000 ) ) ;
#256 = DIRECTION ( 'NONE',  ( 0.0000000000000000000, 0.0000000000000000000, -1.000000000000000000 ) ) ;
#257 = EDGE_CURVE ( 'NONE', #50, #49, #303, .T. ) ;
#258 = SURFACE_STYLE_USAGE ( .BOTH. , #265 ) ;
#259 = ADVANCED_FACE ( 'NONE', ( #18 ), #86, .T. ) ;
#260 = CYLINDRICAL_SURFACE ( 'NONE', #175, 1.000000000000000000 ) ;
#261 = PRODUCT_DEFINITION ( 'UNKNOWN', '', #228, #225 ) ;
#262 = VERTEX_POINT ( 'NONE', #111 ) ;
#263 = ORIENTED_EDGE ( 'NONE', *, *, #257, .T. ) ;
#264 = ORIENTED_EDGE ( 'NONE', *, *, #24, .F. ) ;
#265 = SURFACE_SIDE_STYLE ('',( #2 ) ) ;
#266 = AXIS2_PLACEMENT_3D ( 'NONE', #314, #119, #5 ) ;
#267 = EDGE_LOOP ( 'NONE', ( #251, #38, #73, #264 ) ) ;
#268 = CARTESIAN_POINT ( 'NONE',  ( 0.0000000000000000000, 0.0000000000000000000, 0.0000000000000000000 ) ) ;
#269 = CYLINDRICAL_SURFACE ( 'NONE', #243, 1.500000000000000000 ) ;
#270 = VERTEX_POINT ( 'NONE', #209 ) ;
#271 = CARTESIAN_POINT ( 'NONE',  ( 1.224646799147353200E-016, 6.999999999999999100, 1.000000000000000000 ) ) ;
#272 = EDGE_CURVE ( 'NONE', #320, #140, #92, .T. ) ;
#273 = DIRECTION ( 'NONE',  ( -0.0000000000000000000, -1.000000000000000000, -0.0000000000000000000 ) ) ;
#274 = CARTESIAN_POINT ( 'NONE',  ( 0.0000000000000000000, 13.00000000000000200, -1.500000000000000000 ) ) ;
#275 = EDGE_CURVE ( 'NONE', #11, #262, #171, .T. ) ;
#276 = ORIENTED_EDGE ( 'NONE', *, *, #216, .T. ) ;
#277 = ORIENTED_EDGE ( 'NONE', *, *, #199, .T. ) ;
#278 = DIRECTION ( 'NONE',  ( 6.123233995736782100E-017, -0.8660254037844380400, 0.5000000000000012200 ) ) ;
#279 = PRESENTATION_LAYER_ASSIGNMENT (  '', '', ( #312 ) ) ;
#280 = UNCERTAINTY_MEASURE_WITH_UNIT (LENGTH_MEASURE( 1.000000000000000100E-005 ), #321, 'distance_accuracy_value', 'NONE');
#281 = DIRECTION ( 'NONE',  ( 0.0000000000000000000, 1.000000000000000000, 0.0000000000000000000 ) ) ;
#282 = CARTESIAN_POINT ( 'NONE',  ( 1.589502643018551400E-016, 13.69999999999999900, 1.095854811567261900 ) ) ;
#283 = CARTESIAN_POINT ( 'NONE',  ( 0.0000000000000000000, 7.000000000000000000, 0.0000000000000000000 ) ) ;
#284 = EDGE_CURVE ( 'NONE', #49, #50, #30, .T. ) ;
#285 = DIRECTION ( 'NONE',  ( 0.0000000000000000000, 0.0000000000000000000, 1.000000000000000000 ) ) ;
#286 = ORIENTED_EDGE ( 'NONE', *, *, #93, .T. ) ;
#287 = APPLICATION_CONTEXT ( 'automotive_design' ) ;
#288 = DIRECTION ( 'NONE',  ( 0.0000000000000000000, 0.0000000000000000000, -1.000000000000000000 ) ) ;
#289 = APPLICATION_PROTOCOL_DEFINITION ( 'draft international standard', 'automotive_design', 1998, #365 ) ;
#290 = ADVANCED_FACE ( 'NONE', ( #120 ), #260, .T. ) ;
#291 = ORIENTED_EDGE ( 'NONE', *, *, #272, .T. ) ;
#292 = CONICAL_SURFACE ( 'NONE', #207, 0.4999999999999987200, 0.7853981633974466100 ) ;
#293 = DIRECTION ( 'NONE',  ( 0.0000000000000000000, -0.8660254037844380400, -0.5000000000000012200 ) ) ;
#294 = ORIENTED_EDGE ( 'NONE', *, *, #24, .T. ) ;
#295 = DIRECTION ( 'NONE',  ( -0.0000000000000000000, -1.000000000000000000, -0.0000000000000000000 ) ) ;
#296 = DIRECTION ( 'NONE',  ( -0.0000000000000000000, -1.000000000000000000, -0.0000000000000000000 ) ) ;
#297 = CIRCLE ( 'NONE', #178, 1.000000000000000000 ) ;
#298 = MECHANICAL_DESIGN_GEOMETRIC_PRESENTATION_REPRESENTATION (  '', ( #312 ), #233 ) ;
#299 = CARTESIAN_POINT ( 'NONE',  ( 0.0000000000000000000, 0.0000000000000000000, -1.500000000000000000 ) ) ;
#300 = CIRCLE ( 'NONE', #328, 0.5762395692965994700 ) ;
#301 = ORIENTED_EDGE ( 'NONE', *, *, #80, .F. ) ;
#302 = DIRECTION ( 'NONE',  ( 0.0000000000000000000, 0.0000000000000000000, 1.000000000000000000 ) ) ;
#303 = CIRCLE ( 'NONE', #157, 0.4999999999999987200 ) ;
#304 = ORIENTED_EDGE ( 'NONE', *, *, #362, .F. ) ;
#305 = DIRECTION ( 'NONE',  ( 0.0000000000000000000, 0.0000000000000000000, 1.000000000000000000 ) ) ;
#306 = CARTESIAN_POINT ( 'NONE',  ( 0.0000000000000000000, 13.00000000000000200, 0.0000000000000000000 ) ) ;
#307 = EDGE_CURVE ( 'NONE', #50, #214, #180, .T. ) ;
#308 = DIRECTION ( 'NONE',  ( 0.0000000000000000000, 0.0000000000000000000, -1.000000000000000000 ) ) ;
#309 = CIRCLE ( 'NONE', #266, 1.000000000000000000 ) ;
#310 = ORIENTED_EDGE ( 'NONE', *, *, #162, .T. ) ;
#311 = CARTESIAN_POINT ( 'NONE',  ( 0.0000000000000000000, 0.0000000000000000000, -1.000000000000000000 ) ) ;
#312 = STYLED_ITEM ( 'NONE', ( #230 ), #118 ) ;
#313 = ORIENTED_EDGE ( 'NONE', *, *, #349, .T. ) ;
#314 = CARTESIAN_POINT ( 'NONE',  ( 0.0000000000000000000, 6.999999999999999100, 0.0000000000000000000 ) ) ;
#315 = DIRECTION ( 'NONE',  ( -0.0000000000000000000, -1.000000000000000000, -0.0000000000000000000 ) ) ;
#316 = ADVANCED_FACE ( 'NONE', ( #90 ), #358, .T. ) ;
#317 = EDGE_CURVE ( 'NONE', #49, #324, #124, .T. ) ;
#318 = AXIS2_PLACEMENT_3D ( 'NONE', #81, #336, #332 ) ;
#319 = CONICAL_SURFACE ( 'NONE', #219, 0.4999999999999987200, 0.7853981633974466100 ) ;
#320 = VERTEX_POINT ( 'NONE', #282 ) ;
#321 =( LENGTH_UNIT ( ) NAMED_UNIT ( * ) SI_UNIT ( .MILLI., .METRE. ) );
#322 = DIRECTION ( 'NONE',  ( -0.0000000000000000000, -1.000000000000000000, -0.0000000000000000000 ) ) ;
#323 = TOROIDAL_SURFACE ( 'NONE', #96, 0.5762395692965994700, 0.5999999999999999800 ) ;
#324 = VERTEX_POINT ( 'NONE', #190 ) ;
#325 = CIRCLE ( 'NONE', #75, 1.500000000000000000 ) ;
#326 = FACE_OUTER_BOUND ( 'NONE', #113, .T. ) ;
#327 = ORIENTED_EDGE ( 'NONE', *, *, #272, .F. ) ;
#328 = AXIS2_PLACEMENT_3D ( 'NONE', #76, #281, #305 ) ;
#329 = SHAPE_DEFINITION_REPRESENTATION ( #330, #118 ) ;
#330 = PRODUCT_DEFINITION_SHAPE ( 'NONE', 'NONE',  #261 ) ;
#331 = DIRECTION ( 'NONE',  ( -0.0000000000000000000, -1.000000000000000000, -0.0000000000000000000 ) ) ;
#332 = DIRECTION ( 'NONE',  ( 0.0000000000000000000, 0.0000000000000000000, 1.000000000000000000 ) ) ;
#333 = LINE ( 'NONE', #16, #343 ) ;
#334 =( NAMED_UNIT ( * ) SI_UNIT ( $, .STERADIAN. ) SOLID_ANGLE_UNIT ( ) );
#335 = VECTOR ( 'NONE', #278, 999.9999999999998900 ) ;
#336 = DIRECTION ( 'NONE',  ( 0.0000000000000000000, 1.000000000000000000, 0.0000000000000000000 ) ) ;
#337 = PRESENTATION_LAYER_ASSIGNMENT (  '', '', ( #117 ) ) ;
#338 = ORIENTED_EDGE ( 'NONE', *, *, #162, .F. ) ;
#339 = SURFACE_STYLE_USAGE ( .BOTH. , #109 ) ;
#340 = EDGE_LOOP ( 'NONE', ( #41, #369 ) ) ;
#341 = DIRECTION ( 'NONE',  ( -0.0000000000000000000, -1.000000000000000000, -0.0000000000000000000 ) ) ;
#342 = ORIENTED_EDGE ( 'NONE', *, *, #275, .F. ) ;
#343 = VECTOR ( 'NONE', #341, 1000.000000000000000 ) ;
#344 = CYLINDRICAL_SURFACE ( 'NONE', #46, 1.500000000000000000 ) ;
#345 = ORIENTED_EDGE ( 'NONE', *, *, #317, .F. ) ;
#346 = DIRECTION ( 'NONE',  ( 0.0000000000000000000, 0.0000000000000000000, -1.000000000000000000 ) ) ;
#347 = EDGE_LOOP ( 'NONE', ( #277, #313, #276, #304 ) ) ;
#348 = DIRECTION ( 'NONE',  ( 0.0000000000000000000, 0.0000000000000000000, -1.000000000000000000 ) ) ;
#349 = EDGE_CURVE ( 'NONE', #8, #214, #333, .T. ) ;
#350 = ORIENTED_EDGE ( 'NONE', *, *, #170, .T. ) ;
#351 = CARTESIAN_POINT ( 'NONE',  ( 0.0000000000000000000, 0.0000000000000000000, 0.0000000000000000000 ) ) ;
#352 = DIRECTION ( 'NONE',  ( 0.0000000000000000000, 0.0000000000000000000, 1.000000000000000000 ) ) ;
#353 = FACE_OUTER_BOUND ( 'NONE', #32, .T. ) ;
#354 = EDGE_LOOP ( 'NONE', ( #345, #183, #370, #338 ) ) ;
#355 = AXIS2_PLACEMENT_3D ( 'NONE', #43, #241, #302 ) ;
#356 = DIRECTION ( 'NONE',  ( 0.0000000000000000000, 1.000000000000000000, 0.0000000000000000000 ) ) ;
#357 = DIRECTION ( 'NONE',  ( -1.000000000000000000, 0.0000000000000000000, 0.0000000000000000000 ) ) ;
#358 = TOROIDAL_SURFACE ( 'NONE', #368, 0.5762395692965994700, 0.5999999999999999800 ) ;
#359 = VERTEX_POINT ( 'NONE', #193 ) ;
#360 = DIRECTION ( 'NONE',  ( -0.0000000000000000000, -1.000000000000000000, -0.0000000000000000000 ) ) ;
#361 = CARTESIAN_POINT ( 'NONE',  ( 0.0000000000000000000, 7.000000000000000000, -1.500000000000000000 ) ) ;
#362 = EDGE_CURVE ( 'NONE', #359, #324, #7, .T. ) ;
#363 = FILL_AREA_STYLE ('',( #51 ) ) ;
#364 = CARTESIAN_POINT ( 'NONE',  ( 0.0000000000000000000, 13.39999999999999900, 0.5762395692965994700 ) ) ;
#365 = APPLICATION_CONTEXT ( 'automotive_design' ) ;
#366 = LINE ( 'NONE', #147, #78 ) ;
#367 = DIRECTION ( 'NONE',  ( 0.0000000000000000000, 1.000000000000000000, 0.0000000000000000000 ) ) ;
#368 = AXIS2_PLACEMENT_3D ( 'NONE', #236, #371, #252 ) ;
#369 = ORIENTED_EDGE ( 'NONE', *, *, #170, .F. ) ;
#370 = ORIENTED_EDGE ( 'NONE', *, *, #307, .T. ) ;
#371 = DIRECTION ( 'NONE',  ( 0.0000000000000000000, 1.000000000000000000, 0.0000000000000000000 ) ) ;
#372 = DIRECTION ( 'NONE',  ( -0.0000000000000000000, -1.000000000000000000, -0.0000000000000000000 ) ) ;
ENDSEC;
END-ISO-10303-21;
