ISO-10303-21;
HEADER;
FILE_DESCRIPTION (( 'STEP AP214' ),
    '1' );
FILE_NAME ('38884~0.STEP',
    '2017-07-04T08:59:37',
    ( '' ),
    ( '' ),
    'SwSTEP 2.0',
    'SolidWorks 2016',
    '' );
FILE_SCHEMA (( 'AUTOMOTIVE_DESIGN' ));
ENDSEC;

DATA;
#1 =( GEOMETRIC_REPRESENTATION_CONTEXT ( 3 ) GLOBAL_UNCERTAINTY_ASSIGNED_CONTEXT ( ( #67 ) ) GLOBAL_UNIT_ASSIGNED_CONTEXT ( ( #101, #321, #159 ) ) REPRESENTATION_CONTEXT ( 'NONE', 'WORKASPACE' ) );
#2 = PRESENTATION_STYLE_ASSIGNMENT (( #259 ) ) ;
#3 = FACE_OUTER_BOUND ( 'NONE', #207, .T. ) ;
#4 = DIRECTION ( 'NONE',  ( 0.0000000000000000000, 0.0000000000000000000, -1.000000000000000000 ) ) ;
#5 = CARTESIAN_POINT ( 'NONE',  ( 0.8726497308103727800, 13.99999999999999800, 0.0000000000000000000 ) ) ;
#6 = CIRCLE ( 'NONE', #91, 1.045854811567262100 ) ;
#7 = CARTESIAN_POINT ( 'NONE',  ( 0.0000000000000000000, 0.0000000000000000000, 0.0000000000000000000 ) ) ;
#8 = AXIS2_PLACEMENT_3D ( 'NONE', #243, #347, #351 ) ;
#9 = DIRECTION ( 'NONE',  ( 0.0000000000000000000, -0.0000000000000000000, 1.000000000000000000 ) ) ;
#10 = CARTESIAN_POINT ( 'NONE',  ( 0.0000000000000000000, 6.999999999999999100, 0.0000000000000000000 ) ) ;
#11 = CIRCLE ( 'NONE', #74, 0.6000000000000000900 ) ;
#12 = CARTESIAN_POINT ( 'NONE',  ( 6.123233995736727800E-017, 0.0000000000000000000, -0.4999999999999970000 ) ) ;
#13 = AXIS2_PLACEMENT_3D ( 'NONE', #338, #284, #203 ) ;
#14 = CIRCLE ( 'NONE', #134, 0.6000000000000000900 ) ;
#15 = ORIENTED_EDGE ( 'NONE', *, *, #78, .F. ) ;
#16 = ORIENTED_EDGE ( 'NONE', *, *, #163, .T. ) ;
#17 = CARTESIAN_POINT ( 'NONE',  ( 0.0000000000000000000, 0.0000000000000000000, 0.4999999999999970000 ) ) ;
#18 =( NAMED_UNIT ( * ) SI_UNIT ( $, .STERADIAN. ) SOLID_ANGLE_UNIT ( ) );
#19 = AXIS2_PLACEMENT_3D ( 'NONE', #7, #205, #158 ) ;
#20 = DIRECTION ( 'NONE',  ( 0.0000000000000000000, 0.0000000000000000000, 1.000000000000000000 ) ) ;
#21 = TOROIDAL_SURFACE ( 'NONE', #57, 0.5262395692965992100, 0.5999999999999999800 ) ;
#22 = ORIENTED_EDGE ( 'NONE', *, *, #122, .F. ) ;
#23 = EDGE_LOOP ( 'NONE', ( #345, #46, #297, #115 ) ) ;
#24 = DIRECTION ( 'NONE',  ( -1.000000000000000000, 0.0000000000000000000, 0.0000000000000000000 ) ) ;
#25 = AXIS2_PLACEMENT_3D ( 'NONE', #165, #187, #75 ) ;
#26 = CARTESIAN_POINT ( 'NONE',  ( 1.528270303061183900E-016, 13.69999999999999900, 1.045854811567262100 ) ) ;
#27 = EDGE_CURVE ( 'NONE', #41, #51, #6, .T. ) ;
#28 = ORIENTED_EDGE ( 'NONE', *, *, #174, .T. ) ;
#29 = FACE_OUTER_BOUND ( 'NONE', #89, .T. ) ;
#30 = CARTESIAN_POINT ( 'NONE',  ( 1.224646799147353200E-016, 0.0000000000000000000, 1.000000000000000000 ) ) ;
#31 = AXIS2_PLACEMENT_3D ( 'NONE', #248, #219, #185 ) ;
#32 = VERTEX_POINT ( 'NONE', #254 ) ;
#33 = CARTESIAN_POINT ( 'NONE',  ( 0.0000000000000000000, 0.0000000000000000000, 0.0000000000000000000 ) ) ;
#34 = DIRECTION ( 'NONE',  ( 1.000000000000000000, -0.0000000000000000000, 1.224646799147353200E-016 ) ) ;
#35 = VECTOR ( 'NONE', #244, 1000.000000000000000 ) ;
#36 = EDGE_LOOP ( 'NONE', ( #143, #177, #332, #294 ) ) ;
#37 = DIRECTION ( 'NONE',  ( 0.0000000000000000000, 0.0000000000000000000, -1.000000000000000000 ) ) ;
#38 = AXIS2_PLACEMENT_3D ( 'NONE', #96, #130, #64 ) ;
#39 = CYLINDRICAL_SURFACE ( 'NONE', #95, 1.450000000000000000 ) ;
#40 = CARTESIAN_POINT ( 'NONE',  ( 0.0000000000000000000, 13.00000000000000200, 0.0000000000000000000 ) ) ;
#41 = VERTEX_POINT ( 'NONE', #125 ) ;
#42 = DIRECTION ( 'NONE',  ( 0.0000000000000000000, 1.000000000000000000, 0.0000000000000000000 ) ) ;
#43 = CIRCLE ( 'NONE', #53, 0.4999999999999970000 ) ;
#44 = CARTESIAN_POINT ( 'NONE',  ( 1.224646799147353200E-016, 0.5000000000000047700, 1.000000000000000000 ) ) ;
#45 = AXIS2_PLACEMENT_3D ( 'NONE', #5, #183, #9 ) ;
#46 = ORIENTED_EDGE ( 'NONE', *, *, #328, .F. ) ;
#47 = EDGE_CURVE ( 'NONE', #41, #258, #344, .T. ) ;
#48 = FACE_OUTER_BOUND ( 'NONE', #369, .T. ) ;
#49 = DIRECTION ( 'NONE',  ( 0.0000000000000000000, 0.0000000000000000000, 1.000000000000000000 ) ) ;
#50 = EDGE_CURVE ( 'NONE', #51, #41, #202, .T. ) ;
#51 = VERTEX_POINT ( 'NONE', #26 ) ;
#52 = VERTEX_POINT ( 'NONE', #93 ) ;
#53 = AXIS2_PLACEMENT_3D ( 'NONE', #77, #300, #329 ) ;
#54 = DIRECTION ( 'NONE',  ( 0.0000000000000000000, 0.0000000000000000000, 1.000000000000000000 ) ) ;
#55 = EDGE_CURVE ( 'NONE', #51, #363, #70, .T. ) ;
#56 = VERTEX_POINT ( 'NONE', #156 ) ;
#57 = AXIS2_PLACEMENT_3D ( 'NONE', #192, #107, #269 ) ;
#58 = EDGE_CURVE ( 'NONE', #179, #336, #199, .T. ) ;
#59 = ORIENTED_EDGE ( 'NONE', *, *, #239, .F. ) ;
#60 = CARTESIAN_POINT ( 'NONE',  ( 0.0000000000000000000, 0.5000000000000047700, 0.0000000000000000000 ) ) ;
#61 = DIRECTION ( 'NONE',  ( 0.0000000000000000000, 1.000000000000000000, 0.0000000000000000000 ) ) ;
#62 = CLOSED_SHELL ( 'NONE', ( #220, #301, #330, #193, #357, #82, #190, #195, #172, #79, #111, #360, #113 ) ) ;
#63 = EDGE_LOOP ( 'NONE', ( #313, #16, #87, #15 ) ) ;
#64 = DIRECTION ( 'NONE',  ( 0.0000000000000000000, 0.0000000000000000000, -1.000000000000000000 ) ) ;
#65 = AXIS2_PLACEMENT_3D ( 'NONE', #217, #42, #295 ) ;
#66 = ORIENTED_EDGE ( 'NONE', *, *, #364, .F. ) ;
#67 = UNCERTAINTY_MEASURE_WITH_UNIT (LENGTH_MEASURE( 1.000000000000000100E-005 ), #101, 'distance_accuracy_value', 'NONE');
#68 = CARTESIAN_POINT ( 'NONE',  ( 0.0000000000000000000, 0.0000000000000000000, 0.0000000000000000000 ) ) ;
#69 = CARTESIAN_POINT ( 'NONE',  ( 0.0000000000000000000, 0.0000000000000000000, -1.000000000000000000 ) ) ;
#70 = LINE ( 'NONE', #232, #266 ) ;
#71 = CARTESIAN_POINT ( 'NONE',  ( 0.0000000000000000000, 0.0000000000000000000, 0.0000000000000000000 ) ) ;
#72 = AXIS2_PLACEMENT_3D ( 'NONE', #60, #180, #97 ) ;
#73 = DIRECTION ( 'NONE',  ( -0.0000000000000000000, -1.000000000000000000, -0.0000000000000000000 ) ) ;
#74 = AXIS2_PLACEMENT_3D ( 'NONE', #151, #24, #54 ) ;
#75 = DIRECTION ( 'NONE',  ( 0.0000000000000000000, 0.0000000000000000000, -1.000000000000000000 ) ) ;
#76 = EDGE_LOOP ( 'NONE', ( #271, #146, #309, #119 ) ) ;
#77 = CARTESIAN_POINT ( 'NONE',  ( 0.0000000000000000000, 0.0000000000000000000, 0.0000000000000000000 ) ) ;
#78 = EDGE_CURVE ( 'NONE', #51, #350, #11, .T. ) ;
#79 = ADVANCED_FACE ( 'NONE', ( #231 ), #276, .T. ) ;
#80 = PRESENTATION_STYLE_ASSIGNMENT (( #296 ) ) ;
#81 = DIRECTION ( 'NONE',  ( -0.0000000000000000000, -1.000000000000000000, -0.0000000000000000000 ) ) ;
#82 = ADVANCED_FACE ( 'NONE', ( #162 ), #349, .T. ) ;
#83 = AXIS2_PLACEMENT_3D ( 'NONE', #356, #265, #186 ) ;
#84 = CARTESIAN_POINT ( 'NONE',  ( 0.0000000000000000000, 13.00000000000000200, 0.0000000000000000000 ) ) ;
#85 = MANIFOLD_SOLID_BREP ( 'Verrundung1', #62 ) ;
#86 = CIRCLE ( 'NONE', #198, 1.000000000000000000 ) ;
#87 = ORIENTED_EDGE ( 'NONE', *, *, #275, .F. ) ;
#88 = CIRCLE ( 'NONE', #361, 0.5262395692965992100 ) ;
#89 = EDGE_LOOP ( 'NONE', ( #339, #209, #279, #59 ) ) ;
#90 = CARTESIAN_POINT ( 'NONE',  ( 0.0000000000000000000, 13.69999999999999900, 0.0000000000000000000 ) ) ;
#91 = AXIS2_PLACEMENT_3D ( 'NONE', #123, #340, #312 ) ;
#92 = LINE ( 'NONE', #69, #132 ) ;
#93 = CARTESIAN_POINT ( 'NONE',  ( 9.626301757412341400E-017, 13.99999999999999800, -0.5262395692965992100 ) ) ;
#94 = EDGE_LOOP ( 'NONE', ( #153, #98 ) ) ;
#95 = AXIS2_PLACEMENT_3D ( 'NONE', #71, #108, #292 ) ;
#96 = CARTESIAN_POINT ( 'NONE',  ( 1.000000000000000000, 6.999999999999999100, 0.0000000000000000000 ) ) ;
#97 = DIRECTION ( 'NONE',  ( 0.0000000000000000000, 0.0000000000000000000, -1.000000000000000000 ) ) ;
#98 = ORIENTED_EDGE ( 'NONE', *, *, #122, .T. ) ;
#99 = CARTESIAN_POINT ( 'NONE',  ( 1.224646799147353200E-016, 6.999999999999999100, 1.000000000000000000 ) ) ;
#100 = EDGE_CURVE ( 'NONE', #258, #32, #189, .T. ) ;
#101 =( LENGTH_UNIT ( ) NAMED_UNIT ( * ) SI_UNIT ( .MILLI., .METRE. ) );
#102 = DIRECTION ( 'NONE',  ( 0.0000000000000000000, 1.000000000000000000, 0.0000000000000000000 ) ) ;
#103 = AXIS2_PLACEMENT_3D ( 'NONE', #264, #104, #353 ) ;
#104 = DIRECTION ( 'NONE',  ( -0.0000000000000000000, -1.000000000000000000, -0.0000000000000000000 ) ) ;
#105 = CIRCLE ( 'NONE', #65, 0.5262395692965992100 ) ;
#106 = FACE_BOUND ( 'NONE', #109, .T. ) ;
#107 = DIRECTION ( 'NONE',  ( 0.0000000000000000000, 1.000000000000000000, 0.0000000000000000000 ) ) ;
#108 = DIRECTION ( 'NONE',  ( -0.0000000000000000000, -1.000000000000000000, -0.0000000000000000000 ) ) ;
#109 = EDGE_LOOP ( 'NONE', ( #230, #222 ) ) ;
#110 = ORIENTED_EDGE ( 'NONE', *, *, #163, .F. ) ;
#111 = ADVANCED_FACE ( 'NONE', ( #304 ), #204, .T. ) ;
#112 =( LENGTH_UNIT ( ) NAMED_UNIT ( * ) SI_UNIT ( .MILLI., .METRE. ) );
#113 = ADVANCED_FACE ( 'NONE', ( #201 ), #215, .T. ) ;
#114 = DIRECTION ( 'NONE',  ( 1.000000000000000000, 0.0000000000000000000, 0.0000000000000000000 ) ) ;
#115 = ORIENTED_EDGE ( 'NONE', *, *, #144, .F. ) ;
#116 = FILL_AREA_STYLE ('',( #197 ) ) ;
#117 = AXIS2_PLACEMENT_3D ( 'NONE', #40, #73, #141 ) ;
#118 = ORIENTED_EDGE ( 'NONE', *, *, #100, .T. ) ;
#119 = ORIENTED_EDGE ( 'NONE', *, *, #100, .F. ) ;
#120 =( GEOMETRIC_REPRESENTATION_CONTEXT ( 3 ) GLOBAL_UNCERTAINTY_ASSIGNED_CONTEXT ( ( #372 ) ) GLOBAL_UNIT_ASSIGNED_CONTEXT ( ( #333, #173, #18 ) ) REPRESENTATION_CONTEXT ( 'NONE', 'WORKASPACE' ) );
#121 = DIRECTION ( 'NONE',  ( -0.0000000000000000000, -1.000000000000000000, -0.0000000000000000000 ) ) ;
#122 = EDGE_CURVE ( 'NONE', #52, #350, #88, .T. ) ;
#123 = CARTESIAN_POINT ( 'NONE',  ( 0.0000000000000000000, 13.69999999999999900, 0.0000000000000000000 ) ) ;
#124 = ORIENTED_EDGE ( 'NONE', *, *, #235, .F. ) ;
#125 = CARTESIAN_POINT ( 'NONE',  ( 0.0000000000000000000, 13.69999999999999900, -1.045854811567262100 ) ) ;
#126 = FACE_OUTER_BOUND ( 'NONE', #36, .T. ) ;
#127 = FACE_OUTER_BOUND ( 'NONE', #76, .T. ) ;
#128 = FILL_AREA_STYLE ('',( #261 ) ) ;
#129 = COLOUR_RGB ( '',0.7529411764705882200, 0.7529411764705882200, 0.7529411764705882200 ) ;
#130 = DIRECTION ( 'NONE',  ( 0.0000000000000000000, -1.000000000000000000, -0.0000000000000000000 ) ) ;
#131 = DIRECTION ( 'NONE',  ( 0.0000000000000000000, 0.0000000000000000000, -1.000000000000000000 ) ) ;
#132 = VECTOR ( 'NONE', #135, 1000.000000000000000 ) ;
#133 = CARTESIAN_POINT ( 'NONE',  ( 0.0000000000000000000, 13.39999999999999900, 0.0000000000000000000 ) ) ;
#134 = AXIS2_PLACEMENT_3D ( 'NONE', #182, #34, #260 ) ;
#135 = DIRECTION ( 'NONE',  ( -0.0000000000000000000, -1.000000000000000000, -0.0000000000000000000 ) ) ;
#136 = PRODUCT ( '38884~0', '38884~0', '', ( #303 ) ) ;
#137 = CIRCLE ( 'NONE', #8, 1.000000000000000000 ) ;
#138 = DIRECTION ( 'NONE',  ( 8.659560562354919300E-017, 0.7071067811865487900, -0.7071067811865463500 ) ) ;
#139 = ORIENTED_EDGE ( 'NONE', *, *, #78, .T. ) ;
#140 = EDGE_LOOP ( 'NONE', ( #110, #287, #139, #22 ) ) ;
#141 = DIRECTION ( 'NONE',  ( 0.0000000000000000000, 0.0000000000000000000, -1.000000000000000000 ) ) ;
#142 = PRESENTATION_LAYER_ASSIGNMENT (  '', '', ( #184 ) ) ;
#143 = ORIENTED_EDGE ( 'NONE', *, *, #27, .T. ) ;
#144 = EDGE_CURVE ( 'NONE', #196, #336, #137, .T. ) ;
#145 = ORIENTED_EDGE ( 'NONE', *, *, #58, .F. ) ;
#146 = ORIENTED_EDGE ( 'NONE', *, *, #348, .T. ) ;
#147 = LINE ( 'NONE', #194, #327 ) ;
#148 = DIRECTION ( 'NONE',  ( -0.0000000000000000000, -1.000000000000000000, -0.0000000000000000000 ) ) ;
#149 = ORIENTED_EDGE ( 'NONE', *, *, #311, .T. ) ;
#150 = EDGE_CURVE ( 'NONE', #179, #305, #86, .T. ) ;
#151 = CARTESIAN_POINT ( 'NONE',  ( 0.0000000000000000000, 13.39999999999999900, 0.5262395692965992100 ) ) ;
#152 = ORIENTED_EDGE ( 'NONE', *, *, #235, .T. ) ;
#153 = ORIENTED_EDGE ( 'NONE', *, *, #275, .T. ) ;
#154 = DIRECTION ( 'NONE',  ( 0.0000000000000000000, 0.0000000000000000000, 1.000000000000000000 ) ) ;
#155 = LINE ( 'NONE', #17, #371 ) ;
#156 = CARTESIAN_POINT ( 'NONE',  ( 1.775737858763661900E-016, 7.000000000000000000, 1.450000000000000000 ) ) ;
#157 = COLOUR_RGB ( '',0.7529411764705882200, 0.7529411764705882200, 0.7529411764705882200 ) ;
#158 = DIRECTION ( 'NONE',  ( 0.0000000000000000000, 0.0000000000000000000, -1.000000000000000000 ) ) ;
#159 =( NAMED_UNIT ( * ) SI_UNIT ( $, .STERADIAN. ) SOLID_ANGLE_UNIT ( ) );
#160 = AXIS2_PLACEMENT_3D ( 'NONE', #365, #252, #49 ) ;
#161 = CARTESIAN_POINT ( 'NONE',  ( 0.0000000000000000000, 13.99999999999999800, 0.0000000000000000000 ) ) ;
#162 = FACE_OUTER_BOUND ( 'NONE', #94, .T. ) ;
#163 = EDGE_CURVE ( 'NONE', #41, #52, #14, .T. ) ;
#164 = CYLINDRICAL_SURFACE ( 'NONE', #171, 1.450000000000000000 ) ;
#165 = CARTESIAN_POINT ( 'NONE',  ( 0.0000000000000000000, 13.00000000000000200, 0.0000000000000000000 ) ) ;
#166 = DIRECTION ( 'NONE',  ( 0.0000000000000000000, 0.0000000000000000000, -1.000000000000000000 ) ) ;
#167 = ORIENTED_EDGE ( 'NONE', *, *, #174, .F. ) ;
#168 = SURFACE_STYLE_FILL_AREA ( #128 ) ;
#169 = CARTESIAN_POINT ( 'NONE',  ( 0.0000000000000000000, 0.0000000000000000000, 0.0000000000000000000 ) ) ;
#170 = CONICAL_SURFACE ( 'NONE', #31, 0.4999999999999970000, 0.7853981633974466100 ) ;
#171 = AXIS2_PLACEMENT_3D ( 'NONE', #33, #286, #208 ) ;
#172 = ADVANCED_FACE ( 'NONE', ( #316, #106 ), #288, .T. ) ;
#173 =( NAMED_UNIT ( * ) PLANE_ANGLE_UNIT ( ) SI_UNIT ( $, .RADIAN. ) );
#174 = EDGE_CURVE ( 'NONE', #336, #196, #210, .T. ) ;
#175 = MECHANICAL_DESIGN_GEOMETRIC_PRESENTATION_REPRESENTATION (  '', ( #184 ), #224 ) ;
#176 = ORIENTED_EDGE ( 'NONE', *, *, #150, .T. ) ;
#177 = ORIENTED_EDGE ( 'NONE', *, *, #55, .T. ) ;
#178 = CIRCLE ( 'NONE', #236, 1.000000000000000000 ) ;
#179 = VERTEX_POINT ( 'NONE', #99 ) ;
#180 = DIRECTION ( 'NONE',  ( 0.0000000000000000000, 1.000000000000000000, 0.0000000000000000000 ) ) ;
#181 = SHAPE_DEFINITION_REPRESENTATION ( #214, #246 ) ;
#182 = CARTESIAN_POINT ( 'NONE',  ( 6.444576041237619100E-017, 13.39999999999999900, -0.5262395692965992100 ) ) ;
#183 = DIRECTION ( 'NONE',  ( 0.0000000000000000000, 1.000000000000000000, 0.0000000000000000000 ) ) ;
#184 = STYLED_ITEM ( 'NONE', ( #80 ), #246 ) ;
#185 = DIRECTION ( 'NONE',  ( 0.0000000000000000000, 0.0000000000000000000, 1.000000000000000000 ) ) ;
#186 = DIRECTION ( 'NONE',  ( 0.0000000000000000000, 0.0000000000000000000, -1.000000000000000000 ) ) ;
#187 = DIRECTION ( 'NONE',  ( -0.0000000000000000000, -1.000000000000000000, -0.0000000000000000000 ) ) ;
#188 = ORIENTED_EDGE ( 'NONE', *, *, #250, .T. ) ;
#189 = LINE ( 'NONE', #242, #35 ) ;
#190 = ADVANCED_FACE ( 'NONE', ( #29 ), #342, .T. ) ;
#191 = ORIENTED_EDGE ( 'NONE', *, *, #370, .F. ) ;
#192 = CARTESIAN_POINT ( 'NONE',  ( 0.0000000000000000000, 13.39999999999999900, 0.0000000000000000000 ) ) ;
#193 = ADVANCED_FACE ( 'NONE', ( #127 ), #164, .T. ) ;
#194 = CARTESIAN_POINT ( 'NONE',  ( 1.775737858763661900E-016, 0.0000000000000000000, 1.450000000000000000 ) ) ;
#195 = ADVANCED_FACE ( 'NONE', ( #3 ), #39, .T. ) ;
#196 = VERTEX_POINT ( 'NONE', #323 ) ;
#197 = FILL_AREA_STYLE_COLOUR ( '', #157 ) ;
#198 = AXIS2_PLACEMENT_3D ( 'NONE', #318, #346, #4 ) ;
#199 = LINE ( 'NONE', #30, #227 ) ;
#200 = CIRCLE ( 'NONE', #103, 1.450000000000000000 ) ;
#201 = FACE_OUTER_BOUND ( 'NONE', #140, .T. ) ;
#202 = CIRCLE ( 'NONE', #278, 1.045854811567262100 ) ;
#203 = DIRECTION ( 'NONE',  ( 0.0000000000000000000, 0.0000000000000000000, -1.000000000000000000 ) ) ;
#204 = PLANE ( 'NONE',  #19 ) ;
#205 = DIRECTION ( 'NONE',  ( 0.0000000000000000000, -1.000000000000000000, -0.0000000000000000000 ) ) ;
#206 = AXIS2_PLACEMENT_3D ( 'NONE', #84, #81, #225 ) ;
#207 = EDGE_LOOP ( 'NONE', ( #326, #249, #118, #124 ) ) ;
#208 = DIRECTION ( 'NONE',  ( 0.0000000000000000000, 0.0000000000000000000, -1.000000000000000000 ) ) ;
#209 = ORIENTED_EDGE ( 'NONE', *, *, #50, .T. ) ;
#210 = CIRCLE ( 'NONE', #72, 1.000000000000000000 ) ;
#211 = CARTESIAN_POINT ( 'NONE',  ( 0.0000000000000000000, 0.0000000000000000000, 0.0000000000000000000 ) ) ;
#212 = CARTESIAN_POINT ( 'NONE',  ( 0.0000000000000000000, 6.999999999999999100, -1.000000000000000000 ) ) ;
#213 = AXIS2_PLACEMENT_3D ( 'NONE', #319, #240, #131 ) ;
#214 = PRODUCT_DEFINITION_SHAPE ( 'NONE', 'NONE',  #322 ) ;
#215 = TOROIDAL_SURFACE ( 'NONE', #282, 0.5262395692965992100, 0.5999999999999999800 ) ;
#216 = CARTESIAN_POINT ( 'NONE',  ( 0.0000000000000000000, 0.0000000000000000000, 0.4999999999999970000 ) ) ;
#217 = CARTESIAN_POINT ( 'NONE',  ( 0.0000000000000000000, 13.99999999999999800, 0.0000000000000000000 ) ) ;
#218 = SURFACE_STYLE_FILL_AREA ( #116 ) ;
#219 = DIRECTION ( 'NONE',  ( 0.0000000000000000000, 1.000000000000000000, 0.0000000000000000000 ) ) ;
#220 = ADVANCED_FACE ( 'NONE', ( #335 ), #21, .T. ) ;
#221 = DIRECTION ( 'NONE',  ( 0.0000000000000000000, 0.7071067811865487900, 0.7071067811865463500 ) ) ;
#222 = ORIENTED_EDGE ( 'NONE', *, *, #150, .F. ) ;
#223 = APPLICATION_PROTOCOL_DEFINITION ( 'draft international standard', 'automotive_design', 1998, #366 ) ;
#224 =( GEOMETRIC_REPRESENTATION_CONTEXT ( 3 ) GLOBAL_UNCERTAINTY_ASSIGNED_CONTEXT ( ( #233 ) ) GLOBAL_UNIT_ASSIGNED_CONTEXT ( ( #112, #274, #272 ) ) REPRESENTATION_CONTEXT ( 'NONE', 'WORKASPACE' ) );
#225 = DIRECTION ( 'NONE',  ( 0.0000000000000000000, 0.0000000000000000000, -1.000000000000000000 ) ) ;
#226 = DIRECTION ( 'NONE',  ( 0.0000000000000000000, 0.0000000000000000000, -1.000000000000000000 ) ) ;
#227 = VECTOR ( 'NONE', #257, 1000.000000000000000 ) ;
#228 = LINE ( 'NONE', #12, #315 ) ;
#229 = PRODUCT_RELATED_PRODUCT_CATEGORY ( 'part', '', ( #136 ) ) ;
#230 = ORIENTED_EDGE ( 'NONE', *, *, #285, .F. ) ;
#231 = FACE_OUTER_BOUND ( 'NONE', #283, .T. ) ;
#232 = CARTESIAN_POINT ( 'NONE',  ( 1.775737858763661900E-016, 13.00000000000000200, 1.450000000000000000 ) ) ;
#233 = UNCERTAINTY_MEASURE_WITH_UNIT (LENGTH_MEASURE( 1.000000000000000100E-005 ), #112, 'distance_accuracy_value', 'NONE');
#234 = FACE_OUTER_BOUND ( 'NONE', #352, .T. ) ;
#235 = EDGE_CURVE ( 'NONE', #56, #32, #307, .T. ) ;
#236 = AXIS2_PLACEMENT_3D ( 'NONE', #10, #324, #166 ) ;
#237 = ORIENTED_EDGE ( 'NONE', *, *, #285, .T. ) ;
#238 = DIRECTION ( 'NONE',  ( 0.0000000000000000000, 0.0000000000000000000, 1.000000000000000000 ) ) ;
#239 = EDGE_CURVE ( 'NONE', #363, #258, #355, .T. ) ;
#240 = DIRECTION ( 'NONE',  ( -0.0000000000000000000, -1.000000000000000000, -0.0000000000000000000 ) ) ;
#241 = ORIENTED_EDGE ( 'NONE', *, *, #58, .T. ) ;
#242 = CARTESIAN_POINT ( 'NONE',  ( 0.0000000000000000000, 0.0000000000000000000, -1.450000000000000000 ) ) ;
#243 = CARTESIAN_POINT ( 'NONE',  ( 0.0000000000000000000, 0.5000000000000047700, 0.0000000000000000000 ) ) ;
#244 = DIRECTION ( 'NONE',  ( -0.0000000000000000000, -1.000000000000000000, -0.0000000000000000000 ) ) ;
#245 = MECHANICAL_DESIGN_GEOMETRIC_PRESENTATION_REPRESENTATION (  '', ( #298 ), #1 ) ;
#246 = ADVANCED_BREP_SHAPE_REPRESENTATION ( '38884~0', ( #85, #291 ), #120 ) ;
#247 = ORIENTED_EDGE ( 'NONE', *, *, #364, .T. ) ;
#248 = CARTESIAN_POINT ( 'NONE',  ( 0.0000000000000000000, 0.0000000000000000000, 0.0000000000000000000 ) ) ;
#249 = ORIENTED_EDGE ( 'NONE', *, *, #239, .T. ) ;
#250 = EDGE_CURVE ( 'NONE', #299, #196, #228, .T. ) ;
#251 = ORIENTED_EDGE ( 'NONE', *, *, #314, .F. ) ;
#252 = DIRECTION ( 'NONE',  ( 0.0000000000000000000, 1.000000000000000000, 0.0000000000000000000 ) ) ;
#253 = AXIS2_PLACEMENT_3D ( 'NONE', #211, #293, #37 ) ;
#254 = CARTESIAN_POINT ( 'NONE',  ( 0.0000000000000000000, 7.000000000000000000, -1.450000000000000000 ) ) ;
#255 = VERTEX_POINT ( 'NONE', #216 ) ;
#256 = CIRCLE ( 'NONE', #25, 1.450000000000000000 ) ;
#257 = DIRECTION ( 'NONE',  ( -0.0000000000000000000, -1.000000000000000000, -0.0000000000000000000 ) ) ;
#258 = VERTEX_POINT ( 'NONE', #358 ) ;
#259 = SURFACE_STYLE_USAGE ( .BOTH. , #317 ) ;
#260 = DIRECTION ( 'NONE',  ( 1.224646799147352700E-016, 0.0000000000000000000, -1.000000000000000000 ) ) ;
#261 = FILL_AREA_STYLE_COLOUR ( '', #129 ) ;
#262 = EDGE_LOOP ( 'NONE', ( #277, #247 ) ) ;
#263 = DIRECTION ( 'NONE',  ( -0.0000000000000000000, -1.000000000000000000, -0.0000000000000000000 ) ) ;
#264 = CARTESIAN_POINT ( 'NONE',  ( 0.0000000000000000000, 7.000000000000000000, 0.0000000000000000000 ) ) ;
#265 = DIRECTION ( 'NONE',  ( -0.0000000000000000000, -1.000000000000000000, -0.0000000000000000000 ) ) ;
#266 = VECTOR ( 'NONE', #280, 999.9999999999998900 ) ;
#267 = EDGE_CURVE ( 'NONE', #258, #363, #256, .T. ) ;
#268 = PRODUCT_DEFINITION_CONTEXT ( 'detailed design', #366, 'design' ) ;
#269 = DIRECTION ( 'NONE',  ( 0.0000000000000000000, 0.0000000000000000000, 1.000000000000000000 ) ) ;
#270 = VECTOR ( 'NONE', #310, 999.9999999999998900 ) ;
#271 = ORIENTED_EDGE ( 'NONE', *, *, #267, .T. ) ;
#272 =( NAMED_UNIT ( * ) SI_UNIT ( $, .STERADIAN. ) SOLID_ANGLE_UNIT ( ) );
#273 = CIRCLE ( 'NONE', #306, 0.4999999999999970000 ) ;
#274 =( NAMED_UNIT ( * ) PLANE_ANGLE_UNIT ( ) SI_UNIT ( $, .RADIAN. ) );
#275 = EDGE_CURVE ( 'NONE', #350, #52, #105, .T. ) ;
#276 = CYLINDRICAL_SURFACE ( 'NONE', #13, 1.000000000000000000 ) ;
#277 = ORIENTED_EDGE ( 'NONE', *, *, #328, .T. ) ;
#278 = AXIS2_PLACEMENT_3D ( 'NONE', #90, #121, #154 ) ;
#279 = ORIENTED_EDGE ( 'NONE', *, *, #47, .T. ) ;
#280 = DIRECTION ( 'NONE',  ( 6.123233995736782100E-017, -0.8660254037844380400, 0.5000000000000012200 ) ) ;
#281 = CARTESIAN_POINT ( 'NONE',  ( 0.0000000000000000000, 13.00000000000000200, -1.450000000000000000 ) ) ;
#282 = AXIS2_PLACEMENT_3D ( 'NONE', #133, #61, #343 ) ;
#283 = EDGE_LOOP ( 'NONE', ( #145, #176, #325, #308 ) ) ;
#284 = DIRECTION ( 'NONE',  ( -0.0000000000000000000, -1.000000000000000000, -0.0000000000000000000 ) ) ;
#285 = EDGE_CURVE ( 'NONE', #305, #179, #178, .T. ) ;
#286 = DIRECTION ( 'NONE',  ( -0.0000000000000000000, -1.000000000000000000, -0.0000000000000000000 ) ) ;
#287 = ORIENTED_EDGE ( 'NONE', *, *, #50, .F. ) ;
#288 = PLANE ( 'NONE',  #38 ) ;
#289 = EDGE_LOOP ( 'NONE', ( #149, #152 ) ) ;
#290 = CARTESIAN_POINT ( 'NONE',  ( 0.0000000000000000000, 13.99999999999999800, 0.5262395692965992100 ) ) ;
#291 = AXIS2_PLACEMENT_3D ( 'NONE', #169, #20, #114 ) ;
#292 = DIRECTION ( 'NONE',  ( 0.0000000000000000000, 0.0000000000000000000, -1.000000000000000000 ) ) ;
#293 = DIRECTION ( 'NONE',  ( -0.0000000000000000000, -1.000000000000000000, -0.0000000000000000000 ) ) ;
#294 = ORIENTED_EDGE ( 'NONE', *, *, #47, .F. ) ;
#295 = DIRECTION ( 'NONE',  ( 0.0000000000000000000, 0.0000000000000000000, 1.000000000000000000 ) ) ;
#296 = SURFACE_STYLE_USAGE ( .BOTH. , #331 ) ;
#297 = ORIENTED_EDGE ( 'NONE', *, *, #370, .T. ) ;
#298 = STYLED_ITEM ( 'NONE', ( #2 ), #85 ) ;
#299 = VERTEX_POINT ( 'NONE', #359 ) ;
#300 = DIRECTION ( 'NONE',  ( -0.0000000000000000000, -1.000000000000000000, -0.0000000000000000000 ) ) ;
#301 = ADVANCED_FACE ( 'NONE', ( #48 ), #170, .T. ) ;
#302 = CARTESIAN_POINT ( 'NONE',  ( 1.775737858763661900E-016, 13.00000000000000200, 1.450000000000000000 ) ) ;
#303 = PRODUCT_CONTEXT ( 'NONE', #334, 'mechanical' ) ;
#304 = FACE_OUTER_BOUND ( 'NONE', #262, .T. ) ;
#305 = VERTEX_POINT ( 'NONE', #212 ) ;
#306 = AXIS2_PLACEMENT_3D ( 'NONE', #68, #263, #226 ) ;
#307 = CIRCLE ( 'NONE', #83, 1.450000000000000000 ) ;
#308 = ORIENTED_EDGE ( 'NONE', *, *, #144, .T. ) ;
#309 = ORIENTED_EDGE ( 'NONE', *, *, #311, .F. ) ;
#310 = DIRECTION ( 'NONE',  ( 0.0000000000000000000, -0.8660254037844380400, -0.5000000000000012200 ) ) ;
#311 = EDGE_CURVE ( 'NONE', #32, #56, #200, .T. ) ;
#312 = DIRECTION ( 'NONE',  ( 0.0000000000000000000, 0.0000000000000000000, 1.000000000000000000 ) ) ;
#313 = ORIENTED_EDGE ( 'NONE', *, *, #27, .F. ) ;
#314 = EDGE_CURVE ( 'NONE', #305, #196, #92, .T. ) ;
#315 = VECTOR ( 'NONE', #138, 1000.000000000000000 ) ;
#316 = FACE_OUTER_BOUND ( 'NONE', #289, .T. ) ;
#317 = SURFACE_SIDE_STYLE ('',( #168 ) ) ;
#318 = CARTESIAN_POINT ( 'NONE',  ( 0.0000000000000000000, 6.999999999999999100, 0.0000000000000000000 ) ) ;
#319 = CARTESIAN_POINT ( 'NONE',  ( 0.0000000000000000000, 13.00000000000000200, 0.0000000000000000000 ) ) ;
#320 = PRESENTATION_LAYER_ASSIGNMENT (  '', '', ( #298 ) ) ;
#321 =( NAMED_UNIT ( * ) PLANE_ANGLE_UNIT ( ) SI_UNIT ( $, .RADIAN. ) );
#322 = PRODUCT_DEFINITION ( 'UNKNOWN', '', #367, #268 ) ;
#323 = CARTESIAN_POINT ( 'NONE',  ( 0.0000000000000000000, 0.5000000000000047700, -1.000000000000000000 ) ) ;
#324 = DIRECTION ( 'NONE',  ( -0.0000000000000000000, -1.000000000000000000, -0.0000000000000000000 ) ) ;
#325 = ORIENTED_EDGE ( 'NONE', *, *, #314, .T. ) ;
#326 = ORIENTED_EDGE ( 'NONE', *, *, #348, .F. ) ;
#327 = VECTOR ( 'NONE', #148, 1000.000000000000000 ) ;
#328 = EDGE_CURVE ( 'NONE', #255, #299, #273, .T. ) ;
#329 = DIRECTION ( 'NONE',  ( 0.0000000000000000000, 0.0000000000000000000, -1.000000000000000000 ) ) ;
#330 = ADVANCED_FACE ( 'NONE', ( #234 ), #341, .T. ) ;
#331 = SURFACE_SIDE_STYLE ('',( #218 ) ) ;
#332 = ORIENTED_EDGE ( 'NONE', *, *, #267, .F. ) ;
#333 =( LENGTH_UNIT ( ) NAMED_UNIT ( * ) SI_UNIT ( .MILLI., .METRE. ) );
#334 = APPLICATION_CONTEXT ( 'automotive_design' ) ;
#335 = FACE_OUTER_BOUND ( 'NONE', #63, .T. ) ;
#336 = VERTEX_POINT ( 'NONE', #44 ) ;
#337 = FACE_OUTER_BOUND ( 'NONE', #23, .T. ) ;
#338 = CARTESIAN_POINT ( 'NONE',  ( 0.0000000000000000000, 0.0000000000000000000, 0.0000000000000000000 ) ) ;
#339 = ORIENTED_EDGE ( 'NONE', *, *, #55, .F. ) ;
#340 = DIRECTION ( 'NONE',  ( -0.0000000000000000000, -1.000000000000000000, -0.0000000000000000000 ) ) ;
#341 = CYLINDRICAL_SURFACE ( 'NONE', #253, 1.000000000000000000 ) ;
#342 = CONICAL_SURFACE ( 'NONE', #213, 1.450000000000000000, 0.5235987755983002600 ) ;
#343 = DIRECTION ( 'NONE',  ( 0.0000000000000000000, 0.0000000000000000000, 1.000000000000000000 ) ) ;
#344 = LINE ( 'NONE', #281, #270 ) ;
#345 = ORIENTED_EDGE ( 'NONE', *, *, #250, .F. ) ;
#346 = DIRECTION ( 'NONE',  ( -0.0000000000000000000, -1.000000000000000000, -0.0000000000000000000 ) ) ;
#347 = DIRECTION ( 'NONE',  ( 0.0000000000000000000, 1.000000000000000000, 0.0000000000000000000 ) ) ;
#348 = EDGE_CURVE ( 'NONE', #363, #56, #147, .T. ) ;
#349 = PLANE ( 'NONE',  #45 ) ;
#350 = VERTEX_POINT ( 'NONE', #290 ) ;
#351 = DIRECTION ( 'NONE',  ( 0.0000000000000000000, 0.0000000000000000000, -1.000000000000000000 ) ) ;
#352 = EDGE_LOOP ( 'NONE', ( #237, #241, #28, #251 ) ) ;
#353 = DIRECTION ( 'NONE',  ( 0.0000000000000000000, 0.0000000000000000000, -1.000000000000000000 ) ) ;
#354 = CONICAL_SURFACE ( 'NONE', #206, 1.450000000000000000, 0.5235987755983002600 ) ;
#355 = CIRCLE ( 'NONE', #117, 1.450000000000000000 ) ;
#356 = CARTESIAN_POINT ( 'NONE',  ( 0.0000000000000000000, 7.000000000000000000, 0.0000000000000000000 ) ) ;
#357 = ADVANCED_FACE ( 'NONE', ( #126 ), #354, .T. ) ;
#358 = CARTESIAN_POINT ( 'NONE',  ( 0.0000000000000000000, 13.00000000000000200, -1.450000000000000000 ) ) ;
#359 = CARTESIAN_POINT ( 'NONE',  ( 9.184850993605129900E-017, 0.0000000000000000000, -0.4999999999999970000 ) ) ;
#360 = ADVANCED_FACE ( 'NONE', ( #337 ), #368, .T. ) ;
#361 = AXIS2_PLACEMENT_3D ( 'NONE', #161, #102, #238 ) ;
#362 = APPLICATION_PROTOCOL_DEFINITION ( 'draft international standard', 'automotive_design', 1998, #334 ) ;
#363 = VERTEX_POINT ( 'NONE', #302 ) ;
#364 = EDGE_CURVE ( 'NONE', #299, #255, #43, .T. ) ;
#365 = CARTESIAN_POINT ( 'NONE',  ( 0.0000000000000000000, 0.0000000000000000000, 0.0000000000000000000 ) ) ;
#366 = APPLICATION_CONTEXT ( 'automotive_design' ) ;
#367 = PRODUCT_DEFINITION_FORMATION_WITH_SPECIFIED_SOURCE ( 'ANY', '', #136, .NOT_KNOWN. ) ;
#368 = CONICAL_SURFACE ( 'NONE', #160, 0.4999999999999970000, 0.7853981633974466100 ) ;
#369 = EDGE_LOOP ( 'NONE', ( #66, #188, #167, #191 ) ) ;
#370 = EDGE_CURVE ( 'NONE', #255, #336, #155, .T. ) ;
#371 = VECTOR ( 'NONE', #221, 1000.000000000000000 ) ;
#372 = UNCERTAINTY_MEASURE_WITH_UNIT (LENGTH_MEASURE( 1.000000000000000100E-005 ), #333, 'distance_accuracy_value', 'NONE');
ENDSEC;
END-ISO-10303-21;
