ISO-10303-21;
HEADER;
FILE_DESCRIPTION (( 'STEP AP214' ),
    '1' );
FILE_NAME ('38883~0.STEP',
    '2017-07-04T08:58:36',
    ( '' ),
    ( '' ),
    'SwSTEP 2.0',
    'SolidWorks 2016',
    '' );
FILE_SCHEMA (( 'AUTOMOTIVE_DESIGN' ));
ENDSEC;

DATA;
#1 = ORIENTED_EDGE ( 'NONE', *, *, #284, .T. ) ;
#2 = EDGE_CURVE ( 'NONE', #161, #69, #347, .T. ) ;
#3 = CYLINDRICAL_SURFACE ( 'NONE', #164, 1.399999999999999900 ) ;
#4 = PRODUCT_DEFINITION ( 'UNKNOWN', '', #216, #310 ) ;
#5 = ORIENTED_EDGE ( 'NONE', *, *, #54, .F. ) ;
#6 = EDGE_CURVE ( 'NONE', #111, #134, #133, .T. ) ;
#7 = FACE_OUTER_BOUND ( 'NONE', #151, .T. ) ;
#8 = VECTOR ( 'NONE', #198, 1000.000000000000000 ) ;
#9 = VERTEX_POINT ( 'NONE', #124 ) ;
#10 = CARTESIAN_POINT ( 'NONE',  ( 0.0000000000000000000, 13.00000000000000200, 0.0000000000000000000 ) ) ;
#11 = CYLINDRICAL_SURFACE ( 'NONE', #298, 1.399999999999999900 ) ;
#12 = CARTESIAN_POINT ( 'NONE',  ( 0.0000000000000000000, 0.0000000000000000000, 0.0000000000000000000 ) ) ;
#13 = FILL_AREA_STYLE_COLOUR ( '', #105 ) ;
#14 = CARTESIAN_POINT ( 'NONE',  ( 0.0000000000000000000, 0.0000000000000000000, 0.4999999999999987200 ) ) ;
#15 = PRODUCT_RELATED_PRODUCT_CATEGORY ( 'part', '', ( #217 ) ) ;
#16 = DIRECTION ( 'NONE',  ( 0.0000000000000000000, 0.0000000000000000000, 1.000000000000000000 ) ) ;
#17 = CARTESIAN_POINT ( 'NONE',  ( 0.0000000000000000000, 0.0000000000000000000, 0.0000000000000000000 ) ) ;
#18 = SURFACE_STYLE_FILL_AREA ( #196 ) ;
#19 = DIRECTION ( 'NONE',  ( 0.0000000000000000000, 1.000000000000000000, 0.0000000000000000000 ) ) ;
#20 = ORIENTED_EDGE ( 'NONE', *, *, #6, .F. ) ;
#21 = FACE_OUTER_BOUND ( 'NONE', #189, .T. ) ;
#22 = CARTESIAN_POINT ( 'NONE',  ( 0.0000000000000000000, 6.999999999999999100, -1.000000000000000000 ) ) ;
#23 = UNCERTAINTY_MEASURE_WITH_UNIT (LENGTH_MEASURE( 1.000000000000000100E-005 ), #274, 'distance_accuracy_value', 'NONE');
#24 = VERTEX_POINT ( 'NONE', #22 ) ;
#25 = ADVANCED_FACE ( 'NONE', ( #308 ), #181, .T. ) ;
#26 = VERTEX_POINT ( 'NONE', #73 ) ;
#27 = CARTESIAN_POINT ( 'NONE',  ( 1.714505518806294400E-016, 0.0000000000000000000, 1.399999999999999900 ) ) ;
#28 = CIRCLE ( 'NONE', #193, 0.4999999999999987200 ) ;
#29 = DIRECTION ( 'NONE',  ( 0.0000000000000000000, 0.0000000000000000000, -1.000000000000000000 ) ) ;
#30 = EDGE_CURVE ( 'NONE', #34, #182, #80, .T. ) ;
#31 = CIRCLE ( 'NONE', #108, 1.000000000000000000 ) ;
#32 = FACE_OUTER_BOUND ( 'NONE', #156, .T. ) ;
#33 = EDGE_CURVE ( 'NONE', #26, #315, #31, .T. ) ;
#34 = VERTEX_POINT ( 'NONE', #281 ) ;
#35 = EDGE_CURVE ( 'NONE', #111, #315, #203, .T. ) ;
#36 = AXIS2_PLACEMENT_3D ( 'NONE', #267, #241, #169 ) ;
#37 = CARTESIAN_POINT ( 'NONE',  ( 0.0000000000000000000, 13.00000000000000200, 0.0000000000000000000 ) ) ;
#38 = ORIENTED_EDGE ( 'NONE', *, *, #179, .T. ) ;
#39 = DIRECTION ( 'NONE',  ( 1.224646799147352700E-016, 0.0000000000000000000, -1.000000000000000000 ) ) ;
#40 =( LENGTH_UNIT ( ) NAMED_UNIT ( * ) SI_UNIT ( .MILLI., .METRE. ) );
#41 = DIRECTION ( 'NONE',  ( -0.0000000000000000000, -1.000000000000000000, -0.0000000000000000000 ) ) ;
#42 = DIRECTION ( 'NONE',  ( -0.0000000000000000000, -1.000000000000000000, -0.0000000000000000000 ) ) ;
#43 = ORIENTED_EDGE ( 'NONE', *, *, #63, .F. ) ;
#44 =( GEOMETRIC_REPRESENTATION_CONTEXT ( 3 ) GLOBAL_UNCERTAINTY_ASSIGNED_CONTEXT ( ( #219 ) ) GLOBAL_UNIT_ASSIGNED_CONTEXT ( ( #71, #167, #307 ) ) REPRESENTATION_CONTEXT ( 'NONE', 'WORKASPACE' ) );
#45 = DIRECTION ( 'NONE',  ( 0.0000000000000000000, 1.000000000000000000, 0.0000000000000000000 ) ) ;
#46 = ORIENTED_EDGE ( 'NONE', *, *, #258, .F. ) ;
#47 = ADVANCED_FACE ( 'NONE', ( #21 ), #3, .T. ) ;
#48 = VECTOR ( 'NONE', #336, 999.9999999999998900 ) ;
#49 = AXIS2_PLACEMENT_3D ( 'NONE', #10, #42, #199 ) ;
#50 = CARTESIAN_POINT ( 'NONE',  ( 0.0000000000000000000, 0.5000000000000030000, 0.0000000000000000000 ) ) ;
#51 = DIRECTION ( 'NONE',  ( 0.0000000000000000000, 0.0000000000000000000, -1.000000000000000000 ) ) ;
#52 = ORIENTED_EDGE ( 'NONE', *, *, #35, .F. ) ;
#53 = DIRECTION ( 'NONE',  ( -0.0000000000000000000, -1.000000000000000000, -0.0000000000000000000 ) ) ;
#54 = EDGE_CURVE ( 'NONE', #161, #34, #74, .T. ) ;
#55 = CYLINDRICAL_SURFACE ( 'NONE', #126, 1.000000000000000000 ) ;
#56 = AXIS2_PLACEMENT_3D ( 'NONE', #17, #119, #335 ) ;
#57 = LINE ( 'NONE', #171, #48 ) ;
#58 = FACE_OUTER_BOUND ( 'NONE', #313, .T. ) ;
#59 = EDGE_CURVE ( 'NONE', #24, #315, #190, .T. ) ;
#60 = ORIENTED_EDGE ( 'NONE', *, *, #115, .T. ) ;
#61 =( GEOMETRIC_REPRESENTATION_CONTEXT ( 3 ) GLOBAL_UNCERTAINTY_ASSIGNED_CONTEXT ( ( #23 ) ) GLOBAL_UNIT_ASSIGNED_CONTEXT ( ( #274, #213, #367 ) ) REPRESENTATION_CONTEXT ( 'NONE', 'WORKASPACE' ) );
#62 = EDGE_LOOP ( 'NONE', ( #46, #194 ) ) ;
#63 = EDGE_CURVE ( 'NONE', #218, #224, #293, .T. ) ;
#64 = DIRECTION ( 'NONE',  ( 0.0000000000000000000, 0.0000000000000000000, 1.000000000000000000 ) ) ;
#65 = DIRECTION ( 'NONE',  ( -0.0000000000000000000, -1.000000000000000000, -0.0000000000000000000 ) ) ;
#66 = AXIS2_PLACEMENT_3D ( 'NONE', #204, #67, #95 ) ;
#67 = DIRECTION ( 'NONE',  ( -0.0000000000000000000, -1.000000000000000000, -0.0000000000000000000 ) ) ;
#68 =( NAMED_UNIT ( * ) SI_UNIT ( $, .STERADIAN. ) SOLID_ANGLE_UNIT ( ) );
#69 = VERTEX_POINT ( 'NONE', #253 ) ;
#70 = CARTESIAN_POINT ( 'NONE',  ( 0.0000000000000000000, 13.69999999999999900, 0.0000000000000000000 ) ) ;
#71 =( LENGTH_UNIT ( ) NAMED_UNIT ( * ) SI_UNIT ( .MILLI., .METRE. ) );
#72 = CARTESIAN_POINT ( 'NONE',  ( 1.000000000000000000, 6.999999999999999100, 0.0000000000000000000 ) ) ;
#73 = CARTESIAN_POINT ( 'NONE',  ( 1.224646799147353200E-016, 0.5000000000000030000, 1.000000000000000000 ) ) ;
#74 = CIRCLE ( 'NONE', #100, 0.6000000000000000900 ) ;
#75 = ADVANCED_FACE ( 'NONE', ( #58 ), #55, .T. ) ;
#76 = ORIENTED_EDGE ( 'NONE', *, *, #63, .T. ) ;
#77 = MECHANICAL_DESIGN_GEOMETRIC_PRESENTATION_REPRESENTATION (  '', ( #354 ), #61 ) ;
#78 = VECTOR ( 'NONE', #142, 1000.000000000000000 ) ;
#79 = DIRECTION ( 'NONE',  ( 0.0000000000000000000, 1.000000000000000000, 0.0000000000000000000 ) ) ;
#80 = CIRCLE ( 'NONE', #345, 0.4762395692965993300 ) ;
#81 = CARTESIAN_POINT ( 'NONE',  ( 0.0000000000000000000, 13.99999999999999800, 0.0000000000000000000 ) ) ;
#82 = DIRECTION ( 'NONE',  ( 0.0000000000000000000, 1.000000000000000000, 0.0000000000000000000 ) ) ;
#83 = DIRECTION ( 'NONE',  ( -1.000000000000000000, 0.0000000000000000000, 0.0000000000000000000 ) ) ;
#84 = AXIS2_PLACEMENT_3D ( 'NONE', #220, #180, #176 ) ;
#85 = CARTESIAN_POINT ( 'NONE',  ( 9.184850993605141000E-017, 0.0000000000000000000, -0.4999999999999987200 ) ) ;
#86 = EDGE_LOOP ( 'NONE', ( #252, #230, #226, #327 ) ) ;
#87 = PRESENTATION_LAYER_ASSIGNMENT (  '', '', ( #354 ) ) ;
#88 = ORIENTED_EDGE ( 'NONE', *, *, #59, .T. ) ;
#89 = PRESENTATION_STYLE_ASSIGNMENT (( #91 ) ) ;
#90 = COLOUR_RGB ( '',0.7529411764705882200, 0.7529411764705882200, 0.7529411764705882200 ) ;
#91 = SURFACE_STYLE_USAGE ( .BOTH. , #205 ) ;
#92 = DIRECTION ( 'NONE',  ( 1.000000000000000000, -0.0000000000000000000, 1.224646799147353200E-016 ) ) ;
#93 = DIRECTION ( 'NONE',  ( 0.0000000000000000000, 1.000000000000000000, 0.0000000000000000000 ) ) ;
#94 = ORIENTED_EDGE ( 'NONE', *, *, #136, .T. ) ;
#95 = DIRECTION ( 'NONE',  ( 0.0000000000000000000, 0.0000000000000000000, -1.000000000000000000 ) ) ;
#96 = FACE_OUTER_BOUND ( 'NONE', #271, .T. ) ;
#97 =( NAMED_UNIT ( * ) PLANE_ANGLE_UNIT ( ) SI_UNIT ( $, .RADIAN. ) );
#98 = DIRECTION ( 'NONE',  ( -0.0000000000000000000, -1.000000000000000000, -0.0000000000000000000 ) ) ;
#99 = CARTESIAN_POINT ( 'NONE',  ( 0.0000000000000000000, 0.0000000000000000000, -1.399999999999999900 ) ) ;
#100 = AXIS2_PLACEMENT_3D ( 'NONE', #159, #83, #285 ) ;
#101 = APPLICATION_PROTOCOL_DEFINITION ( 'draft international standard', 'automotive_design', 1998, #177 ) ;
#102 = AXIS2_PLACEMENT_3D ( 'NONE', #337, #19, #263 ) ;
#103 = EDGE_CURVE ( 'NONE', #224, #218, #311, .T. ) ;
#104 = ORIENTED_EDGE ( 'NONE', *, *, #284, .F. ) ;
#105 = COLOUR_RGB ( '',0.7529411764705882200, 0.7529411764705882200, 0.7529411764705882200 ) ;
#106 = CARTESIAN_POINT ( 'NONE',  ( 1.467037963103816400E-016, 13.69999999999999900, 0.9958548115672621900 ) ) ;
#107 = DIRECTION ( 'NONE',  ( 0.0000000000000000000, 0.0000000000000000000, -1.000000000000000000 ) ) ;
#108 = AXIS2_PLACEMENT_3D ( 'NONE', #214, #45, #247 ) ;
#109 = ORIENTED_EDGE ( 'NONE', *, *, #326, .F. ) ;
#110 = AXIS2_PLACEMENT_3D ( 'NONE', #121, #173, #301 ) ;
#111 = VERTEX_POINT ( 'NONE', #85 ) ;
#112 = CONICAL_SURFACE ( 'NONE', #49, 1.399999999999999900, 0.5235987755983002600 ) ;
#113 = ORIENTED_EDGE ( 'NONE', *, *, #33, .T. ) ;
#114 = AXIS2_PLACEMENT_3D ( 'NONE', #37, #41, #240 ) ;
#115 = EDGE_CURVE ( 'NONE', #315, #26, #192, .T. ) ;
#116 = ORIENTED_EDGE ( 'NONE', *, *, #273, .F. ) ;
#117 = CARTESIAN_POINT ( 'NONE',  ( 0.0000000000000000000, 13.00000000000000200, 0.0000000000000000000 ) ) ;
#118 = DIRECTION ( 'NONE',  ( 0.0000000000000000000, 1.000000000000000000, 0.0000000000000000000 ) ) ;
#119 = DIRECTION ( 'NONE',  ( 0.0000000000000000000, 1.000000000000000000, 0.0000000000000000000 ) ) ;
#120 = SHAPE_DEFINITION_REPRESENTATION ( #352, #144 ) ;
#121 = CARTESIAN_POINT ( 'NONE',  ( 0.0000000000000000000, 6.999999999999999100, 0.0000000000000000000 ) ) ;
#122 = ORIENTED_EDGE ( 'NONE', *, *, #258, .T. ) ;
#123 = DIRECTION ( 'NONE',  ( 0.0000000000000000000, 0.0000000000000000000, 1.000000000000000000 ) ) ;
#124 = CARTESIAN_POINT ( 'NONE',  ( 0.0000000000000000000, 13.00000000000000200, -1.399999999999999900 ) ) ;
#125 = CARTESIAN_POINT ( 'NONE',  ( 1.714505518806294400E-016, 13.00000000000000200, 1.399999999999999900 ) ) ;
#126 = AXIS2_PLACEMENT_3D ( 'NONE', #185, #53, #130 ) ;
#127 = EDGE_LOOP ( 'NONE', ( #242, #364 ) ) ;
#128 = CIRCLE ( 'NONE', #110, 1.000000000000000000 ) ;
#129 = ORIENTED_EDGE ( 'NONE', *, *, #179, .F. ) ;
#130 = DIRECTION ( 'NONE',  ( 0.0000000000000000000, 0.0000000000000000000, -1.000000000000000000 ) ) ;
#131 = LINE ( 'NONE', #27, #233 ) ;
#132 = CARTESIAN_POINT ( 'NONE',  ( 0.0000000000000000000, 0.0000000000000000000, 0.0000000000000000000 ) ) ;
#133 = CIRCLE ( 'NONE', #339, 0.4999999999999987200 ) ;
#134 = VERTEX_POINT ( 'NONE', #186 ) ;
#135 = CIRCLE ( 'NONE', #251, 0.9958548115672621900 ) ;
#136 = EDGE_CURVE ( 'NONE', #69, #224, #131, .T. ) ;
#137 = VECTOR ( 'NONE', #312, 1000.000000000000000 ) ;
#138 = CIRCLE ( 'NONE', #114, 1.399999999999999900 ) ;
#139 = ORIENTED_EDGE ( 'NONE', *, *, #363, .T. ) ;
#140 = DIRECTION ( 'NONE',  ( -0.0000000000000000000, -1.000000000000000000, -0.0000000000000000000 ) ) ;
#141 = LINE ( 'NONE', #99, #78 ) ;
#142 = DIRECTION ( 'NONE',  ( -0.0000000000000000000, -1.000000000000000000, -0.0000000000000000000 ) ) ;
#143 = AXIS2_PLACEMENT_3D ( 'NONE', #72, #209, #361 ) ;
#144 = ADVANCED_BREP_SHAPE_REPRESENTATION ( '38883~0', ( #371, #174 ), #44 ) ;
#145 = DIRECTION ( 'NONE',  ( -0.0000000000000000000, -1.000000000000000000, -0.0000000000000000000 ) ) ;
#146 = CARTESIAN_POINT ( 'NONE',  ( 1.714505518806294400E-016, 7.000000000000000000, 1.399999999999999900 ) ) ;
#147 = CARTESIAN_POINT ( 'NONE',  ( 0.8226497308103728500, 13.99999999999999800, 0.0000000000000000000 ) ) ;
#148 = ORIENTED_EDGE ( 'NONE', *, *, #2, .F. ) ;
#149 = DIRECTION ( 'NONE',  ( 0.0000000000000000000, 0.0000000000000000000, -1.000000000000000000 ) ) ;
#150 = AXIS2_PLACEMENT_3D ( 'NONE', #158, #319, #372 ) ;
#151 = EDGE_LOOP ( 'NONE', ( #197, #259, #346, #234 ) ) ;
#152 = CONICAL_SURFACE ( 'NONE', #56, 0.4999999999999987200, 0.7853981633974466100 ) ;
#153 = DIRECTION ( 'NONE',  ( -0.0000000000000000000, -1.000000000000000000, -0.0000000000000000000 ) ) ;
#154 = EDGE_LOOP ( 'NONE', ( #76, #356 ) ) ;
#155 = PRESENTATION_LAYER_ASSIGNMENT (  '', '', ( #323 ) ) ;
#156 = EDGE_LOOP ( 'NONE', ( #148, #295, #139, #303 ) ) ;
#157 = VECTOR ( 'NONE', #330, 1000.000000000000000 ) ;
#158 = CARTESIAN_POINT ( 'NONE',  ( 0.0000000000000000000, 7.000000000000000000, 0.0000000000000000000 ) ) ;
#159 = CARTESIAN_POINT ( 'NONE',  ( 0.0000000000000000000, 13.39999999999999900, 0.4762395692965993300 ) ) ;
#160 = AXIS2_PLACEMENT_3D ( 'NONE', #201, #92, #39 ) ;
#161 = VERTEX_POINT ( 'NONE', #106 ) ;
#162 = CLOSED_SHELL ( 'NONE', ( #280, #249, #229, #47, #317, #340, #255, #184, #223, #75, #25, #282, #287 ) ) ;
#163 = FACE_OUTER_BOUND ( 'NONE', #86, .T. ) ;
#164 = AXIS2_PLACEMENT_3D ( 'NONE', #222, #316, #51 ) ;
#165 = TOROIDAL_SURFACE ( 'NONE', #36, 0.4762395692965993300, 0.5999999999999999800 ) ;
#166 = CARTESIAN_POINT ( 'NONE',  ( 0.0000000000000000000, 13.99999999999999800, 0.0000000000000000000 ) ) ;
#167 =( NAMED_UNIT ( * ) PLANE_ANGLE_UNIT ( ) SI_UNIT ( $, .RADIAN. ) );
#168 = EDGE_CURVE ( 'NONE', #9, #69, #138, .T. ) ;
#169 = DIRECTION ( 'NONE',  ( 0.0000000000000000000, 0.0000000000000000000, 1.000000000000000000 ) ) ;
#170 = ORIENTED_EDGE ( 'NONE', *, *, #30, .F. ) ;
#171 = CARTESIAN_POINT ( 'NONE',  ( 0.0000000000000000000, 13.00000000000000200, -1.399999999999999900 ) ) ;
#172 = PLANE ( 'NONE',  #143 ) ;
#173 = DIRECTION ( 'NONE',  ( -0.0000000000000000000, -1.000000000000000000, -0.0000000000000000000 ) ) ;
#174 = AXIS2_PLACEMENT_3D ( 'NONE', #178, #366, #215 ) ;
#175 = ORIENTED_EDGE ( 'NONE', *, *, #168, .T. ) ;
#176 = DIRECTION ( 'NONE',  ( 0.0000000000000000000, 0.0000000000000000000, -1.000000000000000000 ) ) ;
#177 = APPLICATION_CONTEXT ( 'automotive_design' ) ;
#178 = CARTESIAN_POINT ( 'NONE',  ( 0.0000000000000000000, 0.0000000000000000000, 0.0000000000000000000 ) ) ;
#179 = EDGE_CURVE ( 'NONE', #286, #26, #276, .T. ) ;
#180 = DIRECTION ( 'NONE',  ( 0.0000000000000000000, -1.000000000000000000, -0.0000000000000000000 ) ) ;
#181 = PLANE ( 'NONE',  #84 ) ;
#182 = VERTEX_POINT ( 'NONE', #344 ) ;
#183 = FACE_OUTER_BOUND ( 'NONE', #289, .T. ) ;
#184 = ADVANCED_FACE ( 'NONE', ( #7 ), #11, .T. ) ;
#185 = CARTESIAN_POINT ( 'NONE',  ( 0.0000000000000000000, 0.0000000000000000000, 0.0000000000000000000 ) ) ;
#186 = CARTESIAN_POINT ( 'NONE',  ( 0.0000000000000000000, 0.0000000000000000000, 0.4999999999999987200 ) ) ;
#187 = AXIS2_PLACEMENT_3D ( 'NONE', #228, #225, #107 ) ;
#188 = ORIENTED_EDGE ( 'NONE', *, *, #6, .T. ) ;
#189 = EDGE_LOOP ( 'NONE', ( #175, #94, #43, #109 ) ) ;
#190 = LINE ( 'NONE', #254, #257 ) ;
#191 = FACE_OUTER_BOUND ( 'NONE', #127, .T. ) ;
#192 = CIRCLE ( 'NONE', #236, 1.000000000000000000 ) ;
#193 = AXIS2_PLACEMENT_3D ( 'NONE', #269, #98, #306 ) ;
#194 = ORIENTED_EDGE ( 'NONE', *, *, #279, .F. ) ;
#195 = AXIS2_PLACEMENT_3D ( 'NONE', #166, #93, #270 ) ;
#196 = FILL_AREA_STYLE ('',( #359 ) ) ;
#197 = ORIENTED_EDGE ( 'NONE', *, *, #136, .F. ) ;
#198 = DIRECTION ( 'NONE',  ( -0.0000000000000000000, -1.000000000000000000, -0.0000000000000000000 ) ) ;
#199 = DIRECTION ( 'NONE',  ( 0.0000000000000000000, 0.0000000000000000000, -1.000000000000000000 ) ) ;
#200 = AXIS2_PLACEMENT_3D ( 'NONE', #362, #355, #149 ) ;
#201 = CARTESIAN_POINT ( 'NONE',  ( 5.832252641663945100E-017, 13.39999999999999900, -0.4762395692965993300 ) ) ;
#202 = CARTESIAN_POINT ( 'NONE',  ( 1.224646799147353200E-016, 6.999999999999999100, 1.000000000000000000 ) ) ;
#203 = LINE ( 'NONE', #212, #137 ) ;
#204 = CARTESIAN_POINT ( 'NONE',  ( 0.0000000000000000000, 6.999999999999999100, 0.0000000000000000000 ) ) ;
#205 = SURFACE_SIDE_STYLE ('',( #18 ) ) ;
#206 = ORIENTED_EDGE ( 'NONE', *, *, #305, .F. ) ;
#207 = DIRECTION ( 'NONE',  ( 0.0000000000000000000, 1.000000000000000000, 0.0000000000000000000 ) ) ;
#208 = EDGE_LOOP ( 'NONE', ( #294, #188 ) ) ;
#209 = DIRECTION ( 'NONE',  ( 0.0000000000000000000, -1.000000000000000000, -0.0000000000000000000 ) ) ;
#210 = PRESENTATION_STYLE_ASSIGNMENT (( #264 ) ) ;
#211 = EDGE_CURVE ( 'NONE', #318, #182, #320, .T. ) ;
#212 = CARTESIAN_POINT ( 'NONE',  ( 6.123233995736750000E-017, 0.0000000000000000000, -0.4999999999999987200 ) ) ;
#213 =( NAMED_UNIT ( * ) PLANE_ANGLE_UNIT ( ) SI_UNIT ( $, .RADIAN. ) );
#214 = CARTESIAN_POINT ( 'NONE',  ( 0.0000000000000000000, 0.5000000000000030000, 0.0000000000000000000 ) ) ;
#215 = DIRECTION ( 'NONE',  ( 1.000000000000000000, 0.0000000000000000000, 0.0000000000000000000 ) ) ;
#216 = PRODUCT_DEFINITION_FORMATION_WITH_SPECIFIED_SOURCE ( 'ANY', '', #217, .NOT_KNOWN. ) ;
#217 = PRODUCT ( '38883~0', '38883~0', '', ( #365 ) ) ;
#218 = VERTEX_POINT ( 'NONE', #244 ) ;
#219 = UNCERTAINTY_MEASURE_WITH_UNIT (LENGTH_MEASURE( 1.000000000000000100E-005 ), #71, 'distance_accuracy_value', 'NONE');
#220 = CARTESIAN_POINT ( 'NONE',  ( 0.0000000000000000000, 0.0000000000000000000, 0.0000000000000000000 ) ) ;
#221 = VECTOR ( 'NONE', #246, 999.9999999999998900 ) ;
#222 = CARTESIAN_POINT ( 'NONE',  ( 0.0000000000000000000, 0.0000000000000000000, 0.0000000000000000000 ) ) ;
#223 = ADVANCED_FACE ( 'NONE', ( #248, #358 ), #172, .T. ) ;
#224 = VERTEX_POINT ( 'NONE', #146 ) ;
#225 = DIRECTION ( 'NONE',  ( -0.0000000000000000000, -1.000000000000000000, -0.0000000000000000000 ) ) ;
#226 = ORIENTED_EDGE ( 'NONE', *, *, #168, .F. ) ;
#227 = CONICAL_SURFACE ( 'NONE', #309, 1.399999999999999900, 0.5235987755983002600 ) ;
#228 = CARTESIAN_POINT ( 'NONE',  ( 0.0000000000000000000, 7.000000000000000000, 0.0000000000000000000 ) ) ;
#229 = ADVANCED_FACE ( 'NONE', ( #96 ), #334, .T. ) ;
#230 = ORIENTED_EDGE ( 'NONE', *, *, #2, .T. ) ;
#231 = CIRCLE ( 'NONE', #66, 1.000000000000000000 ) ;
#232 = AXIS2_PLACEMENT_3D ( 'NONE', #12, #332, #272 ) ;
#233 = VECTOR ( 'NONE', #283, 1000.000000000000000 ) ;
#234 = ORIENTED_EDGE ( 'NONE', *, *, #103, .F. ) ;
#235 = CIRCLE ( 'NONE', #195, 0.4762395692965993300 ) ;
#236 = AXIS2_PLACEMENT_3D ( 'NONE', #50, #82, #29 ) ;
#237 = ORIENTED_EDGE ( 'NONE', *, *, #211, .F. ) ;
#238 = SURFACE_SIDE_STYLE ('',( #291 ) ) ;
#239 = ORIENTED_EDGE ( 'NONE', *, *, #59, .F. ) ;
#240 = DIRECTION ( 'NONE',  ( 0.0000000000000000000, 0.0000000000000000000, -1.000000000000000000 ) ) ;
#241 = DIRECTION ( 'NONE',  ( 0.0000000000000000000, 1.000000000000000000, 0.0000000000000000000 ) ) ;
#242 = ORIENTED_EDGE ( 'NONE', *, *, #30, .T. ) ;
#243 = TOROIDAL_SURFACE ( 'NONE', #102, 0.4762395692965993300, 0.5999999999999999800 ) ;
#244 = CARTESIAN_POINT ( 'NONE',  ( 0.0000000000000000000, 7.000000000000000000, -1.399999999999999900 ) ) ;
#245 = CARTESIAN_POINT ( 'NONE',  ( 0.0000000000000000000, 13.69999999999999900, -0.9958548115672621900 ) ) ;
#246 = DIRECTION ( 'NONE',  ( 6.123233995736782100E-017, -0.8660254037844380400, 0.5000000000000012200 ) ) ;
#247 = DIRECTION ( 'NONE',  ( 0.0000000000000000000, 0.0000000000000000000, -1.000000000000000000 ) ) ;
#248 = FACE_OUTER_BOUND ( 'NONE', #154, .T. ) ;
#249 = ADVANCED_FACE ( 'NONE', ( #266 ), #152, .T. ) ;
#250 = EDGE_LOOP ( 'NONE', ( #52, #342, #1, #275 ) ) ;
#251 = AXIS2_PLACEMENT_3D ( 'NONE', #70, #145, #123 ) ;
#252 = ORIENTED_EDGE ( 'NONE', *, *, #351, .T. ) ;
#253 = CARTESIAN_POINT ( 'NONE',  ( 1.714505518806294400E-016, 13.00000000000000200, 1.399999999999999900 ) ) ;
#254 = CARTESIAN_POINT ( 'NONE',  ( 0.0000000000000000000, 0.0000000000000000000, -1.000000000000000000 ) ) ;
#255 = ADVANCED_FACE ( 'NONE', ( #32 ), #227, .T. ) ;
#256 = DIRECTION ( 'NONE',  ( -0.0000000000000000000, -1.000000000000000000, -0.0000000000000000000 ) ) ;
#257 = VECTOR ( 'NONE', #256, 1000.000000000000000 ) ;
#258 = EDGE_CURVE ( 'NONE', #24, #286, #231, .T. ) ;
#259 = ORIENTED_EDGE ( 'NONE', *, *, #297, .T. ) ;
#260 = EDGE_CURVE ( 'NONE', #134, #111, #28, .T. ) ;
#261 = ORIENTED_EDGE ( 'NONE', *, *, #33, .F. ) ;
#262 = APPLICATION_CONTEXT ( 'automotive_design' ) ;
#263 = DIRECTION ( 'NONE',  ( 0.0000000000000000000, 0.0000000000000000000, 1.000000000000000000 ) ) ;
#264 = SURFACE_STYLE_USAGE ( .BOTH. , #238 ) ;
#265 = MECHANICAL_DESIGN_GEOMETRIC_PRESENTATION_REPRESENTATION (  '', ( #323 ), #341 ) ;
#266 = FACE_OUTER_BOUND ( 'NONE', #350, .T. ) ;
#267 = CARTESIAN_POINT ( 'NONE',  ( 0.0000000000000000000, 13.39999999999999900, 0.0000000000000000000 ) ) ;
#268 = CARTESIAN_POINT ( 'NONE',  ( 0.0000000000000000000, 0.5000000000000030000, -1.000000000000000000 ) ) ;
#269 = CARTESIAN_POINT ( 'NONE',  ( 0.0000000000000000000, 0.0000000000000000000, 0.0000000000000000000 ) ) ;
#270 = DIRECTION ( 'NONE',  ( 0.0000000000000000000, 0.0000000000000000000, 1.000000000000000000 ) ) ;
#271 = EDGE_LOOP ( 'NONE', ( #122, #38, #113, #239 ) ) ;
#272 = DIRECTION ( 'NONE',  ( 0.0000000000000000000, 0.0000000000000000000, -1.000000000000000000 ) ) ;
#273 = EDGE_CURVE ( 'NONE', #161, #318, #135, .T. ) ;
#274 =( LENGTH_UNIT ( ) NAMED_UNIT ( * ) SI_UNIT ( .MILLI., .METRE. ) );
#275 = ORIENTED_EDGE ( 'NONE', *, *, #115, .F. ) ;
#276 = LINE ( 'NONE', #321, #8 ) ;
#277 = DIRECTION ( 'NONE',  ( 0.0000000000000000000, 0.0000000000000000000, 1.000000000000000000 ) ) ;
#278 = FACE_OUTER_BOUND ( 'NONE', #250, .T. ) ;
#279 = EDGE_CURVE ( 'NONE', #286, #24, #128, .T. ) ;
#280 = ADVANCED_FACE ( 'NONE', ( #328 ), #243, .T. ) ;
#281 = CARTESIAN_POINT ( 'NONE',  ( 0.0000000000000000000, 13.99999999999999800, 0.4762395692965993300 ) ) ;
#282 = ADVANCED_FACE ( 'NONE', ( #278 ), #324, .T. ) ;
#283 = DIRECTION ( 'NONE',  ( -0.0000000000000000000, -1.000000000000000000, -0.0000000000000000000 ) ) ;
#284 = EDGE_CURVE ( 'NONE', #134, #26, #343, .T. ) ;
#285 = DIRECTION ( 'NONE',  ( 0.0000000000000000000, 0.0000000000000000000, 1.000000000000000000 ) ) ;
#286 = VERTEX_POINT ( 'NONE', #202 ) ;
#287 = ADVANCED_FACE ( 'NONE', ( #183 ), #165, .T. ) ;
#288 = AXIS2_PLACEMENT_3D ( 'NONE', #338, #207, #64 ) ;
#289 = EDGE_LOOP ( 'NONE', ( #237, #116, #369, #206 ) ) ;
#290 = UNCERTAINTY_MEASURE_WITH_UNIT (LENGTH_MEASURE( 1.000000000000000100E-005 ), #40, 'distance_accuracy_value', 'NONE');
#291 = SURFACE_STYLE_FILL_AREA ( #353 ) ;
#292 = AXIS2_PLACEMENT_3D ( 'NONE', #333, #140, #16 ) ;
#293 = CIRCLE ( 'NONE', #150, 1.399999999999999900 ) ;
#294 = ORIENTED_EDGE ( 'NONE', *, *, #260, .T. ) ;
#295 = ORIENTED_EDGE ( 'NONE', *, *, #273, .T. ) ;
#296 = CIRCLE ( 'NONE', #292, 0.9958548115672621900 ) ;
#297 = EDGE_CURVE ( 'NONE', #69, #9, #314, .T. ) ;
#298 = AXIS2_PLACEMENT_3D ( 'NONE', #132, #65, #304 ) ;
#299 = ORIENTED_EDGE ( 'NONE', *, *, #211, .T. ) ;
#300 = APPLICATION_PROTOCOL_DEFINITION ( 'draft international standard', 'automotive_design', 1998, #262 ) ;
#301 = DIRECTION ( 'NONE',  ( 0.0000000000000000000, 0.0000000000000000000, -1.000000000000000000 ) ) ;
#302 = DIRECTION ( 'NONE',  ( 0.0000000000000000000, -0.0000000000000000000, 1.000000000000000000 ) ) ;
#303 = ORIENTED_EDGE ( 'NONE', *, *, #297, .F. ) ;
#304 = DIRECTION ( 'NONE',  ( 0.0000000000000000000, 0.0000000000000000000, -1.000000000000000000 ) ) ;
#305 = EDGE_CURVE ( 'NONE', #182, #34, #235, .T. ) ;
#306 = DIRECTION ( 'NONE',  ( 0.0000000000000000000, 0.0000000000000000000, -1.000000000000000000 ) ) ;
#307 =( NAMED_UNIT ( * ) SI_UNIT ( $, .STERADIAN. ) SOLID_ANGLE_UNIT ( ) );
#308 = FACE_OUTER_BOUND ( 'NONE', #208, .T. ) ;
#309 = AXIS2_PLACEMENT_3D ( 'NONE', #117, #357, #360 ) ;
#310 = PRODUCT_DEFINITION_CONTEXT ( 'detailed design', #177, 'design' ) ;
#311 = CIRCLE ( 'NONE', #187, 1.399999999999999900 ) ;
#312 = DIRECTION ( 'NONE',  ( 8.659560562354918100E-017, 0.7071067811865487900, -0.7071067811865463500 ) ) ;
#313 = EDGE_LOOP ( 'NONE', ( #129, #348, #88, #60 ) ) ;
#314 = CIRCLE ( 'NONE', #200, 1.399999999999999900 ) ;
#315 = VERTEX_POINT ( 'NONE', #268 ) ;
#316 = DIRECTION ( 'NONE',  ( -0.0000000000000000000, -1.000000000000000000, -0.0000000000000000000 ) ) ;
#317 = ADVANCED_FACE ( 'NONE', ( #163 ), #112, .T. ) ;
#318 = VERTEX_POINT ( 'NONE', #245 ) ;
#319 = DIRECTION ( 'NONE',  ( -0.0000000000000000000, -1.000000000000000000, -0.0000000000000000000 ) ) ;
#320 = CIRCLE ( 'NONE', #160, 0.6000000000000000900 ) ;
#321 = CARTESIAN_POINT ( 'NONE',  ( 1.224646799147353200E-016, 0.0000000000000000000, 1.000000000000000000 ) ) ;
#322 = ORIENTED_EDGE ( 'NONE', *, *, #35, .T. ) ;
#323 = STYLED_ITEM ( 'NONE', ( #89 ), #371 ) ;
#324 = CONICAL_SURFACE ( 'NONE', #288, 0.4999999999999987200, 0.7853981633974466100 ) ;
#325 = EDGE_LOOP ( 'NONE', ( #331, #299, #170, #5 ) ) ;
#326 = EDGE_CURVE ( 'NONE', #9, #218, #141, .T. ) ;
#327 = ORIENTED_EDGE ( 'NONE', *, *, #363, .F. ) ;
#328 = FACE_OUTER_BOUND ( 'NONE', #325, .T. ) ;
#329 = PLANE ( 'NONE',  #349 ) ;
#330 = DIRECTION ( 'NONE',  ( 0.0000000000000000000, 0.7071067811865487900, 0.7071067811865463500 ) ) ;
#331 = ORIENTED_EDGE ( 'NONE', *, *, #351, .F. ) ;
#332 = DIRECTION ( 'NONE',  ( -0.0000000000000000000, -1.000000000000000000, -0.0000000000000000000 ) ) ;
#333 = CARTESIAN_POINT ( 'NONE',  ( 0.0000000000000000000, 13.69999999999999900, 0.0000000000000000000 ) ) ;
#334 = CYLINDRICAL_SURFACE ( 'NONE', #232, 1.000000000000000000 ) ;
#335 = DIRECTION ( 'NONE',  ( 0.0000000000000000000, 0.0000000000000000000, 1.000000000000000000 ) ) ;
#336 = DIRECTION ( 'NONE',  ( 0.0000000000000000000, -0.8660254037844380400, -0.5000000000000012200 ) ) ;
#337 = CARTESIAN_POINT ( 'NONE',  ( 0.0000000000000000000, 13.39999999999999900, 0.0000000000000000000 ) ) ;
#338 = CARTESIAN_POINT ( 'NONE',  ( 0.0000000000000000000, 0.0000000000000000000, 0.0000000000000000000 ) ) ;
#339 = AXIS2_PLACEMENT_3D ( 'NONE', #368, #153, #370 ) ;
#340 = ADVANCED_FACE ( 'NONE', ( #191 ), #329, .T. ) ;
#341 =( GEOMETRIC_REPRESENTATION_CONTEXT ( 3 ) GLOBAL_UNCERTAINTY_ASSIGNED_CONTEXT ( ( #290 ) ) GLOBAL_UNIT_ASSIGNED_CONTEXT ( ( #40, #97, #68 ) ) REPRESENTATION_CONTEXT ( 'NONE', 'WORKASPACE' ) );
#342 = ORIENTED_EDGE ( 'NONE', *, *, #260, .F. ) ;
#343 = LINE ( 'NONE', #14, #157 ) ;
#344 = CARTESIAN_POINT ( 'NONE',  ( 9.013978357838663600E-017, 13.99999999999999800, -0.4762395692965993300 ) ) ;
#345 = AXIS2_PLACEMENT_3D ( 'NONE', #81, #79, #277 ) ;
#346 = ORIENTED_EDGE ( 'NONE', *, *, #326, .T. ) ;
#347 = LINE ( 'NONE', #125, #221 ) ;
#348 = ORIENTED_EDGE ( 'NONE', *, *, #279, .T. ) ;
#349 = AXIS2_PLACEMENT_3D ( 'NONE', #147, #118, #302 ) ;
#350 = EDGE_LOOP ( 'NONE', ( #20, #322, #261, #104 ) ) ;
#351 = EDGE_CURVE ( 'NONE', #318, #161, #296, .T. ) ;
#352 = PRODUCT_DEFINITION_SHAPE ( 'NONE', 'NONE',  #4 ) ;
#353 = FILL_AREA_STYLE ('',( #13 ) ) ;
#354 = STYLED_ITEM ( 'NONE', ( #210 ), #144 ) ;
#355 = DIRECTION ( 'NONE',  ( -0.0000000000000000000, -1.000000000000000000, -0.0000000000000000000 ) ) ;
#356 = ORIENTED_EDGE ( 'NONE', *, *, #103, .T. ) ;
#357 = DIRECTION ( 'NONE',  ( -0.0000000000000000000, -1.000000000000000000, -0.0000000000000000000 ) ) ;
#358 = FACE_BOUND ( 'NONE', #62, .T. ) ;
#359 = FILL_AREA_STYLE_COLOUR ( '', #90 ) ;
#360 = DIRECTION ( 'NONE',  ( 0.0000000000000000000, 0.0000000000000000000, -1.000000000000000000 ) ) ;
#361 = DIRECTION ( 'NONE',  ( 0.0000000000000000000, 0.0000000000000000000, -1.000000000000000000 ) ) ;
#362 = CARTESIAN_POINT ( 'NONE',  ( 0.0000000000000000000, 13.00000000000000200, 0.0000000000000000000 ) ) ;
#363 = EDGE_CURVE ( 'NONE', #318, #9, #57, .T. ) ;
#364 = ORIENTED_EDGE ( 'NONE', *, *, #305, .T. ) ;
#365 = PRODUCT_CONTEXT ( 'NONE', #262, 'mechanical' ) ;
#366 = DIRECTION ( 'NONE',  ( 0.0000000000000000000, 0.0000000000000000000, 1.000000000000000000 ) ) ;
#367 =( NAMED_UNIT ( * ) SI_UNIT ( $, .STERADIAN. ) SOLID_ANGLE_UNIT ( ) );
#368 = CARTESIAN_POINT ( 'NONE',  ( 0.0000000000000000000, 0.0000000000000000000, 0.0000000000000000000 ) ) ;
#369 = ORIENTED_EDGE ( 'NONE', *, *, #54, .T. ) ;
#370 = DIRECTION ( 'NONE',  ( 0.0000000000000000000, 0.0000000000000000000, -1.000000000000000000 ) ) ;
#371 = MANIFOLD_SOLID_BREP ( 'Verrundung1', #162 ) ;
#372 = DIRECTION ( 'NONE',  ( 0.0000000000000000000, 0.0000000000000000000, -1.000000000000000000 ) ) ;
ENDSEC;
END-ISO-10303-21;
