ISO-10303-21;
HEADER;
FILE_DESCRIPTION (( 'STEP AP214' ),
    '1' );
FILE_NAME ('38880~0.STEP',
    '2017-07-04T08:57:11',
    ( '' ),
    ( '' ),
    'SwSTEP 2.0',
    'SolidWorks 2016',
    '' );
FILE_SCHEMA (( 'AUTOMOTIVE_DESIGN' ));
ENDSEC;

DATA;
#1 = CIRCLE ( 'NONE', #324, 0.4999999999999987200 ) ;
#2 = VERTEX_POINT ( 'NONE', #228 ) ;
#3 = AXIS2_PLACEMENT_3D ( 'NONE', #203, #30, #233 ) ;
#4 = LINE ( 'NONE', #8, #128 ) ;
#5 = ORIENTED_EDGE ( 'NONE', *, *, #9, .T. ) ;
#6 = ORIENTED_EDGE ( 'NONE', *, *, #138, .T. ) ;
#7 = ORIENTED_EDGE ( 'NONE', *, *, #90, .T. ) ;
#8 = CARTESIAN_POINT ( 'NONE',  ( 0.0000000000000000000, 0.0000000000000000000, 0.4999999999999987200 ) ) ;
#9 = EDGE_CURVE ( 'NONE', #231, #97, #179, .T. ) ;
#10 = CARTESIAN_POINT ( 'NONE',  ( 0.0000000000000000000, 0.0000000000000000000, 0.0000000000000000000 ) ) ;
#11 = AXIS2_PLACEMENT_3D ( 'NONE', #197, #311, #104 ) ;
#12 = DIRECTION ( 'NONE',  ( -1.000000000000000000, 0.0000000000000000000, 0.0000000000000000000 ) ) ;
#13 = CONICAL_SURFACE ( 'NONE', #21, 1.250000000000000000, 0.5235987755983002600 ) ;
#14 = VERTEX_POINT ( 'NONE', #334 ) ;
#15 = DIRECTION ( 'NONE',  ( 0.0000000000000000000, 0.0000000000000000000, -1.000000000000000000 ) ) ;
#16 = DIRECTION ( 'NONE',  ( 0.0000000000000000000, 1.000000000000000000, 0.0000000000000000000 ) ) ;
#17 = UNCERTAINTY_MEASURE_WITH_UNIT (LENGTH_MEASURE( 1.000000000000000100E-005 ), #155, 'distance_accuracy_value', 'NONE');
#18 = ORIENTED_EDGE ( 'NONE', *, *, #268, .T. ) ;
#19 = DIRECTION ( 'NONE',  ( 0.0000000000000000000, 0.0000000000000000000, -1.000000000000000000 ) ) ;
#20 = DIRECTION ( 'NONE',  ( 0.0000000000000000000, 0.0000000000000000000, -1.000000000000000000 ) ) ;
#21 = AXIS2_PLACEMENT_3D ( 'NONE', #108, #229, #84 ) ;
#22 = CARTESIAN_POINT ( 'NONE',  ( 0.0000000000000000000, 7.000000000000000000, -1.250000000000000000 ) ) ;
#23 = DIRECTION ( 'NONE',  ( 0.0000000000000000000, -1.000000000000000000, -0.0000000000000000000 ) ) ;
#24 = ADVANCED_FACE ( 'NONE', ( #288 ), #196, .T. ) ;
#25 = DIRECTION ( 'NONE',  ( -0.0000000000000000000, -1.000000000000000000, -0.0000000000000000000 ) ) ;
#26 = FACE_OUTER_BOUND ( 'NONE', #341, .T. ) ;
#27 = ORIENTED_EDGE ( 'NONE', *, *, #65, .F. ) ;
#28 = APPLICATION_CONTEXT ( 'automotive_design' ) ;
#29 = DIRECTION ( 'NONE',  ( -0.0000000000000000000, -1.000000000000000000, -0.0000000000000000000 ) ) ;
#30 = DIRECTION ( 'NONE',  ( -0.0000000000000000000, -1.000000000000000000, -0.0000000000000000000 ) ) ;
#31 = CIRCLE ( 'NONE', #270, 1.250000000000000000 ) ;
#32 =( NAMED_UNIT ( * ) PLANE_ANGLE_UNIT ( ) SI_UNIT ( $, .RADIAN. ) );
#33 = EDGE_CURVE ( 'NONE', #14, #2, #204, .T. ) ;
#34 = LINE ( 'NONE', #44, #144 ) ;
#35 =( GEOMETRIC_REPRESENTATION_CONTEXT ( 3 ) GLOBAL_UNCERTAINTY_ASSIGNED_CONTEXT ( ( #249 ) ) GLOBAL_UNIT_ASSIGNED_CONTEXT ( ( #113, #32, #315 ) ) REPRESENTATION_CONTEXT ( 'NONE', 'WORKASPACE' ) );
#36 = TOROIDAL_SURFACE ( 'NONE', #80, 0.3262395692965994200, 0.5999999999999999800 ) ;
#37 = ORIENTED_EDGE ( 'NONE', *, *, #344, .T. ) ;
#38 = AXIS2_PLACEMENT_3D ( 'NONE', #163, #195, #365 ) ;
#39 = SURFACE_SIDE_STYLE ('',( #218 ) ) ;
#40 = SURFACE_STYLE_FILL_AREA ( #82 ) ;
#41 = ORIENTED_EDGE ( 'NONE', *, *, #169, .T. ) ;
#42 = DIRECTION ( 'NONE',  ( 0.0000000000000000000, 0.0000000000000000000, -1.000000000000000000 ) ) ;
#43 = CARTESIAN_POINT ( 'NONE',  ( 1.224646799147353200E-016, 6.999999999999999100, 1.000000000000000000 ) ) ;
#44 = CARTESIAN_POINT ( 'NONE',  ( 6.123233995736750000E-017, 0.0000000000000000000, -0.4999999999999987200 ) ) ;
#45 = ORIENTED_EDGE ( 'NONE', *, *, #121, .F. ) ;
#46 = ORIENTED_EDGE ( 'NONE', *, *, #9, .F. ) ;
#47 = DIRECTION ( 'NONE',  ( 0.0000000000000000000, 0.0000000000000000000, -1.000000000000000000 ) ) ;
#48 = ADVANCED_FACE ( 'NONE', ( #26 ), #36, .T. ) ;
#49 = AXIS2_PLACEMENT_3D ( 'NONE', #214, #16, #354 ) ;
#50 = CARTESIAN_POINT ( 'NONE',  ( 0.0000000000000000000, 0.0000000000000000000, 0.0000000000000000000 ) ) ;
#51 = DIRECTION ( 'NONE',  ( 0.0000000000000000000, 0.0000000000000000000, 1.000000000000000000 ) ) ;
#52 = CARTESIAN_POINT ( 'NONE',  ( 0.0000000000000000000, 13.99999999999999800, 0.3262395692965994200 ) ) ;
#53 = EDGE_CURVE ( 'NONE', #207, #73, #200, .T. ) ;
#54 = FACE_OUTER_BOUND ( 'NONE', #273, .T. ) ;
#55 = COLOUR_RGB ( '',0.7529411764705882200, 0.7529411764705882200, 0.7529411764705882200 ) ;
#56 = DIRECTION ( 'NONE',  ( 0.0000000000000000000, 1.000000000000000000, 0.0000000000000000000 ) ) ;
#57 = DIRECTION ( 'NONE',  ( 0.0000000000000000000, 0.0000000000000000000, -1.000000000000000000 ) ) ;
#58 = AXIS2_PLACEMENT_3D ( 'NONE', #332, #107, #127 ) ;
#59 = CARTESIAN_POINT ( 'NONE',  ( 0.0000000000000000000, 0.5000000000000030000, 0.0000000000000000000 ) ) ;
#60 = ORIENTED_EDGE ( 'NONE', *, *, #121, .T. ) ;
#61 = DIRECTION ( 'NONE',  ( 0.0000000000000000000, 1.000000000000000000, 0.0000000000000000000 ) ) ;
#62 = CIRCLE ( 'NONE', #215, 1.000000000000000000 ) ;
#63 = ORIENTED_EDGE ( 'NONE', *, *, #87, .F. ) ;
#64 = PRESENTATION_STYLE_ASSIGNMENT (( #99 ) ) ;
#65 = EDGE_CURVE ( 'NONE', #213, #192, #182, .T. ) ;
#66 = AXIS2_PLACEMENT_3D ( 'NONE', #222, #56, #254 ) ;
#67 = ORIENTED_EDGE ( 'NONE', *, *, #138, .F. ) ;
#68 = CARTESIAN_POINT ( 'NONE',  ( 0.0000000000000000000, 0.5000000000000030000, -1.000000000000000000 ) ) ;
#69 = EDGE_CURVE ( 'NONE', #14, #231, #175, .T. ) ;
#70 = MECHANICAL_DESIGN_GEOMETRIC_PRESENTATION_REPRESENTATION (  '', ( #115 ), #199 ) ;
#71 = DIRECTION ( 'NONE',  ( 0.0000000000000000000, 0.7071067811865487900, 0.7071067811865463500 ) ) ;
#72 = VECTOR ( 'NONE', #338, 1000.000000000000000 ) ;
#73 = VERTEX_POINT ( 'NONE', #22 ) ;
#74 = AXIS2_PLACEMENT_3D ( 'NONE', #306, #125, #126 ) ;
#75 = CARTESIAN_POINT ( 'NONE',  ( 0.0000000000000000000, 13.00000000000000200, 0.0000000000000000000 ) ) ;
#76 = CARTESIAN_POINT ( 'NONE',  ( 3.995282442942916300E-017, 13.39999999999999900, -0.3262395692965994200 ) ) ;
#77 = CARTESIAN_POINT ( 'NONE',  ( 0.0000000000000000000, 0.0000000000000000000, 0.0000000000000000000 ) ) ;
#78 = ADVANCED_FACE ( 'NONE', ( #316 ), #85, .T. ) ;
#79 = CARTESIAN_POINT ( 'NONE',  ( 0.0000000000000000000, 0.0000000000000000000, 0.0000000000000000000 ) ) ;
#80 = AXIS2_PLACEMENT_3D ( 'NONE', #226, #304, #51 ) ;
#81 = CARTESIAN_POINT ( 'NONE',  ( 1.530808498934191600E-016, 13.00000000000000200, 1.250000000000000000 ) ) ;
#82 = FILL_AREA_STYLE ('',( #223 ) ) ;
#83 = SHAPE_DEFINITION_REPRESENTATION ( #363, #236 ) ;
#84 = DIRECTION ( 'NONE',  ( 0.0000000000000000000, 0.0000000000000000000, -1.000000000000000000 ) ) ;
#85 = CYLINDRICAL_SURFACE ( 'NONE', #206, 1.250000000000000000 ) ;
#86 = SURFACE_SIDE_STYLE ('',( #40 ) ) ;
#87 = EDGE_CURVE ( 'NONE', #209, #213, #347, .T. ) ;
#88 = DIRECTION ( 'NONE',  ( 1.000000000000000000, 0.0000000000000000000, 0.0000000000000000000 ) ) ;
#89 = AXIS2_PLACEMENT_3D ( 'NONE', #282, #29, #174 ) ;
#90 = EDGE_CURVE ( 'NONE', #2, #329, #261, .T. ) ;
#91 = CONICAL_SURFACE ( 'NONE', #305, 0.4999999999999987200, 0.7853981633974466100 ) ;
#92 = VECTOR ( 'NONE', #312, 1000.000000000000000 ) ;
#93 = AXIS2_PLACEMENT_3D ( 'NONE', #153, #269, #353 ) ;
#94 = ORIENTED_EDGE ( 'NONE', *, *, #187, .F. ) ;
#95 = PRODUCT ( '38880~0', '38880~0', '', ( #235 ) ) ;
#96 = EDGE_LOOP ( 'NONE', ( #294, #317 ) ) ;
#97 = VERTEX_POINT ( 'NONE', #287 ) ;
#98 = DIRECTION ( 'NONE',  ( 0.0000000000000000000, 0.0000000000000000000, 1.000000000000000000 ) ) ;
#99 = SURFACE_STYLE_USAGE ( .BOTH. , #39 ) ;
#100 =( NAMED_UNIT ( * ) SI_UNIT ( $, .STERADIAN. ) SOLID_ANGLE_UNIT ( ) );
#101 = LINE ( 'NONE', #109, #246 ) ;
#102 = ORIENTED_EDGE ( 'NONE', *, *, #211, .F. ) ;
#103 = CARTESIAN_POINT ( 'NONE',  ( 0.0000000000000000000, 6.999999999999999100, 0.0000000000000000000 ) ) ;
#104 = DIRECTION ( 'NONE',  ( 0.0000000000000000000, 0.0000000000000000000, -1.000000000000000000 ) ) ;
#105 = ADVANCED_FACE ( 'NONE', ( #183 ), #302, .T. ) ;
#106 = CARTESIAN_POINT ( 'NONE',  ( 0.0000000000000000000, 0.5000000000000030000, 0.0000000000000000000 ) ) ;
#107 = DIRECTION ( 'NONE',  ( -0.0000000000000000000, -1.000000000000000000, -0.0000000000000000000 ) ) ;
#108 = CARTESIAN_POINT ( 'NONE',  ( 0.0000000000000000000, 13.00000000000000200, 0.0000000000000000000 ) ) ;
#109 = CARTESIAN_POINT ( 'NONE',  ( 0.0000000000000000000, 13.00000000000000200, -1.250000000000000000 ) ) ;
#110 = DIRECTION ( 'NONE',  ( -0.0000000000000000000, -1.000000000000000000, -0.0000000000000000000 ) ) ;
#111 =( GEOMETRIC_REPRESENTATION_CONTEXT ( 3 ) GLOBAL_UNCERTAINTY_ASSIGNED_CONTEXT ( ( #221 ) ) GLOBAL_UNIT_ASSIGNED_CONTEXT ( ( #201, #275, #100 ) ) REPRESENTATION_CONTEXT ( 'NONE', 'WORKASPACE' ) );
#112 = ORIENTED_EDGE ( 'NONE', *, *, #211, .T. ) ;
#113 =( LENGTH_UNIT ( ) NAMED_UNIT ( * ) SI_UNIT ( .MILLI., .METRE. ) );
#114 = ORIENTED_EDGE ( 'NONE', *, *, #322, .F. ) ;
#115 = STYLED_ITEM ( 'NONE', ( #64 ), #194 ) ;
#116 = CYLINDRICAL_SURFACE ( 'NONE', #140, 1.000000000000000000 ) ;
#117 = VECTOR ( 'NONE', #310, 1000.000000000000000 ) ;
#118 = ORIENTED_EDGE ( 'NONE', *, *, #255, .F. ) ;
#119 = DIRECTION ( 'NONE',  ( -0.0000000000000000000, -1.000000000000000000, -0.0000000000000000000 ) ) ;
#120 = ORIENTED_EDGE ( 'NONE', *, *, #69, .F. ) ;
#121 = EDGE_CURVE ( 'NONE', #192, #213, #351, .T. ) ;
#122 = PRESENTATION_STYLE_ASSIGNMENT (( #202 ) ) ;
#123 = ORIENTED_EDGE ( 'NONE', *, *, #344, .F. ) ;
#124 = EDGE_LOOP ( 'NONE', ( #63, #184, #227, #60 ) ) ;
#125 = DIRECTION ( 'NONE',  ( 0.0000000000000000000, 1.000000000000000000, 0.0000000000000000000 ) ) ;
#126 = DIRECTION ( 'NONE',  ( 0.0000000000000000000, -0.0000000000000000000, 1.000000000000000000 ) ) ;
#127 = DIRECTION ( 'NONE',  ( 0.0000000000000000000, 0.0000000000000000000, -1.000000000000000000 ) ) ;
#128 = VECTOR ( 'NONE', #71, 1000.000000000000000 ) ;
#129 = DIRECTION ( 'NONE',  ( -0.0000000000000000000, -1.000000000000000000, -0.0000000000000000000 ) ) ;
#130 = PRODUCT_DEFINITION_CONTEXT ( 'detailed design', #178, 'design' ) ;
#131 = ORIENTED_EDGE ( 'NONE', *, *, #169, .F. ) ;
#132 = CARTESIAN_POINT ( 'NONE',  ( 0.0000000000000000000, 6.999999999999999100, 0.0000000000000000000 ) ) ;
#133 = ADVANCED_FACE ( 'NONE', ( #230 ), #13, .T. ) ;
#134 = DIRECTION ( 'NONE',  ( 0.0000000000000000000, 0.0000000000000000000, 1.000000000000000000 ) ) ;
#135 = CIRCLE ( 'NONE', #263, 1.000000000000000000 ) ;
#136 = FACE_OUTER_BOUND ( 'NONE', #262, .T. ) ;
#137 = DIRECTION ( 'NONE',  ( 0.0000000000000000000, 0.0000000000000000000, -1.000000000000000000 ) ) ;
#138 = EDGE_CURVE ( 'NONE', #231, #207, #101, .T. ) ;
#139 = APPLICATION_PROTOCOL_DEFINITION ( 'draft international standard', 'automotive_design', 1998, #28 ) ;
#140 = AXIS2_PLACEMENT_3D ( 'NONE', #10, #190, #15 ) ;
#141 = FACE_OUTER_BOUND ( 'NONE', #242, .T. ) ;
#142 = ORIENTED_EDGE ( 'NONE', *, *, #367, .F. ) ;
#143 = PRODUCT_DEFINITION_FORMATION_WITH_SPECIFIED_SOURCE ( 'ANY', '', #95, .NOT_KNOWN. ) ;
#144 = VECTOR ( 'NONE', #352, 1000.000000000000000 ) ;
#145 = ORIENTED_EDGE ( 'NONE', *, *, #355, .F. ) ;
#146 = AXIS2_PLACEMENT_3D ( 'NONE', #59, #258, #369 ) ;
#147 = EDGE_CURVE ( 'NONE', #308, #192, #370, .T. ) ;
#148 = CIRCLE ( 'NONE', #58, 1.250000000000000000 ) ;
#149 = EDGE_LOOP ( 'NONE', ( #356, #371, #6, #131 ) ) ;
#150 = DIRECTION ( 'NONE',  ( 0.0000000000000000000, 0.0000000000000000000, -1.000000000000000000 ) ) ;
#151 = AXIS2_PLACEMENT_3D ( 'NONE', #106, #256, #170 ) ;
#152 = FILL_AREA_STYLE ('',( #327 ) ) ;
#153 = CARTESIAN_POINT ( 'NONE',  ( 0.0000000000000000000, 0.0000000000000000000, 0.0000000000000000000 ) ) ;
#154 = EDGE_LOOP ( 'NONE', ( #297, #112 ) ) ;
#155 =( LENGTH_UNIT ( ) NAMED_UNIT ( * ) SI_UNIT ( .MILLI., .METRE. ) );
#156 = ORIENTED_EDGE ( 'NONE', *, *, #147, .F. ) ;
#157 = DIRECTION ( 'NONE',  ( -0.0000000000000000000, -1.000000000000000000, -0.0000000000000000000 ) ) ;
#158 = EDGE_CURVE ( 'NONE', #180, #342, #278, .T. ) ;
#159 = CARTESIAN_POINT ( 'NONE',  ( 1.530808498934191600E-016, 7.000000000000000000, 1.250000000000000000 ) ) ;
#160 = DIRECTION ( 'NONE',  ( 1.000000000000000000, -0.0000000000000000000, 1.224646799147353200E-016 ) ) ;
#161 = ADVANCED_FACE ( 'NONE', ( #241 ), #340, .T. ) ;
#162 = COLOUR_RGB ( '',0.7529411764705882200, 0.7529411764705882200, 0.7529411764705882200 ) ;
#163 = CARTESIAN_POINT ( 'NONE',  ( 0.0000000000000000000, 13.70000000000000100, 0.0000000000000000000 ) ) ;
#164 = STYLED_ITEM ( 'NONE', ( #122 ), #236 ) ;
#165 = ORIENTED_EDGE ( 'NONE', *, *, #238, .F. ) ;
#166 = CARTESIAN_POINT ( 'NONE',  ( 0.0000000000000000000, 0.0000000000000000000, 0.4999999999999987200 ) ) ;
#167 = ADVANCED_FACE ( 'NONE', ( #264 ), #116, .T. ) ;
#168 = CARTESIAN_POINT ( 'NONE',  ( 1.530808498934191600E-016, 0.0000000000000000000, 1.250000000000000000 ) ) ;
#169 = EDGE_CURVE ( 'NONE', #2, #207, #31, .T. ) ;
#170 = DIRECTION ( 'NONE',  ( 0.0000000000000000000, 0.0000000000000000000, -1.000000000000000000 ) ) ;
#171 = ADVANCED_FACE ( 'NONE', ( #251 ), #345, .T. ) ;
#172 = DIRECTION ( 'NONE',  ( -0.0000000000000000000, -1.000000000000000000, -0.0000000000000000000 ) ) ;
#173 = CIRCLE ( 'NONE', #244, 0.3262395692965994200 ) ;
#174 = DIRECTION ( 'NONE',  ( 0.0000000000000000000, 0.0000000000000000000, 1.000000000000000000 ) ) ;
#175 = CIRCLE ( 'NONE', #89, 0.8458548115672615000 ) ;
#176 = CLOSED_SHELL ( 'NONE', ( #48, #105, #219, #78, #133, #24, #281, #307, #309, #167, #161, #250, #171 ) ) ;
#177 = CARTESIAN_POINT ( 'NONE',  ( 0.0000000000000000000, 0.0000000000000000000, 0.0000000000000000000 ) ) ;
#178 = APPLICATION_CONTEXT ( 'automotive_design' ) ;
#179 = CIRCLE ( 'NONE', #208, 0.5999999999999999800 ) ;
#180 = VERTEX_POINT ( 'NONE', #216 ) ;
#181 = AXIS2_PLACEMENT_3D ( 'NONE', #177, #61, #134 ) ;
#182 = CIRCLE ( 'NONE', #151, 1.000000000000000000 ) ;
#183 = FACE_OUTER_BOUND ( 'NONE', #289, .T. ) ;
#184 = ORIENTED_EDGE ( 'NONE', *, *, #367, .T. ) ;
#185 = AXIS2_PLACEMENT_3D ( 'NONE', #372, #260, #357 ) ;
#186 = DIRECTION ( 'NONE',  ( 0.0000000000000000000, 0.0000000000000000000, 1.000000000000000000 ) ) ;
#187 = EDGE_CURVE ( 'NONE', #180, #192, #34, .T. ) ;
#188 = ORIENTED_EDGE ( 'NONE', *, *, #339, .F. ) ;
#189 = DIRECTION ( 'NONE',  ( 0.0000000000000000000, 1.000000000000000000, 0.0000000000000000000 ) ) ;
#190 = DIRECTION ( 'NONE',  ( -0.0000000000000000000, -1.000000000000000000, -0.0000000000000000000 ) ) ;
#191 = CARTESIAN_POINT ( 'NONE',  ( 0.0000000000000000000, 0.0000000000000000000, 0.0000000000000000000 ) ) ;
#192 = VERTEX_POINT ( 'NONE', #68 ) ;
#193 = ORIENTED_EDGE ( 'NONE', *, *, #355, .T. ) ;
#194 = MANIFOLD_SOLID_BREP ( 'Verrundung1', #176 ) ;
#195 = DIRECTION ( 'NONE',  ( -0.0000000000000000000, -1.000000000000000000, -0.0000000000000000000 ) ) ;
#196 = PLANE ( 'NONE',  #74 ) ;
#197 = CARTESIAN_POINT ( 'NONE',  ( 0.0000000000000000000, 13.00000000000000200, 0.0000000000000000000 ) ) ;
#198 = CARTESIAN_POINT ( 'NONE',  ( 1.000000000000000000, 6.999999999999999100, 0.0000000000000000000 ) ) ;
#199 =( GEOMETRIC_REPRESENTATION_CONTEXT ( 3 ) GLOBAL_UNCERTAINTY_ASSIGNED_CONTEXT ( ( #17 ) ) GLOBAL_UNIT_ASSIGNED_CONTEXT ( ( #155, #245, #248 ) ) REPRESENTATION_CONTEXT ( 'NONE', 'WORKASPACE' ) );
#200 = LINE ( 'NONE', #279, #117 ) ;
#201 =( LENGTH_UNIT ( ) NAMED_UNIT ( * ) SI_UNIT ( .MILLI., .METRE. ) );
#202 = SURFACE_STYLE_USAGE ( .BOTH. , #86 ) ;
#203 = CARTESIAN_POINT ( 'NONE',  ( 0.0000000000000000000, 0.0000000000000000000, 0.0000000000000000000 ) ) ;
#204 = LINE ( 'NONE', #81, #257 ) ;
#205 = ORIENTED_EDGE ( 'NONE', *, *, #285, .T. ) ;
#206 = AXIS2_PLACEMENT_3D ( 'NONE', #361, #129, #137 ) ;
#207 = VERTEX_POINT ( 'NONE', #298 ) ;
#208 = AXIS2_PLACEMENT_3D ( 'NONE', #76, #160, #362 ) ;
#209 = VERTEX_POINT ( 'NONE', #43 ) ;
#210 = EDGE_LOOP ( 'NONE', ( #366, #237, #265, #67 ) ) ;
#211 = EDGE_CURVE ( 'NONE', #329, #73, #286, .T. ) ;
#212 = FACE_BOUND ( 'NONE', #320, .T. ) ;
#213 = VERTEX_POINT ( 'NONE', #321 ) ;
#214 = CARTESIAN_POINT ( 'NONE',  ( 0.0000000000000000000, 13.39999999999999900, 0.0000000000000000000 ) ) ;
#215 = AXIS2_PLACEMENT_3D ( 'NONE', #103, #25, #57 ) ;
#216 = CARTESIAN_POINT ( 'NONE',  ( 9.184850993605141000E-017, 0.0000000000000000000, -0.4999999999999987200 ) ) ;
#217 = FACE_OUTER_BOUND ( 'NONE', #149, .T. ) ;
#218 = SURFACE_STYLE_FILL_AREA ( #152 ) ;
#219 = ADVANCED_FACE ( 'NONE', ( #54 ), #350, .T. ) ;
#220 = DIRECTION ( 'NONE',  ( 0.0000000000000000000, 0.0000000000000000000, 1.000000000000000000 ) ) ;
#221 = UNCERTAINTY_MEASURE_WITH_UNIT (LENGTH_MEASURE( 1.000000000000000100E-005 ), #201, 'distance_accuracy_value', 'NONE');
#222 = CARTESIAN_POINT ( 'NONE',  ( 0.0000000000000000000, 13.99999999999999800, 0.0000000000000000000 ) ) ;
#223 = FILL_AREA_STYLE_COLOUR ( '', #162 ) ;
#224 = PRODUCT_RELATED_PRODUCT_CATEGORY ( 'part', '', ( #95 ) ) ;
#225 = CIRCLE ( 'NONE', #66, 0.3262395692965994200 ) ;
#226 = CARTESIAN_POINT ( 'NONE',  ( 0.0000000000000000000, 13.39999999999999900, 0.0000000000000000000 ) ) ;
#227 = ORIENTED_EDGE ( 'NONE', *, *, #147, .T. ) ;
#228 = CARTESIAN_POINT ( 'NONE',  ( 1.530808498934191600E-016, 13.00000000000000200, 1.250000000000000000 ) ) ;
#229 = DIRECTION ( 'NONE',  ( -0.0000000000000000000, -1.000000000000000000, -0.0000000000000000000 ) ) ;
#230 = FACE_OUTER_BOUND ( 'NONE', #210, .T. ) ;
#231 = VERTEX_POINT ( 'NONE', #299 ) ;
#232 = APPLICATION_PROTOCOL_DEFINITION ( 'draft international standard', 'automotive_design', 1998, #178 ) ;
#233 = DIRECTION ( 'NONE',  ( 0.0000000000000000000, 0.0000000000000000000, -1.000000000000000000 ) ) ;
#234 = AXIS2_PLACEMENT_3D ( 'NONE', #326, #119, #42 ) ;
#235 = PRODUCT_CONTEXT ( 'NONE', #28, 'mechanical' ) ;
#236 = ADVANCED_BREP_SHAPE_REPRESENTATION ( '38880~0', ( #194, #360 ), #111 ) ;
#237 = ORIENTED_EDGE ( 'NONE', *, *, #33, .T. ) ;
#238 = EDGE_CURVE ( 'NONE', #14, #348, #333, .T. ) ;
#239 = PRESENTATION_LAYER_ASSIGNMENT (  '', '', ( #164 ) ) ;
#240 = CIRCLE ( 'NONE', #38, 0.8458548115672615000 ) ;
#241 = FACE_OUTER_BOUND ( 'NONE', #243, .T. ) ;
#242 = EDGE_LOOP ( 'NONE', ( #292, #41, #247, #102 ) ) ;
#243 = EDGE_LOOP ( 'NONE', ( #193, #314 ) ) ;
#244 = AXIS2_PLACEMENT_3D ( 'NONE', #328, #349, #186 ) ;
#245 =( NAMED_UNIT ( * ) PLANE_ANGLE_UNIT ( ) SI_UNIT ( $, .RADIAN. ) );
#246 = VECTOR ( 'NONE', #259, 999.9999999999998900 ) ;
#247 = ORIENTED_EDGE ( 'NONE', *, *, #53, .T. ) ;
#248 =( NAMED_UNIT ( * ) SI_UNIT ( $, .STERADIAN. ) SOLID_ANGLE_UNIT ( ) );
#249 = UNCERTAINTY_MEASURE_WITH_UNIT (LENGTH_MEASURE( 1.000000000000000100E-005 ), #113, 'distance_accuracy_value', 'NONE');
#250 = ADVANCED_FACE ( 'NONE', ( #136 ), #91, .T. ) ;
#251 = FACE_OUTER_BOUND ( 'NONE', #335, .T. ) ;
#252 = DIRECTION ( 'NONE',  ( -0.0000000000000000000, -1.000000000000000000, -0.0000000000000000000 ) ) ;
#253 = ORIENTED_EDGE ( 'NONE', *, *, #158, .F. ) ;
#254 = DIRECTION ( 'NONE',  ( 0.0000000000000000000, 0.0000000000000000000, 1.000000000000000000 ) ) ;
#255 = EDGE_CURVE ( 'NONE', #97, #348, #173, .T. ) ;
#256 = DIRECTION ( 'NONE',  ( 0.0000000000000000000, 1.000000000000000000, 0.0000000000000000000 ) ) ;
#257 = VECTOR ( 'NONE', #331, 999.9999999999998900 ) ;
#258 = DIRECTION ( 'NONE',  ( 0.0000000000000000000, 1.000000000000000000, 0.0000000000000000000 ) ) ;
#259 = DIRECTION ( 'NONE',  ( 0.0000000000000000000, -0.8660254037844380400, -0.5000000000000012200 ) ) ;
#260 = DIRECTION ( 'NONE',  ( 0.0000000000000000000, -1.000000000000000000, -0.0000000000000000000 ) ) ;
#261 = LINE ( 'NONE', #168, #92 ) ;
#262 = EDGE_LOOP ( 'NONE', ( #94, #145, #18, #45 ) ) ;
#263 = AXIS2_PLACEMENT_3D ( 'NONE', #132, #172, #47 ) ;
#264 = FACE_OUTER_BOUND ( 'NONE', #124, .T. ) ;
#265 = ORIENTED_EDGE ( 'NONE', *, *, #285, .F. ) ;
#266 = AXIS2_PLACEMENT_3D ( 'NONE', #272, #157, #150 ) ;
#267 = ORIENTED_EDGE ( 'NONE', *, *, #268, .F. ) ;
#268 = EDGE_CURVE ( 'NONE', #342, #213, #4, .T. ) ;
#269 = DIRECTION ( 'NONE',  ( -0.0000000000000000000, -1.000000000000000000, -0.0000000000000000000 ) ) ;
#270 = AXIS2_PLACEMENT_3D ( 'NONE', #75, #271, #323 ) ;
#271 = DIRECTION ( 'NONE',  ( -0.0000000000000000000, -1.000000000000000000, -0.0000000000000000000 ) ) ;
#272 = CARTESIAN_POINT ( 'NONE',  ( 0.0000000000000000000, 13.00000000000000200, 0.0000000000000000000 ) ) ;
#273 = EDGE_LOOP ( 'NONE', ( #37, #325, #358, #156 ) ) ;
#274 = ORIENTED_EDGE ( 'NONE', *, *, #238, .T. ) ;
#275 =( NAMED_UNIT ( * ) PLANE_ANGLE_UNIT ( ) SI_UNIT ( $, .RADIAN. ) );
#276 = CARTESIAN_POINT ( 'NONE',  ( 0.0000000000000000000, 6.999999999999999100, -1.000000000000000000 ) ) ;
#277 = PRODUCT_DEFINITION ( 'UNKNOWN', '', #143, #130 ) ;
#278 = CIRCLE ( 'NONE', #3, 0.4999999999999987200 ) ;
#279 = CARTESIAN_POINT ( 'NONE',  ( 0.0000000000000000000, 0.0000000000000000000, -1.250000000000000000 ) ) ;
#280 = DIRECTION ( 'NONE',  ( 0.0000000000000000000, 0.0000000000000000000, -1.000000000000000000 ) ) ;
#281 = ADVANCED_FACE ( 'NONE', ( #217 ), #301, .T. ) ;
#282 = CARTESIAN_POINT ( 'NONE',  ( 0.0000000000000000000, 13.70000000000000100, 0.0000000000000000000 ) ) ;
#283 = CARTESIAN_POINT ( 'NONE',  ( 0.0000000000000000000, 0.0000000000000000000, -1.000000000000000000 ) ) ;
#284 = DIRECTION ( 'NONE',  ( 0.0000000000000000000, 0.0000000000000000000, 1.000000000000000000 ) ) ;
#285 = EDGE_CURVE ( 'NONE', #207, #2, #368, .T. ) ;
#286 = CIRCLE ( 'NONE', #234, 1.250000000000000000 ) ;
#287 = CARTESIAN_POINT ( 'NONE',  ( 7.177008159117630500E-017, 13.99999999999999800, -0.3262395692965994200 ) ) ;
#288 = FACE_OUTER_BOUND ( 'NONE', #96, .T. ) ;
#289 = EDGE_LOOP ( 'NONE', ( #253, #330, #27, #267 ) ) ;
#290 = PRESENTATION_LAYER_ASSIGNMENT (  '', '', ( #115 ) ) ;
#291 = FACE_OUTER_BOUND ( 'NONE', #154, .T. ) ;
#292 = ORIENTED_EDGE ( 'NONE', *, *, #90, .F. ) ;
#293 = ORIENTED_EDGE ( 'NONE', *, *, #53, .F. ) ;
#294 = ORIENTED_EDGE ( 'NONE', *, *, #295, .T. ) ;
#295 = EDGE_CURVE ( 'NONE', #348, #97, #225, .T. ) ;
#296 = AXIS2_PLACEMENT_3D ( 'NONE', #300, #12, #220 ) ;
#297 = ORIENTED_EDGE ( 'NONE', *, *, #339, .T. ) ;
#298 = CARTESIAN_POINT ( 'NONE',  ( 0.0000000000000000000, 13.00000000000000200, -1.250000000000000000 ) ) ;
#299 = CARTESIAN_POINT ( 'NONE',  ( 0.0000000000000000000, 13.70000000000000100, -0.8458548115672616100 ) ) ;
#300 = CARTESIAN_POINT ( 'NONE',  ( 0.0000000000000000000, 13.39999999999999900, 0.3262395692965994200 ) ) ;
#301 = CONICAL_SURFACE ( 'NONE', #266, 1.250000000000000000, 0.5235987755983002600 ) ;
#302 = CONICAL_SURFACE ( 'NONE', #181, 0.4999999999999987200, 0.7853981633974466100 ) ;
#303 = EDGE_LOOP ( 'NONE', ( #205, #7, #188, #293 ) ) ;
#304 = DIRECTION ( 'NONE',  ( 0.0000000000000000000, 1.000000000000000000, 0.0000000000000000000 ) ) ;
#305 = AXIS2_PLACEMENT_3D ( 'NONE', #191, #189, #98 ) ;
#306 = CARTESIAN_POINT ( 'NONE',  ( 0.6726497308103729400, 13.99999999999999800, 0.0000000000000000000 ) ) ;
#307 = ADVANCED_FACE ( 'NONE', ( #141 ), #364, .T. ) ;
#308 = VERTEX_POINT ( 'NONE', #276 ) ;
#309 = ADVANCED_FACE ( 'NONE', ( #291, #212 ), #359, .T. ) ;
#310 = DIRECTION ( 'NONE',  ( -0.0000000000000000000, -1.000000000000000000, -0.0000000000000000000 ) ) ;
#311 = DIRECTION ( 'NONE',  ( -0.0000000000000000000, -1.000000000000000000, -0.0000000000000000000 ) ) ;
#312 = DIRECTION ( 'NONE',  ( -0.0000000000000000000, -1.000000000000000000, -0.0000000000000000000 ) ) ;
#313 = ORIENTED_EDGE ( 'NONE', *, *, #295, .F. ) ;
#314 = ORIENTED_EDGE ( 'NONE', *, *, #158, .T. ) ;
#315 =( NAMED_UNIT ( * ) SI_UNIT ( $, .STERADIAN. ) SOLID_ANGLE_UNIT ( ) );
#316 = FACE_OUTER_BOUND ( 'NONE', #303, .T. ) ;
#317 = ORIENTED_EDGE ( 'NONE', *, *, #255, .T. ) ;
#318 = AXIS2_PLACEMENT_3D ( 'NONE', #198, #23, #280 ) ;
#319 = VECTOR ( 'NONE', #110, 1000.000000000000000 ) ;
#320 = EDGE_LOOP ( 'NONE', ( #123, #142 ) ) ;
#321 = CARTESIAN_POINT ( 'NONE',  ( 1.224646799147353200E-016, 0.5000000000000030000, 1.000000000000000000 ) ) ;
#322 = EDGE_CURVE ( 'NONE', #231, #14, #240, .T. ) ;
#323 = DIRECTION ( 'NONE',  ( 0.0000000000000000000, 0.0000000000000000000, -1.000000000000000000 ) ) ;
#324 = AXIS2_PLACEMENT_3D ( 'NONE', #77, #252, #19 ) ;
#325 = ORIENTED_EDGE ( 'NONE', *, *, #87, .T. ) ;
#326 = CARTESIAN_POINT ( 'NONE',  ( 0.0000000000000000000, 7.000000000000000000, 0.0000000000000000000 ) ) ;
#327 = FILL_AREA_STYLE_COLOUR ( '', #55 ) ;
#328 = CARTESIAN_POINT ( 'NONE',  ( 0.0000000000000000000, 13.99999999999999800, 0.0000000000000000000 ) ) ;
#329 = VERTEX_POINT ( 'NONE', #159 ) ;
#330 = ORIENTED_EDGE ( 'NONE', *, *, #187, .T. ) ;
#331 = DIRECTION ( 'NONE',  ( 6.123233995736782100E-017, -0.8660254037844380400, 0.5000000000000012200 ) ) ;
#332 = CARTESIAN_POINT ( 'NONE',  ( 0.0000000000000000000, 7.000000000000000000, 0.0000000000000000000 ) ) ;
#333 = CIRCLE ( 'NONE', #296, 0.5999999999999999800 ) ;
#334 = CARTESIAN_POINT ( 'NONE',  ( 1.283340943231713100E-016, 13.70000000000000100, 0.8458548115672616100 ) ) ;
#335 = EDGE_LOOP ( 'NONE', ( #46, #120, #274, #118 ) ) ;
#336 = DIRECTION ( 'NONE',  ( -0.0000000000000000000, -1.000000000000000000, -0.0000000000000000000 ) ) ;
#337 = CARTESIAN_POINT ( 'NONE',  ( 1.224646799147353200E-016, 0.0000000000000000000, 1.000000000000000000 ) ) ;
#338 = DIRECTION ( 'NONE',  ( -0.0000000000000000000, -1.000000000000000000, -0.0000000000000000000 ) ) ;
#339 = EDGE_CURVE ( 'NONE', #73, #329, #148, .T. ) ;
#340 = PLANE ( 'NONE',  #185 ) ;
#341 = EDGE_LOOP ( 'NONE', ( #114, #5, #313, #165 ) ) ;
#342 = VERTEX_POINT ( 'NONE', #166 ) ;
#343 = MECHANICAL_DESIGN_GEOMETRIC_PRESENTATION_REPRESENTATION (  '', ( #164 ), #35 ) ;
#344 = EDGE_CURVE ( 'NONE', #308, #209, #135, .T. ) ;
#345 = TOROIDAL_SURFACE ( 'NONE', #49, 0.3262395692965994200, 0.5999999999999999800 ) ;
#346 = AXIS2_PLACEMENT_3D ( 'NONE', #50, #336, #20 ) ;
#347 = LINE ( 'NONE', #337, #72 ) ;
#348 = VERTEX_POINT ( 'NONE', #52 ) ;
#349 = DIRECTION ( 'NONE',  ( 0.0000000000000000000, 1.000000000000000000, 0.0000000000000000000 ) ) ;
#350 = CYLINDRICAL_SURFACE ( 'NONE', #93, 1.000000000000000000 ) ;
#351 = CIRCLE ( 'NONE', #146, 1.000000000000000000 ) ;
#352 = DIRECTION ( 'NONE',  ( 8.659560562354918100E-017, 0.7071067811865487900, -0.7071067811865463500 ) ) ;
#353 = DIRECTION ( 'NONE',  ( 0.0000000000000000000, 0.0000000000000000000, -1.000000000000000000 ) ) ;
#354 = DIRECTION ( 'NONE',  ( 0.0000000000000000000, 0.0000000000000000000, 1.000000000000000000 ) ) ;
#355 = EDGE_CURVE ( 'NONE', #342, #180, #1, .T. ) ;
#356 = ORIENTED_EDGE ( 'NONE', *, *, #33, .F. ) ;
#357 = DIRECTION ( 'NONE',  ( 0.0000000000000000000, 0.0000000000000000000, -1.000000000000000000 ) ) ;
#358 = ORIENTED_EDGE ( 'NONE', *, *, #65, .T. ) ;
#359 = PLANE ( 'NONE',  #318 ) ;
#360 = AXIS2_PLACEMENT_3D ( 'NONE', #79, #284, #88 ) ;
#361 = CARTESIAN_POINT ( 'NONE',  ( 0.0000000000000000000, 0.0000000000000000000, 0.0000000000000000000 ) ) ;
#362 = DIRECTION ( 'NONE',  ( 1.224646799147353000E-016, 0.0000000000000000000, -1.000000000000000000 ) ) ;
#363 = PRODUCT_DEFINITION_SHAPE ( 'NONE', 'NONE',  #277 ) ;
#364 = CYLINDRICAL_SURFACE ( 'NONE', #346, 1.250000000000000000 ) ;
#365 = DIRECTION ( 'NONE',  ( 0.0000000000000000000, 0.0000000000000000000, 1.000000000000000000 ) ) ;
#366 = ORIENTED_EDGE ( 'NONE', *, *, #322, .T. ) ;
#367 = EDGE_CURVE ( 'NONE', #209, #308, #62, .T. ) ;
#368 = CIRCLE ( 'NONE', #11, 1.250000000000000000 ) ;
#369 = DIRECTION ( 'NONE',  ( 0.0000000000000000000, 0.0000000000000000000, -1.000000000000000000 ) ) ;
#370 = LINE ( 'NONE', #283, #319 ) ;
#371 = ORIENTED_EDGE ( 'NONE', *, *, #69, .T. ) ;
#372 = CARTESIAN_POINT ( 'NONE',  ( 0.0000000000000000000, 0.0000000000000000000, 0.0000000000000000000 ) ) ;
ENDSEC;
END-ISO-10303-21;
