ISO-10303-21;
HEADER;
FILE_DESCRIPTION (( 'STEP AP214' ),
    '1' );
FILE_NAME ('38879~0.STEP',
    '2017-07-04T08:56:38',
    ( '' ),
    ( '' ),
    'SwSTEP 2.0',
    'SolidWorks 2016',
    '' );
FILE_SCHEMA (( 'AUTOMOTIVE_DESIGN' ));
ENDSEC;

DATA;
#1 = ORIENTED_EDGE ( 'NONE', *, *, #115, .T. ) ;
#2 = ORIENTED_EDGE ( 'NONE', *, *, #165, .T. ) ;
#3 = DIRECTION ( 'NONE',  ( 0.0000000000000000000, 0.0000000000000000000, -1.000000000000000000 ) ) ;
#4 = DIRECTION ( 'NONE',  ( 0.0000000000000000000, 1.000000000000000000, 0.0000000000000000000 ) ) ;
#5 = VECTOR ( 'NONE', #31, 1000.000000000000100 ) ;
#6 = VERTEX_POINT ( 'NONE', #277 ) ;
#7 = DIRECTION ( 'NONE',  ( 0.0000000000000000000, 0.0000000000000000000, 1.000000000000000000 ) ) ;
#8 = MECHANICAL_DESIGN_GEOMETRIC_PRESENTATION_REPRESENTATION (  '', ( #302 ), #164 ) ;
#9 = DIRECTION ( 'NONE',  ( 0.0000000000000000000, 0.0000000000000000000, -1.000000000000000000 ) ) ;
#10 = ADVANCED_FACE ( 'NONE', ( #43 ), #367, .T. ) ;
#11 = LINE ( 'NONE', #255, #5 ) ;
#12 = ADVANCED_FACE ( 'NONE', ( #166 ), #53, .T. ) ;
#13 = EDGE_CURVE ( 'NONE', #34, #44, #337, .T. ) ;
#14 = APPLICATION_CONTEXT ( 'automotive_design' ) ;
#15 = CIRCLE ( 'NONE', #213, 1.200000000000000000 ) ;
#16 = ORIENTED_EDGE ( 'NONE', *, *, #192, .F. ) ;
#17 =( LENGTH_UNIT ( ) NAMED_UNIT ( * ) SI_UNIT ( .MILLI., .METRE. ) );
#18 = AXIS2_PLACEMENT_3D ( 'NONE', #75, #104, #47 ) ;
#19 = ORIENTED_EDGE ( 'NONE', *, *, #72, .F. ) ;
#20 = MANIFOLD_SOLID_BREP ( 'Verrundung1', #305 ) ;
#21 = AXIS2_PLACEMENT_3D ( 'NONE', #280, #28, #3 ) ;
#22 = CARTESIAN_POINT ( 'NONE',  ( 0.0000000000000000000, 13.70000000000000100, 0.0000000000000000000 ) ) ;
#23 = SHAPE_DEFINITION_REPRESENTATION ( #350, #267 ) ;
#24 = CYLINDRICAL_SURFACE ( 'NONE', #56, 1.000000000000000000 ) ;
#25 = EDGE_CURVE ( 'NONE', #118, #181, #83, .T. ) ;
#26 = FACE_OUTER_BOUND ( 'NONE', #342, .T. ) ;
#27 = ORIENTED_EDGE ( 'NONE', *, *, #172, .F. ) ;
#28 = DIRECTION ( 'NONE',  ( 0.0000000000000000000, 1.000000000000000000, 0.0000000000000000000 ) ) ;
#29 = AXIS2_PLACEMENT_3D ( 'NONE', #88, #198, #201 ) ;
#30 = CARTESIAN_POINT ( 'NONE',  ( 0.0000000000000000000, 0.0000000000000000000, 0.0000000000000000000 ) ) ;
#31 = DIRECTION ( 'NONE',  ( 8.659560562354903300E-017, 0.7071067811865500200, -0.7071067811865451300 ) ) ;
#32 = COLOUR_RGB ( '',0.7529411764705882200, 0.7529411764705882200, 0.7529411764705882200 ) ;
#33 = DIRECTION ( 'NONE',  ( -0.0000000000000000000, -1.000000000000000000, -0.0000000000000000000 ) ) ;
#34 = VERTEX_POINT ( 'NONE', #306 ) ;
#35 = CARTESIAN_POINT ( 'NONE',  ( 0.0000000000000000000, 0.0000000000000000000, 0.0000000000000000000 ) ) ;
#36 = VECTOR ( 'NONE', #145, 1000.000000000000000 ) ;
#37 = ORIENTED_EDGE ( 'NONE', *, *, #153, .T. ) ;
#38 = DIRECTION ( 'NONE',  ( 0.0000000000000000000, 0.7071067811865500200, 0.7071067811865451300 ) ) ;
#39 = CARTESIAN_POINT ( 'NONE',  ( 0.0000000000000000000, 0.0000000000000000000, 0.0000000000000000000 ) ) ;
#40 = DIRECTION ( 'NONE',  ( 0.0000000000000000000, 0.0000000000000000000, 1.000000000000000000 ) ) ;
#41 = ADVANCED_FACE ( 'NONE', ( #217 ), #292, .T. ) ;
#42 = APPLICATION_CONTEXT ( 'automotive_design' ) ;
#43 = FACE_OUTER_BOUND ( 'NONE', #320, .T. ) ;
#44 = VERTEX_POINT ( 'NONE', #249 ) ;
#45 = CARTESIAN_POINT ( 'NONE',  ( 0.0000000000000000000, 0.5000000000000030000, 0.0000000000000000000 ) ) ;
#46 = AXIS2_PLACEMENT_3D ( 'NONE', #45, #209, #157 ) ;
#47 = DIRECTION ( 'NONE',  ( 0.0000000000000000000, 0.0000000000000000000, 1.000000000000000000 ) ) ;
#48 = FACE_OUTER_BOUND ( 'NONE', #257, .T. ) ;
#49 = ORIENTED_EDGE ( 'NONE', *, *, #291, .T. ) ;
#50 = EDGE_CURVE ( 'NONE', #118, #51, #236, .T. ) ;
#51 = VERTEX_POINT ( 'NONE', #84 ) ;
#52 = DIRECTION ( 'NONE',  ( -0.0000000000000000000, -1.000000000000000000, -0.0000000000000000000 ) ) ;
#53 = PLANE ( 'NONE',  #276 ) ;
#54 = FACE_OUTER_BOUND ( 'NONE', #341, .T. ) ;
#55 = VERTEX_POINT ( 'NONE', #310 ) ;
#56 = AXIS2_PLACEMENT_3D ( 'NONE', #30, #33, #203 ) ;
#57 = CARTESIAN_POINT ( 'NONE',  ( 1.469576158976823600E-016, 0.0000000000000000000, 1.200000000000000000 ) ) ;
#58 = CARTESIAN_POINT ( 'NONE',  ( 9.184850993605152100E-017, 0.0000000000000000000, -0.5000000000000004400 ) ) ;
#59 = EDGE_LOOP ( 'NONE', ( #348, #123, #114, #304 ) ) ;
#60 = DIRECTION ( 'NONE',  ( 0.0000000000000000000, 0.0000000000000000000, -1.000000000000000000 ) ) ;
#61 = CARTESIAN_POINT ( 'NONE',  ( 0.0000000000000000000, 13.00000000000000200, 0.0000000000000000000 ) ) ;
#62 = VECTOR ( 'NONE', #38, 1000.000000000000100 ) ;
#63 = DIRECTION ( 'NONE',  ( -0.0000000000000000000, -1.000000000000000000, -0.0000000000000000000 ) ) ;
#64 = DIRECTION ( 'NONE',  ( -0.0000000000000000000, -1.000000000000000000, -0.0000000000000000000 ) ) ;
#65 = ADVANCED_FACE ( 'NONE', ( #54 ), #161, .T. ) ;
#66 = DIRECTION ( 'NONE',  ( 0.0000000000000000000, 0.0000000000000000000, -1.000000000000000000 ) ) ;
#67 = AXIS2_PLACEMENT_3D ( 'NONE', #242, #300, #131 ) ;
#68 = CARTESIAN_POINT ( 'NONE',  ( 0.0000000000000000000, 6.999999999999999100, 0.0000000000000000000 ) ) ;
#69 = CIRCLE ( 'NONE', #159, 0.5000000000000004400 ) ;
#70 = DIRECTION ( 'NONE',  ( 0.0000000000000000000, 0.0000000000000000000, -1.000000000000000000 ) ) ;
#71 = ADVANCED_FACE ( 'NONE', ( #278 ), #101, .T. ) ;
#72 = EDGE_CURVE ( 'NONE', #181, #251, #15, .T. ) ;
#73 = DIRECTION ( 'NONE',  ( 0.0000000000000000000, 0.0000000000000000000, -1.000000000000000000 ) ) ;
#74 = CIRCLE ( 'NONE', #176, 1.200000000000000000 ) ;
#75 = CARTESIAN_POINT ( 'NONE',  ( 0.0000000000000000000, 0.0000000000000000000, 0.0000000000000000000 ) ) ;
#76 = AXIS2_PLACEMENT_3D ( 'NONE', #235, #327, #73 ) ;
#77 = EDGE_CURVE ( 'NONE', #44, #34, #85, .T. ) ;
#78 = VECTOR ( 'NONE', #96, 1000.000000000000000 ) ;
#79 = EDGE_LOOP ( 'NONE', ( #129, #154, #210, #106 ) ) ;
#80 = SURFACE_STYLE_USAGE ( .BOTH. , #224 ) ;
#81 =( LENGTH_UNIT ( ) NAMED_UNIT ( * ) SI_UNIT ( .MILLI., .METRE. ) );
#82 = DIRECTION ( 'NONE',  ( 0.0000000000000000000, -0.0000000000000000000, 1.000000000000000000 ) ) ;
#83 = LINE ( 'NONE', #248, #244 ) ;
#84 = CARTESIAN_POINT ( 'NONE',  ( 1.469576158976823600E-016, 13.00000000000000200, 1.200000000000000000 ) ) ;
#85 = CIRCLE ( 'NONE', #199, 0.7958548115672607900 ) ;
#86 = AXIS2_PLACEMENT_3D ( 'NONE', #97, #289, #263 ) ;
#87 = ORIENTED_EDGE ( 'NONE', *, *, #13, .T. ) ;
#88 = CARTESIAN_POINT ( 'NONE',  ( 0.0000000000000000000, 0.0000000000000000000, 0.0000000000000000000 ) ) ;
#89 = CARTESIAN_POINT ( 'NONE',  ( 0.0000000000000000000, 6.999999999999999100, 0.0000000000000000000 ) ) ;
#90 = COLOUR_RGB ( '',0.7529411764705882200, 0.7529411764705882200, 0.7529411764705882200 ) ;
#91 = CIRCLE ( 'NONE', #239, 1.000000000000000000 ) ;
#92 = EDGE_LOOP ( 'NONE', ( #27, #87, #37, #287 ) ) ;
#93 = DIRECTION ( 'NONE',  ( -0.0000000000000000000, -1.000000000000000000, -0.0000000000000000000 ) ) ;
#94 = DIRECTION ( 'NONE',  ( -0.0000000000000000000, -1.000000000000000000, -0.0000000000000000000 ) ) ;
#95 = PRODUCT_RELATED_PRODUCT_CATEGORY ( 'part', '', ( #212 ) ) ;
#96 = DIRECTION ( 'NONE',  ( -0.0000000000000000000, -1.000000000000000000, -0.0000000000000000000 ) ) ;
#97 = CARTESIAN_POINT ( 'NONE',  ( 0.0000000000000000000, 13.39999999999999900, 0.0000000000000000000 ) ) ;
#98 = ORIENTED_EDGE ( 'NONE', *, *, #273, .F. ) ;
#99 = EDGE_CURVE ( 'NONE', #51, #251, #132, .T. ) ;
#100 = SURFACE_STYLE_FILL_AREA ( #325 ) ;
#101 = CONICAL_SURFACE ( 'NONE', #29, 0.5000000000000004400, 0.7853981633974447300 ) ;
#102 = ORIENTED_EDGE ( 'NONE', *, *, #122, .F. ) ;
#103 = AXIS2_PLACEMENT_3D ( 'NONE', #234, #318, #70 ) ;
#104 = DIRECTION ( 'NONE',  ( 0.0000000000000000000, 1.000000000000000000, 0.0000000000000000000 ) ) ;
#105 = VECTOR ( 'NONE', #321, 999.9999999999998900 ) ;
#106 = ORIENTED_EDGE ( 'NONE', *, *, #243, .F. ) ;
#107 = ORIENTED_EDGE ( 'NONE', *, *, #204, .T. ) ;
#108 = AXIS2_PLACEMENT_3D ( 'NONE', #124, #293, #344 ) ;
#109 = FILL_AREA_STYLE_COLOUR ( '', #32 ) ;
#110 = EDGE_LOOP ( 'NONE', ( #294, #170 ) ) ;
#111 =( NAMED_UNIT ( * ) SI_UNIT ( $, .STERADIAN. ) SOLID_ANGLE_UNIT ( ) );
#112 = DIRECTION ( 'NONE',  ( 0.0000000000000000000, 1.000000000000000000, 0.0000000000000000000 ) ) ;
#113 = CONICAL_SURFACE ( 'NONE', #103, 1.200000000000000000, 0.5235987755983002600 ) ;
#114 = ORIENTED_EDGE ( 'NONE', *, *, #50, .F. ) ;
#115 = EDGE_CURVE ( 'NONE', #197, #162, #91, .T. ) ;
#116 = DIRECTION ( 'NONE',  ( 0.0000000000000000000, 0.0000000000000000000, -1.000000000000000000 ) ) ;
#117 = CARTESIAN_POINT ( 'NONE',  ( 0.0000000000000000000, 13.00000000000000200, -1.200000000000000000 ) ) ;
#118 = VERTEX_POINT ( 'NONE', #174 ) ;
#119 = CARTESIAN_POINT ( 'NONE',  ( 0.0000000000000000000, 6.999999999999999100, -1.000000000000000000 ) ) ;
#120 =( GEOMETRIC_REPRESENTATION_CONTEXT ( 3 ) GLOBAL_UNCERTAINTY_ASSIGNED_CONTEXT ( ( #281 ) ) GLOBAL_UNIT_ASSIGNED_CONTEXT ( ( #17, #215, #127 ) ) REPRESENTATION_CONTEXT ( 'NONE', 'WORKASPACE' ) );
#121 = CIRCLE ( 'NONE', #46, 1.000000000000000000 ) ;
#122 = EDGE_CURVE ( 'NONE', #55, #362, #232, .T. ) ;
#123 = ORIENTED_EDGE ( 'NONE', *, *, #172, .T. ) ;
#124 = CARTESIAN_POINT ( 'NONE',  ( 3.382959043369238000E-017, 13.39999999999999900, -0.2762395692965993200 ) ) ;
#125 = ADVANCED_FACE ( 'NONE', ( #250 ), #24, .T. ) ;
#126 = AXIS2_PLACEMENT_3D ( 'NONE', #39, #175, #178 ) ;
#127 =( NAMED_UNIT ( * ) SI_UNIT ( $, .STERADIAN. ) SOLID_ANGLE_UNIT ( ) );
#128 = DIRECTION ( 'NONE',  ( -1.000000000000000000, 0.0000000000000000000, 0.0000000000000000000 ) ) ;
#129 = ORIENTED_EDGE ( 'NONE', *, *, #291, .F. ) ;
#130 = EDGE_CURVE ( 'NONE', #6, #223, #140, .T. ) ;
#131 = DIRECTION ( 'NONE',  ( 1.000000000000000000, 0.0000000000000000000, 0.0000000000000000000 ) ) ;
#132 = LINE ( 'NONE', #57, #36 ) ;
#133 = ORIENTED_EDGE ( 'NONE', *, *, #99, .T. ) ;
#134 = ORIENTED_EDGE ( 'NONE', *, *, #13, .F. ) ;
#135 = FILL_AREA_STYLE ('',( #109 ) ) ;
#136 = DIRECTION ( 'NONE',  ( 0.0000000000000000000, 0.0000000000000000000, -1.000000000000000000 ) ) ;
#137 = DIRECTION ( 'NONE',  ( -0.0000000000000000000, -1.000000000000000000, -0.0000000000000000000 ) ) ;
#138 = DIRECTION ( 'NONE',  ( 0.0000000000000000000, 0.0000000000000000000, -1.000000000000000000 ) ) ;
#139 = AXIS2_PLACEMENT_3D ( 'NONE', #264, #4, #7 ) ;
#140 = CIRCLE ( 'NONE', #21, 1.000000000000000000 ) ;
#141 = ORIENTED_EDGE ( 'NONE', *, *, #326, .F. ) ;
#142 = ORIENTED_EDGE ( 'NONE', *, *, #144, .F. ) ;
#143 = CARTESIAN_POINT ( 'NONE',  ( 0.0000000000000000000, 13.70000000000000100, 0.0000000000000000000 ) ) ;
#144 = EDGE_CURVE ( 'NONE', #148, #223, #11, .T. ) ;
#145 = DIRECTION ( 'NONE',  ( -0.0000000000000000000, -1.000000000000000000, -0.0000000000000000000 ) ) ;
#146 = VECTOR ( 'NONE', #340, 999.9999999999998900 ) ;
#147 = DIRECTION ( 'NONE',  ( 0.0000000000000000000, 0.0000000000000000000, -1.000000000000000000 ) ) ;
#148 = VERTEX_POINT ( 'NONE', #58 ) ;
#149 = DIRECTION ( 'NONE',  ( 0.0000000000000000000, -1.000000000000000000, -0.0000000000000000000 ) ) ;
#150 = CARTESIAN_POINT ( 'NONE',  ( 0.0000000000000000000, 7.000000000000000000, 0.0000000000000000000 ) ) ;
#151 = CARTESIAN_POINT ( 'NONE',  ( 1.469576158976823600E-016, 7.000000000000000000, 1.200000000000000000 ) ) ;
#152 = FACE_OUTER_BOUND ( 'NONE', #92, .T. ) ;
#153 = EDGE_CURVE ( 'NONE', #44, #118, #227, .T. ) ;
#154 = ORIENTED_EDGE ( 'NONE', *, *, #144, .T. ) ;
#155 = ADVANCED_FACE ( 'NONE', ( #152 ), #205, .T. ) ;
#156 = ORIENTED_EDGE ( 'NONE', *, *, #50, .T. ) ;
#157 = DIRECTION ( 'NONE',  ( 0.0000000000000000000, 0.0000000000000000000, -1.000000000000000000 ) ) ;
#158 = LINE ( 'NONE', #208, #78 ) ;
#159 = AXIS2_PLACEMENT_3D ( 'NONE', #35, #64, #261 ) ;
#160 = EDGE_CURVE ( 'NONE', #51, #118, #74, .T. ) ;
#161 = CYLINDRICAL_SURFACE ( 'NONE', #369, 1.200000000000000000 ) ;
#162 = VERTEX_POINT ( 'NONE', #119 ) ;
#163 = ORIENTED_EDGE ( 'NONE', *, *, #165, .F. ) ;
#164 =( GEOMETRIC_REPRESENTATION_CONTEXT ( 3 ) GLOBAL_UNCERTAINTY_ASSIGNED_CONTEXT ( ( #324 ) ) GLOBAL_UNIT_ASSIGNED_CONTEXT ( ( #81, #368, #111 ) ) REPRESENTATION_CONTEXT ( 'NONE', 'WORKASPACE' ) );
#165 = EDGE_CURVE ( 'NONE', #162, #223, #158, .T. ) ;
#166 = FACE_OUTER_BOUND ( 'NONE', #110, .T. ) ;
#167 = DIRECTION ( 'NONE',  ( 0.0000000000000000000, 0.0000000000000000000, 1.000000000000000000 ) ) ;
#168 = CARTESIAN_POINT ( 'NONE',  ( 0.0000000000000000000, 13.99999999999999800, 0.0000000000000000000 ) ) ;
#169 = AXIS2_PLACEMENT_3D ( 'NONE', #364, #112, #219 ) ;
#170 = ORIENTED_EDGE ( 'NONE', *, *, #186, .T. ) ;
#171 = DIRECTION ( 'NONE',  ( 0.0000000000000000000, 1.000000000000000000, 0.0000000000000000000 ) ) ;
#172 = EDGE_CURVE ( 'NONE', #34, #51, #361, .T. ) ;
#173 = CARTESIAN_POINT ( 'NONE',  ( 0.0000000000000000000, 7.000000000000000000, 0.0000000000000000000 ) ) ;
#174 = CARTESIAN_POINT ( 'NONE',  ( 0.0000000000000000000, 13.00000000000000200, -1.200000000000000000 ) ) ;
#175 = DIRECTION ( 'NONE',  ( -0.0000000000000000000, -1.000000000000000000, -0.0000000000000000000 ) ) ;
#176 = AXIS2_PLACEMENT_3D ( 'NONE', #61, #285, #147 ) ;
#177 = DIRECTION ( 'NONE',  ( 0.0000000000000000000, 0.0000000000000000000, -1.000000000000000000 ) ) ;
#178 = DIRECTION ( 'NONE',  ( 0.0000000000000000000, 0.0000000000000000000, -1.000000000000000000 ) ) ;
#179 = CARTESIAN_POINT ( 'NONE',  ( 0.0000000000000000000, 0.5000000000000030000, -1.000000000000000000 ) ) ;
#180 = PRESENTATION_STYLE_ASSIGNMENT (( #80 ) ) ;
#181 = VERTEX_POINT ( 'NONE', #231 ) ;
#182 = CARTESIAN_POINT ( 'NONE',  ( 0.0000000000000000000, 0.0000000000000000000, 0.0000000000000000000 ) ) ;
#183 = ADVANCED_FACE ( 'NONE', ( #26 ), #317, .T. ) ;
#184 =( GEOMETRIC_REPRESENTATION_CONTEXT ( 3 ) GLOBAL_UNCERTAINTY_ASSIGNED_CONTEXT ( ( #254 ) ) GLOBAL_UNIT_ASSIGNED_CONTEXT ( ( #355, #185, #296 ) ) REPRESENTATION_CONTEXT ( 'NONE', 'WORKASPACE' ) );
#185 =( NAMED_UNIT ( * ) PLANE_ANGLE_UNIT ( ) SI_UNIT ( $, .RADIAN. ) );
#186 = EDGE_CURVE ( 'NONE', #362, #55, #346, .T. ) ;
#187 = EDGE_LOOP ( 'NONE', ( #272, #1, #2, #329 ) ) ;
#188 = ORIENTED_EDGE ( 'NONE', *, *, #160, .T. ) ;
#189 = FILL_AREA_STYLE_COLOUR ( '', #90 ) ;
#190 = FACE_OUTER_BOUND ( 'NONE', #316, .T. ) ;
#191 = ORIENTED_EDGE ( 'NONE', *, *, #115, .F. ) ;
#192 = EDGE_CURVE ( 'NONE', #44, #362, #303, .T. ) ;
#193 = ORIENTED_EDGE ( 'NONE', *, *, #192, .T. ) ;
#194 = ORIENTED_EDGE ( 'NONE', *, *, #130, .T. ) ;
#195 = AXIS2_PLACEMENT_3D ( 'NONE', #290, #149, #66 ) ;
#196 = LINE ( 'NONE', #207, #62 ) ;
#197 = VERTEX_POINT ( 'NONE', #347 ) ;
#198 = DIRECTION ( 'NONE',  ( 0.0000000000000000000, 1.000000000000000000, 0.0000000000000000000 ) ) ;
#199 = AXIS2_PLACEMENT_3D ( 'NONE', #143, #284, #338 ) ;
#200 = ORIENTED_EDGE ( 'NONE', *, *, #186, .F. ) ;
#201 = DIRECTION ( 'NONE',  ( 0.0000000000000000000, 0.0000000000000000000, 1.000000000000000000 ) ) ;
#202 = EDGE_CURVE ( 'NONE', #162, #197, #221, .T. ) ;
#203 = DIRECTION ( 'NONE',  ( 0.0000000000000000000, 0.0000000000000000000, -1.000000000000000000 ) ) ;
#204 = EDGE_CURVE ( 'NONE', #251, #181, #372, .T. ) ;
#205 = CONICAL_SURFACE ( 'NONE', #360, 1.200000000000000000, 0.5235987755983002600 ) ;
#206 = ORIENTED_EDGE ( 'NONE', *, *, #202, .T. ) ;
#207 = CARTESIAN_POINT ( 'NONE',  ( 0.0000000000000000000, 0.0000000000000000000, 0.5000000000000004400 ) ) ;
#208 = CARTESIAN_POINT ( 'NONE',  ( 0.0000000000000000000, 0.0000000000000000000, -1.000000000000000000 ) ) ;
#209 = DIRECTION ( 'NONE',  ( 0.0000000000000000000, 1.000000000000000000, 0.0000000000000000000 ) ) ;
#210 = ORIENTED_EDGE ( 'NONE', *, *, #130, .F. ) ;
#211 = SURFACE_SIDE_STYLE ('',( #100 ) ) ;
#212 = PRODUCT ( '38879~0', '38879~0', '', ( #351 ) ) ;
#213 = AXIS2_PLACEMENT_3D ( 'NONE', #173, #137, #116 ) ;
#214 = CIRCLE ( 'NONE', #314, 0.5999999999999999800 ) ;
#215 =( NAMED_UNIT ( * ) PLANE_ANGLE_UNIT ( ) SI_UNIT ( $, .RADIAN. ) );
#216 = ORIENTED_EDGE ( 'NONE', *, *, #258, .T. ) ;
#217 = FACE_OUTER_BOUND ( 'NONE', #332, .T. ) ;
#218 = PRESENTATION_LAYER_ASSIGNMENT (  '', '', ( #354 ) ) ;
#219 = DIRECTION ( 'NONE',  ( 0.0000000000000000000, 0.0000000000000000000, 1.000000000000000000 ) ) ;
#220 = DIRECTION ( 'NONE',  ( 0.0000000000000000000, 0.0000000000000000000, -1.000000000000000000 ) ) ;
#221 = CIRCLE ( 'NONE', #295, 1.000000000000000000 ) ;
#222 = AXIS2_PLACEMENT_3D ( 'NONE', #22, #52, #167 ) ;
#223 = VERTEX_POINT ( 'NONE', #179 ) ;
#224 = SURFACE_SIDE_STYLE ('',( #331 ) ) ;
#225 = PRODUCT_DEFINITION_CONTEXT ( 'detailed design', #42, 'design' ) ;
#226 = CARTESIAN_POINT ( 'NONE',  ( 1.469576158976823600E-016, 13.00000000000000200, 1.200000000000000000 ) ) ;
#227 = LINE ( 'NONE', #117, #146 ) ;
#228 = ORIENTED_EDGE ( 'NONE', *, *, #77, .F. ) ;
#229 = ORIENTED_EDGE ( 'NONE', *, *, #25, .T. ) ;
#230 = DIRECTION ( 'NONE',  ( 0.0000000000000000000, 0.0000000000000000000, -1.000000000000000000 ) ) ;
#231 = CARTESIAN_POINT ( 'NONE',  ( 0.0000000000000000000, 7.000000000000000000, -1.200000000000000000 ) ) ;
#232 = CIRCLE ( 'NONE', #309, 0.2762395692965993200 ) ;
#233 = MECHANICAL_DESIGN_GEOMETRIC_PRESENTATION_REPRESENTATION (  '', ( #354 ), #120 ) ;
#234 = CARTESIAN_POINT ( 'NONE',  ( 0.0000000000000000000, 13.00000000000000200, 0.0000000000000000000 ) ) ;
#235 = CARTESIAN_POINT ( 'NONE',  ( 1.000000000000000000, 6.999999999999999100, 0.0000000000000000000 ) ) ;
#236 = CIRCLE ( 'NONE', #288, 1.200000000000000000 ) ;
#237 = CARTESIAN_POINT ( 'NONE',  ( 1.224646799147353200E-016, 0.0000000000000000000, 1.000000000000000000 ) ) ;
#238 = ORIENTED_EDGE ( 'NONE', *, *, #202, .F. ) ;
#239 = AXIS2_PLACEMENT_3D ( 'NONE', #89, #370, #60 ) ;
#240 = ADVANCED_FACE ( 'NONE', ( #328 ), #366, .T. ) ;
#241 = SURFACE_STYLE_USAGE ( .BOTH. , #211 ) ;
#242 = CARTESIAN_POINT ( 'NONE',  ( 0.0000000000000000000, 0.0000000000000000000, 0.0000000000000000000 ) ) ;
#243 = EDGE_CURVE ( 'NONE', #262, #6, #196, .T. ) ;
#244 = VECTOR ( 'NONE', #308, 1000.000000000000000 ) ;
#245 = APPLICATION_PROTOCOL_DEFINITION ( 'draft international standard', 'automotive_design', 1998, #42 ) ;
#246 = ORIENTED_EDGE ( 'NONE', *, *, #326, .T. ) ;
#247 = TOROIDAL_SURFACE ( 'NONE', #86, 0.2762395692965993200, 0.5999999999999999800 ) ;
#248 = CARTESIAN_POINT ( 'NONE',  ( 0.0000000000000000000, 0.0000000000000000000, -1.200000000000000000 ) ) ;
#249 = CARTESIAN_POINT ( 'NONE',  ( 0.0000000000000000000, 13.70000000000000100, -0.7958548115672607900 ) ) ;
#250 = FACE_OUTER_BOUND ( 'NONE', #353, .T. ) ;
#251 = VERTEX_POINT ( 'NONE', #151 ) ;
#252 = CARTESIAN_POINT ( 'NONE',  ( 0.0000000000000000000, 0.0000000000000000000, 0.0000000000000000000 ) ) ;
#253 = CARTESIAN_POINT ( 'NONE',  ( 0.0000000000000000000, 13.00000000000000200, 0.0000000000000000000 ) ) ;
#254 = UNCERTAINTY_MEASURE_WITH_UNIT (LENGTH_MEASURE( 1.000000000000000100E-005 ), #355, 'distance_accuracy_value', 'NONE');
#255 = CARTESIAN_POINT ( 'NONE',  ( 6.123233995736772200E-017, 0.0000000000000000000, -0.5000000000000004400 ) ) ;
#256 = AXIS2_PLACEMENT_3D ( 'NONE', #150, #93, #9 ) ;
#257 = EDGE_LOOP ( 'NONE', ( #142, #98, #322, #335 ) ) ;
#258 = EDGE_CURVE ( 'NONE', #197, #6, #299, .T. ) ;
#259 = PRESENTATION_STYLE_ASSIGNMENT (( #241 ) ) ;
#260 = VECTOR ( 'NONE', #63, 1000.000000000000000 ) ;
#261 = DIRECTION ( 'NONE',  ( 0.0000000000000000000, 0.0000000000000000000, -1.000000000000000000 ) ) ;
#262 = VERTEX_POINT ( 'NONE', #345 ) ;
#263 = DIRECTION ( 'NONE',  ( 0.0000000000000000000, 0.0000000000000000000, 1.000000000000000000 ) ) ;
#264 = CARTESIAN_POINT ( 'NONE',  ( 0.0000000000000000000, 13.99999999999999800, 0.0000000000000000000 ) ) ;
#265 = ADVANCED_FACE ( 'NONE', ( #190 ), #247, .T. ) ;
#266 = APPLICATION_PROTOCOL_DEFINITION ( 'draft international standard', 'automotive_design', 1998, #14 ) ;
#267 = ADVANCED_BREP_SHAPE_REPRESENTATION ( '38879~0', ( #20, #67 ), #184 ) ;
#268 = ORIENTED_EDGE ( 'NONE', *, *, #99, .F. ) ;
#269 = CARTESIAN_POINT ( 'NONE',  ( 0.0000000000000000000, 13.39999999999999900, 0.2762395692965993200 ) ) ;
#270 = PRODUCT_DEFINITION_FORMATION_WITH_SPECIFIED_SOURCE ( 'ANY', '', #212, .NOT_KNOWN. ) ;
#271 = FACE_BOUND ( 'NONE', #282, .T. ) ;
#272 = ORIENTED_EDGE ( 'NONE', *, *, #258, .F. ) ;
#273 = EDGE_CURVE ( 'NONE', #262, #148, #69, .T. ) ;
#274 = PRODUCT_DEFINITION ( 'UNKNOWN', '', #270, #225 ) ;
#275 = ORIENTED_EDGE ( 'NONE', *, *, #204, .F. ) ;
#276 = AXIS2_PLACEMENT_3D ( 'NONE', #365, #363, #82 ) ;
#277 = CARTESIAN_POINT ( 'NONE',  ( 1.224646799147353200E-016, 0.5000000000000030000, 1.000000000000000000 ) ) ;
#278 = FACE_OUTER_BOUND ( 'NONE', #79, .T. ) ;
#279 = ORIENTED_EDGE ( 'NONE', *, *, #273, .T. ) ;
#280 = CARTESIAN_POINT ( 'NONE',  ( 0.0000000000000000000, 0.5000000000000030000, 0.0000000000000000000 ) ) ;
#281 = UNCERTAINTY_MEASURE_WITH_UNIT (LENGTH_MEASURE( 1.000000000000000100E-005 ), #17, 'distance_accuracy_value', 'NONE');
#282 = EDGE_LOOP ( 'NONE', ( #238, #191 ) ) ;
#283 = DIRECTION ( 'NONE',  ( -0.0000000000000000000, -1.000000000000000000, -0.0000000000000000000 ) ) ;
#284 = DIRECTION ( 'NONE',  ( -0.0000000000000000000, -1.000000000000000000, -0.0000000000000000000 ) ) ;
#285 = DIRECTION ( 'NONE',  ( -0.0000000000000000000, -1.000000000000000000, -0.0000000000000000000 ) ) ;
#286 = CONICAL_SURFACE ( 'NONE', #18, 0.5000000000000004400, 0.7853981633974447300 ) ;
#287 = ORIENTED_EDGE ( 'NONE', *, *, #160, .F. ) ;
#288 = AXIS2_PLACEMENT_3D ( 'NONE', #339, #313, #136 ) ;
#289 = DIRECTION ( 'NONE',  ( 0.0000000000000000000, 1.000000000000000000, 0.0000000000000000000 ) ) ;
#290 = CARTESIAN_POINT ( 'NONE',  ( 0.0000000000000000000, 0.0000000000000000000, 0.0000000000000000000 ) ) ;
#291 = EDGE_CURVE ( 'NONE', #148, #262, #307, .T. ) ;
#292 = TOROIDAL_SURFACE ( 'NONE', #169, 0.2762395692965993200, 0.5999999999999999800 ) ;
#293 = DIRECTION ( 'NONE',  ( 1.000000000000000000, -0.0000000000000000000, 1.224646799147353200E-016 ) ) ;
#294 = ORIENTED_EDGE ( 'NONE', *, *, #122, .T. ) ;
#295 = AXIS2_PLACEMENT_3D ( 'NONE', #68, #94, #177 ) ;
#296 =( NAMED_UNIT ( * ) SI_UNIT ( $, .STERADIAN. ) SOLID_ANGLE_UNIT ( ) );
#297 = ADVANCED_FACE ( 'NONE', ( #319, #271 ), #349, .T. ) ;
#298 = AXIS2_PLACEMENT_3D ( 'NONE', #334, #336, #220 ) ;
#299 = LINE ( 'NONE', #237, #260 ) ;
#300 = DIRECTION ( 'NONE',  ( 0.0000000000000000000, 0.0000000000000000000, 1.000000000000000000 ) ) ;
#301 = EDGE_LOOP ( 'NONE', ( #312, #107 ) ) ;
#302 = STYLED_ITEM ( 'NONE', ( #180 ), #20 ) ;
#303 = CIRCLE ( 'NONE', #108, 0.5999999999999999800 ) ;
#304 = ORIENTED_EDGE ( 'NONE', *, *, #153, .F. ) ;
#305 = CLOSED_SHELL ( 'NONE', ( #265, #71, #125, #10, #323, #12, #155, #65, #297, #240, #183, #352, #41 ) ) ;
#306 = CARTESIAN_POINT ( 'NONE',  ( 1.222108603274344800E-016, 13.70000000000000100, 0.7958548115672607900 ) ) ;
#307 = CIRCLE ( 'NONE', #333, 0.5000000000000004400 ) ;
#308 = DIRECTION ( 'NONE',  ( -0.0000000000000000000, -1.000000000000000000, -0.0000000000000000000 ) ) ;
#309 = AXIS2_PLACEMENT_3D ( 'NONE', #168, #171, #371 ) ;
#310 = CARTESIAN_POINT ( 'NONE',  ( 0.0000000000000000000, 13.99999999999999800, 0.2762395692965993200 ) ) ;
#311 = EDGE_CURVE ( 'NONE', #223, #6, #121, .T. ) ;
#312 = ORIENTED_EDGE ( 'NONE', *, *, #72, .T. ) ;
#313 = DIRECTION ( 'NONE',  ( -0.0000000000000000000, -1.000000000000000000, -0.0000000000000000000 ) ) ;
#314 = AXIS2_PLACEMENT_3D ( 'NONE', #269, #128, #40 ) ;
#315 = FACE_OUTER_BOUND ( 'NONE', #59, .T. ) ;
#316 = EDGE_LOOP ( 'NONE', ( #228, #193, #102, #141 ) ) ;
#317 = PLANE ( 'NONE',  #195 ) ;
#318 = DIRECTION ( 'NONE',  ( -0.0000000000000000000, -1.000000000000000000, -0.0000000000000000000 ) ) ;
#319 = FACE_OUTER_BOUND ( 'NONE', #301, .T. ) ;
#320 = EDGE_LOOP ( 'NONE', ( #156, #133, #19, #359 ) ) ;
#321 = DIRECTION ( 'NONE',  ( 6.123233995736782100E-017, -0.8660254037844380400, 0.5000000000000012200 ) ) ;
#322 = ORIENTED_EDGE ( 'NONE', *, *, #243, .T. ) ;
#323 = ADVANCED_FACE ( 'NONE', ( #315 ), #113, .T. ) ;
#324 = UNCERTAINTY_MEASURE_WITH_UNIT (LENGTH_MEASURE( 1.000000000000000100E-005 ), #81, 'distance_accuracy_value', 'NONE');
#325 = FILL_AREA_STYLE ('',( #189 ) ) ;
#326 = EDGE_CURVE ( 'NONE', #34, #55, #214, .T. ) ;
#327 = DIRECTION ( 'NONE',  ( 0.0000000000000000000, -1.000000000000000000, -0.0000000000000000000 ) ) ;
#328 = FACE_OUTER_BOUND ( 'NONE', #187, .T. ) ;
#329 = ORIENTED_EDGE ( 'NONE', *, *, #311, .T. ) ;
#330 = CARTESIAN_POINT ( 'NONE',  ( 6.564684759543951600E-017, 13.99999999999999800, -0.2762395692965993200 ) ) ;
#331 = SURFACE_STYLE_FILL_AREA ( #135 ) ;
#332 = EDGE_LOOP ( 'NONE', ( #16, #134, #246, #200 ) ) ;
#333 = AXIS2_PLACEMENT_3D ( 'NONE', #182, #356, #357 ) ;
#334 = CARTESIAN_POINT ( 'NONE',  ( 0.0000000000000000000, 0.0000000000000000000, 0.0000000000000000000 ) ) ;
#335 = ORIENTED_EDGE ( 'NONE', *, *, #311, .F. ) ;
#336 = DIRECTION ( 'NONE',  ( -0.0000000000000000000, -1.000000000000000000, -0.0000000000000000000 ) ) ;
#337 = CIRCLE ( 'NONE', #222, 0.7958548115672607900 ) ;
#338 = DIRECTION ( 'NONE',  ( 0.0000000000000000000, 0.0000000000000000000, 1.000000000000000000 ) ) ;
#339 = CARTESIAN_POINT ( 'NONE',  ( 0.0000000000000000000, 13.00000000000000200, 0.0000000000000000000 ) ) ;
#340 = DIRECTION ( 'NONE',  ( 0.0000000000000000000, -0.8660254037844380400, -0.5000000000000012200 ) ) ;
#341 = EDGE_LOOP ( 'NONE', ( #268, #188, #229, #275 ) ) ;
#342 = EDGE_LOOP ( 'NONE', ( #279, #49 ) ) ;
#343 = DIRECTION ( 'NONE',  ( -0.0000000000000000000, -1.000000000000000000, -0.0000000000000000000 ) ) ;
#344 = DIRECTION ( 'NONE',  ( 1.224646799147353000E-016, 0.0000000000000000000, -1.000000000000000000 ) ) ;
#345 = CARTESIAN_POINT ( 'NONE',  ( 0.0000000000000000000, 0.0000000000000000000, 0.5000000000000004400 ) ) ;
#346 = CIRCLE ( 'NONE', #139, 0.2762395692965993200 ) ;
#347 = CARTESIAN_POINT ( 'NONE',  ( 1.224646799147353200E-016, 6.999999999999999100, 1.000000000000000000 ) ) ;
#348 = ORIENTED_EDGE ( 'NONE', *, *, #77, .T. ) ;
#349 = PLANE ( 'NONE',  #76 ) ;
#350 = PRODUCT_DEFINITION_SHAPE ( 'NONE', 'NONE',  #274 ) ;
#351 = PRODUCT_CONTEXT ( 'NONE', #14, 'mechanical' ) ;
#352 = ADVANCED_FACE ( 'NONE', ( #48 ), #286, .T. ) ;
#353 = EDGE_LOOP ( 'NONE', ( #206, #216, #194, #163 ) ) ;
#354 = STYLED_ITEM ( 'NONE', ( #259 ), #267 ) ;
#355 =( LENGTH_UNIT ( ) NAMED_UNIT ( * ) SI_UNIT ( .MILLI., .METRE. ) );
#356 = DIRECTION ( 'NONE',  ( -0.0000000000000000000, -1.000000000000000000, -0.0000000000000000000 ) ) ;
#357 = DIRECTION ( 'NONE',  ( 0.0000000000000000000, 0.0000000000000000000, -1.000000000000000000 ) ) ;
#358 = PRESENTATION_LAYER_ASSIGNMENT (  '', '', ( #302 ) ) ;
#359 = ORIENTED_EDGE ( 'NONE', *, *, #25, .F. ) ;
#360 = AXIS2_PLACEMENT_3D ( 'NONE', #253, #343, #230 ) ;
#361 = LINE ( 'NONE', #226, #105 ) ;
#362 = VERTEX_POINT ( 'NONE', #330 ) ;
#363 = DIRECTION ( 'NONE',  ( 0.0000000000000000000, 1.000000000000000000, 0.0000000000000000000 ) ) ;
#364 = CARTESIAN_POINT ( 'NONE',  ( 0.0000000000000000000, 13.39999999999999900, 0.0000000000000000000 ) ) ;
#365 = CARTESIAN_POINT ( 'NONE',  ( 0.6226497308103727800, 13.99999999999999800, 0.0000000000000000000 ) ) ;
#366 = CYLINDRICAL_SURFACE ( 'NONE', #126, 1.000000000000000000 ) ;
#367 = CYLINDRICAL_SURFACE ( 'NONE', #298, 1.200000000000000000 ) ;
#368 =( NAMED_UNIT ( * ) PLANE_ANGLE_UNIT ( ) SI_UNIT ( $, .RADIAN. ) );
#369 = AXIS2_PLACEMENT_3D ( 'NONE', #252, #283, #138 ) ;
#370 = DIRECTION ( 'NONE',  ( -0.0000000000000000000, -1.000000000000000000, -0.0000000000000000000 ) ) ;
#371 = DIRECTION ( 'NONE',  ( 0.0000000000000000000, 0.0000000000000000000, 1.000000000000000000 ) ) ;
#372 = CIRCLE ( 'NONE', #256, 1.200000000000000000 ) ;
ENDSEC;
END-ISO-10303-21;
