ISO-10303-21;
HEADER;
FILE_DESCRIPTION (( 'STEP AP214' ),
    '1' );
FILE_NAME ('38874~0.STEP',
    '2017-07-04T08:52:57',
    ( '' ),
    ( '' ),
    'SwSTEP 2.0',
    'SolidWorks 2016',
    '' );
FILE_SCHEMA (( 'AUTOMOTIVE_DESIGN' ));
ENDSEC;

DATA;
#1 = ORIENTED_EDGE ( 'NONE', *, *, #80, .T. ) ;
#2 = EDGE_CURVE ( 'NONE', #59, #162, #228, .T. ) ;
#3 = DIRECTION ( 'NONE',  ( 0.0000000000000000000, 0.0000000000000000000, 1.000000000000000000 ) ) ;
#4 = STYLED_ITEM ( 'NONE', ( #151 ), #295 ) ;
#5 = ORIENTED_EDGE ( 'NONE', *, *, #15, .F. ) ;
#6 = DIRECTION ( 'NONE',  ( -0.0000000000000000000, 1.000000000000000000, -0.0000000000000000000 ) ) ;
#7 = CARTESIAN_POINT ( 'NONE',  ( 0.0000000000000000000, 0.0000000000000000000, 0.0000000000000000000 ) ) ;
#8 = AXIS2_PLACEMENT_3D ( 'NONE', #289, #346, #38 ) ;
#9 = ORIENTED_EDGE ( 'NONE', *, *, #335, .T. ) ;
#10 = LINE ( 'NONE', #272, #305 ) ;
#11 = DIRECTION ( 'NONE',  ( 0.0000000000000000000, 0.0000000000000000000, 1.000000000000000000 ) ) ;
#12 =( GEOMETRIC_REPRESENTATION_CONTEXT ( 3 ) GLOBAL_UNCERTAINTY_ASSIGNED_CONTEXT ( ( #239 ) ) GLOBAL_UNIT_ASSIGNED_CONTEXT ( ( #220, #22, #175 ) ) REPRESENTATION_CONTEXT ( 'NONE', 'WORKASPACE' ) );
#13 = ORIENTED_EDGE ( 'NONE', *, *, #196, .F. ) ;
#14 = CARTESIAN_POINT ( 'NONE',  ( 1.163414459189987400E-016, 13.43167305236271700, -0.9500000000000016200 ) ) ;
#15 = EDGE_CURVE ( 'NONE', #184, #148, #207, .T. ) ;
#16 = CARTESIAN_POINT ( 'NONE',  ( 0.0000000000000000000, 6.000000000000000000, 0.0000000000000000000 ) ) ;
#17 = CONICAL_SURFACE ( 'NONE', #203, 0.9500000000000016200, 0.3490658503988665100 ) ;
#18 = EDGE_LOOP ( 'NONE', ( #370, #152 ) ) ;
#19 = ORIENTED_EDGE ( 'NONE', *, *, #371, .T. ) ;
#20 = DIRECTION ( 'NONE',  ( 0.0000000000000000000, 0.0000000000000000000, 1.000000000000000000 ) ) ;
#21 = EDGE_CURVE ( 'NONE', #143, #148, #360, .T. ) ;
#22 =( NAMED_UNIT ( * ) PLANE_ANGLE_UNIT ( ) SI_UNIT ( $, .RADIAN. ) );
#23 = AXIS2_PLACEMENT_3D ( 'NONE', #236, #47, #77 ) ;
#24 = CONICAL_SURFACE ( 'NONE', #276, 0.5000000000000022200, 0.7853981633974480600 ) ;
#25 = DIRECTION ( 'NONE',  ( 4.188538737676999200E-017, -0.9396926207859083200, 0.3420201433256693200 ) ) ;
#26 = PRODUCT_DEFINITION ( 'UNKNOWN', '', #205, #293 ) ;
#27 = DIRECTION ( 'NONE',  ( 0.0000000000000000000, -1.000000000000000000, 0.0000000000000000000 ) ) ;
#28 = CIRCLE ( 'NONE', #341, 0.9500000000000016200 ) ;
#29 = FACE_OUTER_BOUND ( 'NONE', #99, .T. ) ;
#30 = AXIS2_PLACEMENT_3D ( 'NONE', #191, #105, #81 ) ;
#31 = VERTEX_POINT ( 'NONE', #132 ) ;
#32 = VECTOR ( 'NONE', #365, 999.9999999999998900 ) ;
#33 = PRODUCT_RELATED_PRODUCT_CATEGORY ( 'part', '', ( #48 ) ) ;
#34 = EDGE_CURVE ( 'NONE', #366, #240, #209, .T. ) ;
#35 = DIRECTION ( 'NONE',  ( 1.224646799147353000E-016, 0.0000000000000000000, -1.000000000000000000 ) ) ;
#36 = EDGE_LOOP ( 'NONE', ( #281, #363 ) ) ;
#37 = LINE ( 'NONE', #303, #116 ) ;
#38 = DIRECTION ( 'NONE',  ( 0.0000000000000000000, 0.0000000000000000000, 1.000000000000000000 ) ) ;
#39 = DIRECTION ( 'NONE',  ( 0.0000000000000000000, 0.0000000000000000000, 1.000000000000000000 ) ) ;
#40 = ORIENTED_EDGE ( 'NONE', *, *, #283, .F. ) ;
#41 = EDGE_LOOP ( 'NONE', ( #40, #291, #1, #55 ) ) ;
#42 = AXIS2_PLACEMENT_3D ( 'NONE', #16, #110, #190 ) ;
#43 = DIRECTION ( 'NONE',  ( 0.0000000000000000000, 0.0000000000000000000, 1.000000000000000000 ) ) ;
#44 = ORIENTED_EDGE ( 'NONE', *, *, #292, .F. ) ;
#45 = CARTESIAN_POINT ( 'NONE',  ( 0.0000000000000000000, 13.43167305236271700, 0.0000000000000000000 ) ) ;
#46 = CIRCLE ( 'NONE', #218, 1.000000000000002400 ) ;
#47 = DIRECTION ( 'NONE',  ( -0.0000000000000000000, 1.000000000000000000, -0.0000000000000000000 ) ) ;
#48 = PRODUCT ( '38874~0', '38874~0', '', ( #331 ) ) ;
#49 = DIRECTION ( 'NONE',  ( 0.0000000000000000000, 0.0000000000000000000, -1.000000000000000000 ) ) ;
#50 = CARTESIAN_POINT ( 'NONE',  ( 0.0000000000000000000, 6.605212085995401800, 0.0000000000000000000 ) ) ;
#51 = DIRECTION ( 'NONE',  ( 0.0000000000000000000, -0.9396926207859083200, -0.3420201433256693200 ) ) ;
#52 =( GEOMETRIC_REPRESENTATION_CONTEXT ( 3 ) GLOBAL_UNCERTAINTY_ASSIGNED_CONTEXT ( ( #67 ) ) GLOBAL_UNIT_ASSIGNED_CONTEXT ( ( #138, #174, #216 ) ) REPRESENTATION_CONTEXT ( 'NONE', 'WORKASPACE' ) );
#53 = SURFACE_STYLE_FILL_AREA ( #71 ) ;
#54 = DIRECTION ( 'NONE',  ( 0.0000000000000000000, 0.0000000000000000000, 1.000000000000000000 ) ) ;
#55 = ORIENTED_EDGE ( 'NONE', *, *, #130, .F. ) ;
#56 = AXIS2_PLACEMENT_3D ( 'NONE', #45, #298, #140 ) ;
#57 = DIRECTION ( 'NONE',  ( -0.0000000000000000000, 1.000000000000000000, -0.0000000000000000000 ) ) ;
#58 = EDGE_CURVE ( 'NONE', #240, #126, #142, .T. ) ;
#59 = VERTEX_POINT ( 'NONE', #66 ) ;
#60 = PLANE ( 'NONE',  #315 ) ;
#61 = ORIENTED_EDGE ( 'NONE', *, *, #34, .T. ) ;
#62 = VERTEX_POINT ( 'NONE', #254 ) ;
#63 = EDGE_CURVE ( 'NONE', #148, #143, #350, .T. ) ;
#64 = ADVANCED_FACE ( 'NONE', ( #29 ), #189, .T. ) ;
#65 = ORIENTED_EDGE ( 'NONE', *, *, #250, .F. ) ;
#66 = CARTESIAN_POINT ( 'NONE',  ( 0.0000000000000000000, 0.0000000000000000000, 0.9500000000000016200 ) ) ;
#67 = UNCERTAINTY_MEASURE_WITH_UNIT (LENGTH_MEASURE( 1.000000000000000100E-005 ), #138, 'distance_accuracy_value', 'NONE');
#68 = DIRECTION ( 'NONE',  ( -0.0000000000000000000, 1.000000000000000000, -0.0000000000000000000 ) ) ;
#69 = DIRECTION ( 'NONE',  ( -0.0000000000000000000, 1.000000000000000000, -0.0000000000000000000 ) ) ;
#70 = EDGE_CURVE ( 'NONE', #366, #345, #131, .T. ) ;
#71 = FILL_AREA_STYLE ('',( #187 ) ) ;
#72 = EDGE_LOOP ( 'NONE', ( #194, #61, #285, #227 ) ) ;
#73 = ORIENTED_EDGE ( 'NONE', *, *, #283, .T. ) ;
#74 = CARTESIAN_POINT ( 'NONE',  ( 0.0000000000000000000, 0.0000000000000000000, 0.0000000000000000000 ) ) ;
#75 = AXIS2_PLACEMENT_3D ( 'NONE', #119, #154, #372 ) ;
#76 = EDGE_LOOP ( 'NONE', ( #82, #326, #161, #204 ) ) ;
#77 = DIRECTION ( 'NONE',  ( 0.0000000000000000000, 0.0000000000000000000, 1.000000000000000000 ) ) ;
#78 = LINE ( 'NONE', #222, #32 ) ;
#79 = SURFACE_STYLE_USAGE ( .BOTH. , #257 ) ;
#80 = EDGE_CURVE ( 'NONE', #59, #62, #114, .T. ) ;
#81 = DIRECTION ( 'NONE',  ( 0.0000000000000000000, 0.0000000000000000000, 1.000000000000000000 ) ) ;
#82 = ORIENTED_EDGE ( 'NONE', *, *, #91, .T. ) ;
#83 = DIRECTION ( 'NONE',  ( 0.0000000000000000000, 0.7071067811865477900, 0.7071067811865473500 ) ) ;
#84 = FACE_OUTER_BOUND ( 'NONE', #76, .T. ) ;
#85 = CARTESIAN_POINT ( 'NONE',  ( 0.0000000000000000000, 6.605212085995401800, -0.7297208152795178200 ) ) ;
#86 = CARTESIAN_POINT ( 'NONE',  ( 0.0000000000000000000, -6.999999999999999100, 0.0000000000000000000 ) ) ;
#87 = AXIS2_PLACEMENT_3D ( 'NONE', #347, #128, #35 ) ;
#88 = FILL_AREA_STYLE ('',( #117 ) ) ;
#89 =( GEOMETRIC_REPRESENTATION_CONTEXT ( 3 ) GLOBAL_UNCERTAINTY_ASSIGNED_CONTEXT ( ( #348 ) ) GLOBAL_UNIT_ASSIGNED_CONTEXT ( ( #197, #265, #147 ) ) REPRESENTATION_CONTEXT ( 'NONE', 'WORKASPACE' ) );
#90 = DIRECTION ( 'NONE',  ( 0.0000000000000000000, 0.0000000000000000000, 1.000000000000000000 ) ) ;
#91 = EDGE_CURVE ( 'NONE', #165, #184, #144, .T. ) ;
#92 = ORIENTED_EDGE ( 'NONE', *, *, #146, .T. ) ;
#93 = CLOSED_SHELL ( 'NONE', ( #127, #253, #338, #96, #229, #157, #310, #64, #344, #284, #181, #186, #159 ) ) ;
#94 = COLOUR_RGB ( '',0.8235294117647058400, 0.8705882352941176600, 0.9803921568627450600 ) ;
#95 = CARTESIAN_POINT ( 'NONE',  ( 0.0000000000000000000, 0.0000000000000000000, 0.0000000000000000000 ) ) ;
#96 = ADVANCED_FACE ( 'NONE', ( #84 ), #214, .T. ) ;
#97 = EDGE_LOOP ( 'NONE', ( #137, #273, #201, #339 ) ) ;
#98 = DIRECTION ( 'NONE',  ( 0.0000000000000000000, 0.0000000000000000000, 1.000000000000000000 ) ) ;
#99 = EDGE_LOOP ( 'NONE', ( #5, #301, #325, #180 ) ) ;
#100 = DIRECTION ( 'NONE',  ( -1.000000000000000000, 0.0000000000000000000, 0.0000000000000000000 ) ) ;
#101 = CARTESIAN_POINT ( 'NONE',  ( 1.224646799147355700E-016, 13.43167305236271700, -1.000000000000002200 ) ) ;
#102 = FACE_BOUND ( 'NONE', #233, .T. ) ;
#103 = DIRECTION ( 'NONE',  ( 0.0000000000000000000, 0.0000000000000000000, 1.000000000000000000 ) ) ;
#104 = AXIS2_PLACEMENT_3D ( 'NONE', #288, #160, #349 ) ;
#105 = DIRECTION ( 'NONE',  ( -0.0000000000000000000, 1.000000000000000000, -0.0000000000000000000 ) ) ;
#106 = ORIENTED_EDGE ( 'NONE', *, *, #299, .F. ) ;
#107 = CARTESIAN_POINT ( 'NONE',  ( 0.0000000000000000000, 13.43167305236271700, 1.000000000000002200 ) ) ;
#108 = CYLINDRICAL_SURFACE ( 'NONE', #153, 0.9500000000000016200 ) ;
#109 = FACE_OUTER_BOUND ( 'NONE', #124, .T. ) ;
#110 = DIRECTION ( 'NONE',  ( 0.0000000000000000000, -1.000000000000000000, 0.0000000000000000000 ) ) ;
#111 = APPLICATION_PROTOCOL_DEFINITION ( 'draft international standard', 'automotive_design', 1998, #150 ) ;
#112 = CARTESIAN_POINT ( 'NONE',  ( 5.484127926349036200E-017, 7.000000000000000900, -0.1659052428079727800 ) ) ;
#113 = AXIS2_PLACEMENT_3D ( 'NONE', #353, #321, #103 ) ;
#114 = LINE ( 'NONE', #313, #259 ) ;
#115 = APPLICATION_CONTEXT ( 'automotive_design' ) ;
#116 = VECTOR ( 'NONE', #25, 999.9999999999998900 ) ;
#117 = FILL_AREA_STYLE_COLOUR ( '', #94 ) ;
#118 = CARTESIAN_POINT ( 'NONE',  ( 0.0000000000000000000, 0.0000000000000000000, 0.0000000000000000000 ) ) ;
#119 = CARTESIAN_POINT ( 'NONE',  ( 2.869457570061195800E-015, -7.000000000000000000, 0.0000000000000000000 ) ) ;
#120 = CONICAL_SURFACE ( 'NONE', #42, 0.9500000000000016200, 0.3490658503988665100 ) ;
#121 = CARTESIAN_POINT ( 'NONE',  ( 1.163414459189987400E-016, 0.0000000000000000000, -0.9500000000000016200 ) ) ;
#122 = MANIFOLD_SOLID_BREP ( 'Rotation1', #93 ) ;
#123 = CARTESIAN_POINT ( 'NONE',  ( 0.1659052428079728100, 7.000000000000000000, 0.0000000000000000000 ) ) ;
#124 = EDGE_LOOP ( 'NONE', ( #155, #244, #13, #215 ) ) ;
#125 = CIRCLE ( 'NONE', #235, 0.7297208152795178200 ) ;
#126 = VERTEX_POINT ( 'NONE', #247 ) ;
#127 = ADVANCED_FACE ( 'NONE', ( #109 ), #166, .T. ) ;
#128 = DIRECTION ( 'NONE',  ( 1.000000000000000000, 0.0000000000000000000, 1.224646799147353200E-016 ) ) ;
#129 = CARTESIAN_POINT ( 'NONE',  ( 0.0000000000000000000, -6.499999999999999100, 0.0000000000000000000 ) ) ;
#130 = EDGE_CURVE ( 'NONE', #31, #62, #245, .T. ) ;
#131 = CIRCLE ( 'NONE', #87, 0.6000000000000004200 ) ;
#132 = CARTESIAN_POINT ( 'NONE',  ( 1.163414459189987400E-016, 6.000000000000000000, -0.9500000000000016200 ) ) ;
#133 = SHAPE_DEFINITION_REPRESENTATION ( #316, #295 ) ;
#134 = AXIS2_PLACEMENT_3D ( 'NONE', #206, #100, #98 ) ;
#135 = VECTOR ( 'NONE', #212, 1000.000000000000000 ) ;
#136 = ORIENTED_EDGE ( 'NONE', *, *, #164, .T. ) ;
#137 = ORIENTED_EDGE ( 'NONE', *, *, #242, .F. ) ;
#138 =( LENGTH_UNIT ( ) NAMED_UNIT ( * ) SI_UNIT ( .MILLI., .METRE. ) );
#139 = ORIENTED_EDGE ( 'NONE', *, *, #130, .T. ) ;
#140 = DIRECTION ( 'NONE',  ( 0.0000000000000000000, 0.0000000000000000000, 1.000000000000000000 ) ) ;
#141 = CARTESIAN_POINT ( 'NONE',  ( 0.0000000000000000000, -6.499999999999999100, 0.0000000000000000000 ) ) ;
#142 = CIRCLE ( 'NONE', #134, 0.6000000000000004200 ) ;
#143 = VERTEX_POINT ( 'NONE', #306 ) ;
#144 = CIRCLE ( 'NONE', #173, 1.000000000000002400 ) ;
#145 = DIRECTION ( 'NONE',  ( 0.0000000000000000000, 0.0000000000000000000, 1.000000000000000000 ) ) ;
#146 = EDGE_CURVE ( 'NONE', #179, #290, #260, .T. ) ;
#147 =( NAMED_UNIT ( * ) SI_UNIT ( $, .STERADIAN. ) SOLID_ANGLE_UNIT ( ) );
#148 = VERTEX_POINT ( 'NONE', #177 ) ;
#149 = CARTESIAN_POINT ( 'NONE',  ( 0.0000000000000000000, 0.0000000000000000000, 0.0000000000000000000 ) ) ;
#150 = APPLICATION_CONTEXT ( 'automotive_design' ) ;
#151 = PRESENTATION_STYLE_ASSIGNMENT (( #328 ) ) ;
#152 = ORIENTED_EDGE ( 'NONE', *, *, #146, .F. ) ;
#153 = AXIS2_PLACEMENT_3D ( 'NONE', #241, #57, #361 ) ;
#154 = DIRECTION ( 'NONE',  ( -0.0000000000000000000, 1.000000000000000000, 0.0000000000000000000 ) ) ;
#155 = ORIENTED_EDGE ( 'NONE', *, *, #242, .T. ) ;
#156 = VECTOR ( 'NONE', #69, 1000.000000000000000 ) ;
#157 = ADVANCED_FACE ( 'NONE', ( #368 ), #332, .F. ) ;
#158 = SURFACE_STYLE_FILL_AREA ( #88 ) ;
#159 = ADVANCED_FACE ( 'NONE', ( #255 ), #60, .F. ) ;
#160 = DIRECTION ( 'NONE',  ( -0.0000000000000000000, 1.000000000000000000, -0.0000000000000000000 ) ) ;
#161 = ORIENTED_EDGE ( 'NONE', *, *, #21, .F. ) ;
#162 = VERTEX_POINT ( 'NONE', #121 ) ;
#163 = ORIENTED_EDGE ( 'NONE', *, *, #196, .T. ) ;
#164 = EDGE_CURVE ( 'NONE', #345, #126, #252, .T. ) ;
#165 = VERTEX_POINT ( 'NONE', #334 ) ;
#166 = TOROIDAL_SURFACE ( 'NONE', #271, 0.1659052428079728900, 0.6000000000000004200 ) ;
#167 = CARTESIAN_POINT ( 'NONE',  ( 0.0000000000000000000, 6.400000000000000400, 0.0000000000000000000 ) ) ;
#168 = CARTESIAN_POINT ( 'NONE',  ( 0.0000000000000000000, -6.999999999999999100, 0.0000000000000000000 ) ) ;
#169 = CARTESIAN_POINT ( 'NONE',  ( 0.0000000000000000000, 7.000000000000000900, 0.0000000000000000000 ) ) ;
#170 = ORIENTED_EDGE ( 'NONE', *, *, #80, .F. ) ;
#171 = CARTESIAN_POINT ( 'NONE',  ( 0.0000000000000000000, 6.000000000000000000, 0.0000000000000000000 ) ) ;
#172 = DIRECTION ( 'NONE',  ( 0.0000000000000000000, -1.000000000000000000, 0.0000000000000000000 ) ) ;
#173 = AXIS2_PLACEMENT_3D ( 'NONE', #129, #6, #3 ) ;
#174 =( NAMED_UNIT ( * ) PLANE_ANGLE_UNIT ( ) SI_UNIT ( $, .RADIAN. ) );
#175 =( NAMED_UNIT ( * ) SI_UNIT ( $, .STERADIAN. ) SOLID_ANGLE_UNIT ( ) );
#176 = FACE_OUTER_BOUND ( 'NONE', #219, .T. ) ;
#177 = CARTESIAN_POINT ( 'NONE',  ( 1.224646799147355700E-016, 0.0000000000000000000, -1.000000000000002200 ) ) ;
#178 = CIRCLE ( 'NONE', #23, 0.9500000000000016200 ) ;
#179 = VERTEX_POINT ( 'NONE', #300 ) ;
#180 = ORIENTED_EDGE ( 'NONE', *, *, #63, .F. ) ;
#181 = ADVANCED_FACE ( 'NONE', ( #176 ), #17, .T. ) ;
#182 = FACE_OUTER_BOUND ( 'NONE', #41, .T. ) ;
#183 = DIRECTION ( 'NONE',  ( -0.0000000000000000000, 1.000000000000000000, -0.0000000000000000000 ) ) ;
#184 = VERTEX_POINT ( 'NONE', #320 ) ;
#185 = DIRECTION ( 'NONE',  ( -0.0000000000000000000, 1.000000000000000000, -0.0000000000000000000 ) ) ;
#186 = ADVANCED_FACE ( 'NONE', ( #322 ), #356, .T. ) ;
#187 = FILL_AREA_STYLE_COLOUR ( '', #351 ) ;
#188 = AXIS2_PLACEMENT_3D ( 'NONE', #279, #307, #226 ) ;
#189 = CYLINDRICAL_SURFACE ( 'NONE', #8, 1.000000000000002200 ) ;
#190 = DIRECTION ( 'NONE',  ( 0.0000000000000000000, 0.0000000000000000000, -1.000000000000000000 ) ) ;
#191 = CARTESIAN_POINT ( 'NONE',  ( 0.0000000000000000000, -6.999999999999999100, 0.0000000000000000000 ) ) ;
#192 = DIRECTION ( 'NONE',  ( 0.0000000000000000000, 0.0000000000000000000, 1.000000000000000000 ) ) ;
#193 = PLANE ( 'NONE',  #358 ) ;
#194 = ORIENTED_EDGE ( 'NONE', *, *, #70, .F. ) ;
#195 = CIRCLE ( 'NONE', #352, 0.5000000000000022200 ) ;
#196 = EDGE_CURVE ( 'NONE', #126, #345, #248, .T. ) ;
#197 =( LENGTH_UNIT ( ) NAMED_UNIT ( * ) SI_UNIT ( .MILLI., .METRE. ) );
#198 = APPLICATION_PROTOCOL_DEFINITION ( 'draft international standard', 'automotive_design', 1998, #115 ) ;
#199 = FACE_OUTER_BOUND ( 'NONE', #231, .T. ) ;
#200 = CARTESIAN_POINT ( 'NONE',  ( 0.0000000000000000000, 6.400000000000000400, 0.0000000000000000000 ) ) ;
#201 = ORIENTED_EDGE ( 'NONE', *, *, #250, .T. ) ;
#202 = LINE ( 'NONE', #107, #135 ) ;
#203 = AXIS2_PLACEMENT_3D ( 'NONE', #171, #359, #49 ) ;
#204 = ORIENTED_EDGE ( 'NONE', *, *, #266, .F. ) ;
#205 = PRODUCT_DEFINITION_FORMATION_WITH_SPECIFIED_SOURCE ( 'ANY', '', #48, .NOT_KNOWN. ) ;
#206 = CARTESIAN_POINT ( 'NONE',  ( 0.0000000000000000000, 6.400000000000000400, 0.1659052428079728900 ) ) ;
#207 = LINE ( 'NONE', #101, #156 ) ;
#208 = CARTESIAN_POINT ( 'NONE',  ( 0.0000000000000000000, 6.605212085995401800, 0.0000000000000000000 ) ) ;
#209 = CIRCLE ( 'NONE', #367, 0.7297208152795178200 ) ;
#210 = EDGE_CURVE ( 'NONE', #290, #179, #195, .T. ) ;
#211 = ORIENTED_EDGE ( 'NONE', *, *, #2, .F. ) ;
#212 = DIRECTION ( 'NONE',  ( -0.0000000000000000000, 1.000000000000000000, -0.0000000000000000000 ) ) ;
#213 = DIRECTION ( 'NONE',  ( -0.0000000000000000000, 1.000000000000000000, -0.0000000000000000000 ) ) ;
#214 = CYLINDRICAL_SURFACE ( 'NONE', #104, 1.000000000000002200 ) ;
#215 = ORIENTED_EDGE ( 'NONE', *, *, #58, .F. ) ;
#216 =( NAMED_UNIT ( * ) SI_UNIT ( $, .STERADIAN. ) SOLID_ANGLE_UNIT ( ) );
#217 = DIRECTION ( 'NONE',  ( 0.0000000000000000000, -0.0000000000000000000, -1.000000000000000000 ) ) ;
#218 = AXIS2_PLACEMENT_3D ( 'NONE', #141, #296, #319 ) ;
#219 = EDGE_LOOP ( 'NONE', ( #106, #302, #19, #139 ) ) ;
#220 =( LENGTH_UNIT ( ) NAMED_UNIT ( * ) SI_UNIT ( .MILLI., .METRE. ) );
#221 = AXIS2_PLACEMENT_3D ( 'NONE', #149, #54, #330 ) ;
#222 = CARTESIAN_POINT ( 'NONE',  ( 6.123233995736791900E-017, -6.999999999999999100, -0.5000000000000022200 ) ) ;
#223 = DIRECTION ( 'NONE',  ( 0.0000000000000000000, -0.0000000000000000000, -1.000000000000000000 ) ) ;
#224 = DIRECTION ( 'NONE',  ( 0.0000000000000000000, 0.0000000000000000000, 1.000000000000000000 ) ) ;
#225 = ORIENTED_EDGE ( 'NONE', *, *, #91, .F. ) ;
#226 = DIRECTION ( 'NONE',  ( 0.0000000000000000000, 0.0000000000000000000, 1.000000000000000000 ) ) ;
#227 = ORIENTED_EDGE ( 'NONE', *, *, #164, .F. ) ;
#228 = CIRCLE ( 'NONE', #261, 0.9500000000000016200 ) ;
#229 = ADVANCED_FACE ( 'NONE', ( #286 ), #275, .T. ) ;
#230 = ORIENTED_EDGE ( 'NONE', *, *, #335, .F. ) ;
#231 = EDGE_LOOP ( 'NONE', ( #251, #92, #9, #308 ) ) ;
#232 = DIRECTION ( 'NONE',  ( 0.0000000000000000000, 0.0000000000000000000, 1.000000000000000000 ) ) ;
#233 = EDGE_LOOP ( 'NONE', ( #211, #44 ) ) ;
#234 = EDGE_CURVE ( 'NONE', #184, #165, #46, .T. ) ;
#235 = AXIS2_PLACEMENT_3D ( 'NONE', #50, #237, #192 ) ;
#236 = CARTESIAN_POINT ( 'NONE',  ( 0.0000000000000000000, 6.000000000000000000, 0.0000000000000000000 ) ) ;
#237 = DIRECTION ( 'NONE',  ( -0.0000000000000000000, 1.000000000000000000, -0.0000000000000000000 ) ) ;
#238 = LINE ( 'NONE', #268, #333 ) ;
#239 = UNCERTAINTY_MEASURE_WITH_UNIT (LENGTH_MEASURE( 1.000000000000000100E-005 ), #220, 'distance_accuracy_value', 'NONE');
#240 = VERTEX_POINT ( 'NONE', #357 ) ;
#241 = CARTESIAN_POINT ( 'NONE',  ( 0.0000000000000000000, 13.43167305236271700, 0.0000000000000000000 ) ) ;
#242 = EDGE_CURVE ( 'NONE', #240, #366, #125, .T. ) ;
#243 = ORIENTED_EDGE ( 'NONE', *, *, #210, .T. ) ;
#244 = ORIENTED_EDGE ( 'NONE', *, *, #70, .T. ) ;
#245 = CIRCLE ( 'NONE', #188, 0.9500000000000016200 ) ;
#246 = CARTESIAN_POINT ( 'NONE',  ( 1.000000000000002200, -3.061616997868417100E-018, 0.0000000000000000000 ) ) ;
#247 = CARTESIAN_POINT ( 'NONE',  ( 0.0000000000000000000, 7.000000000000000900, 0.1659052428079727800 ) ) ;
#248 = CIRCLE ( 'NONE', #113, 0.1659052428079727800 ) ;
#249 = CARTESIAN_POINT ( 'NONE',  ( 0.0000000000000000000, -6.999999999999999100, 0.0000000000000000000 ) ) ;
#250 = EDGE_CURVE ( 'NONE', #62, #31, #178, .T. ) ;
#251 = ORIENTED_EDGE ( 'NONE', *, *, #324, .F. ) ;
#252 = CIRCLE ( 'NONE', #311, 0.1659052428079727800 ) ;
#253 = ADVANCED_FACE ( 'NONE', ( #309 ), #120, .T. ) ;
#254 = CARTESIAN_POINT ( 'NONE',  ( 0.0000000000000000000, 6.000000000000000000, 0.9500000000000016200 ) ) ;
#255 = FACE_OUTER_BOUND ( 'NONE', #267, .T. ) ;
#256 = DIRECTION ( 'NONE',  ( -0.0000000000000000000, 1.000000000000000000, -0.0000000000000000000 ) ) ;
#257 = SURFACE_SIDE_STYLE ('',( #53 ) ) ;
#258 = PRESENTATION_LAYER_ASSIGNMENT (  '', '', ( #337 ) ) ;
#259 = VECTOR ( 'NONE', #68, 1000.000000000000000 ) ;
#260 = CIRCLE ( 'NONE', #294, 0.5000000000000022200 ) ;
#261 = AXIS2_PLACEMENT_3D ( 'NONE', #95, #314, #232 ) ;
#262 = DIRECTION ( 'NONE',  ( -0.0000000000000000000, 1.000000000000000000, -0.0000000000000000000 ) ) ;
#263 = DIRECTION ( 'NONE',  ( -0.0000000000000000000, 1.000000000000000000, -0.0000000000000000000 ) ) ;
#264 = FACE_OUTER_BOUND ( 'NONE', #342, .T. ) ;
#265 =( NAMED_UNIT ( * ) PLANE_ANGLE_UNIT ( ) SI_UNIT ( $, .RADIAN. ) );
#266 = EDGE_CURVE ( 'NONE', #165, #143, #202, .T. ) ;
#267 = EDGE_LOOP ( 'NONE', ( #163, #136 ) ) ;
#268 = CARTESIAN_POINT ( 'NONE',  ( 0.0000000000000000000, -6.999999999999999100, 0.5000000000000022200 ) ) ;
#269 = VECTOR ( 'NONE', #262, 1000.000000000000000 ) ;
#270 = DIRECTION ( 'NONE',  ( -0.0000000000000000000, 1.000000000000000000, -0.0000000000000000000 ) ) ;
#271 = AXIS2_PLACEMENT_3D ( 'NONE', #200, #277, #90 ) ;
#272 = CARTESIAN_POINT ( 'NONE',  ( 0.0000000000000000000, 6.000000000000000000, -0.9500000000000016200 ) ) ;
#273 = ORIENTED_EDGE ( 'NONE', *, *, #299, .T. ) ;
#274 = CARTESIAN_POINT ( 'NONE',  ( 0.0000000000000000000, -6.999999999999999100, 0.5000000000000022200 ) ) ;
#275 = CONICAL_SURFACE ( 'NONE', #30, 0.5000000000000022200, 0.7853981633974480600 ) ;
#276 = AXIS2_PLACEMENT_3D ( 'NONE', #86, #364, #145 ) ;
#277 = DIRECTION ( 'NONE',  ( -0.0000000000000000000, 1.000000000000000000, -0.0000000000000000000 ) ) ;
#278 = ORIENTED_EDGE ( 'NONE', *, *, #2, .T. ) ;
#279 = CARTESIAN_POINT ( 'NONE',  ( 0.0000000000000000000, 6.000000000000000000, 0.0000000000000000000 ) ) ;
#280 = MECHANICAL_DESIGN_GEOMETRIC_PRESENTATION_REPRESENTATION (  '', ( #337 ), #52 ) ;
#281 = ORIENTED_EDGE ( 'NONE', *, *, #21, .T. ) ;
#282 = EDGE_LOOP ( 'NONE', ( #243, #354, #225, #230 ) ) ;
#283 = EDGE_CURVE ( 'NONE', #162, #31, #318, .T. ) ;
#284 = ADVANCED_FACE ( 'NONE', ( #182 ), #327, .T. ) ;
#285 = ORIENTED_EDGE ( 'NONE', *, *, #58, .T. ) ;
#286 = FACE_OUTER_BOUND ( 'NONE', #282, .T. ) ;
#287 = DIRECTION ( 'NONE',  ( 0.0000000000000000000, 0.0000000000000000000, 1.000000000000000000 ) ) ;
#288 = CARTESIAN_POINT ( 'NONE',  ( 0.0000000000000000000, 13.43167305236271700, 0.0000000000000000000 ) ) ;
#289 = CARTESIAN_POINT ( 'NONE',  ( 0.0000000000000000000, 13.43167305236271700, 0.0000000000000000000 ) ) ;
#290 = VERTEX_POINT ( 'NONE', #274 ) ;
#291 = ORIENTED_EDGE ( 'NONE', *, *, #292, .T. ) ;
#292 = EDGE_CURVE ( 'NONE', #162, #59, #28, .T. ) ;
#293 = PRODUCT_DEFINITION_CONTEXT ( 'detailed design', #115, 'design' ) ;
#294 = AXIS2_PLACEMENT_3D ( 'NONE', #249, #336, #224 ) ;
#295 = ADVANCED_BREP_SHAPE_REPRESENTATION ( '38874~0', ( #122, #221 ), #89 ) ;
#296 = DIRECTION ( 'NONE',  ( -0.0000000000000000000, 1.000000000000000000, -0.0000000000000000000 ) ) ;
#297 = MECHANICAL_DESIGN_GEOMETRIC_PRESENTATION_REPRESENTATION (  '', ( #4 ), #12 ) ;
#298 = DIRECTION ( 'NONE',  ( -0.0000000000000000000, 1.000000000000000000, -0.0000000000000000000 ) ) ;
#299 = EDGE_CURVE ( 'NONE', #240, #62, #37, .T. ) ;
#300 = CARTESIAN_POINT ( 'NONE',  ( 9.184850993605176800E-017, -6.999999999999999100, -0.5000000000000022200 ) ) ;
#301 = ORIENTED_EDGE ( 'NONE', *, *, #234, .T. ) ;
#302 = ORIENTED_EDGE ( 'NONE', *, *, #34, .F. ) ;
#303 = CARTESIAN_POINT ( 'NONE',  ( 1.163414459189987400E-016, 6.000000000000000000, 0.9500000000000016200 ) ) ;
#304 = PRESENTATION_LAYER_ASSIGNMENT (  '', '', ( #4 ) ) ;
#305 = VECTOR ( 'NONE', #51, 999.9999999999998900 ) ;
#306 = CARTESIAN_POINT ( 'NONE',  ( 0.0000000000000000000, 0.0000000000000000000, 1.000000000000002200 ) ) ;
#307 = DIRECTION ( 'NONE',  ( -0.0000000000000000000, 1.000000000000000000, -0.0000000000000000000 ) ) ;
#308 = ORIENTED_EDGE ( 'NONE', *, *, #234, .F. ) ;
#309 = FACE_OUTER_BOUND ( 'NONE', #97, .T. ) ;
#310 = ADVANCED_FACE ( 'NONE', ( #199 ), #24, .T. ) ;
#311 = AXIS2_PLACEMENT_3D ( 'NONE', #169, #213, #20 ) ;
#312 = FACE_OUTER_BOUND ( 'NONE', #36, .T. ) ;
#313 = CARTESIAN_POINT ( 'NONE',  ( 0.0000000000000000000, 13.43167305236271700, 0.9500000000000016200 ) ) ;
#314 = DIRECTION ( 'NONE',  ( -0.0000000000000000000, 1.000000000000000000, -0.0000000000000000000 ) ) ;
#315 = AXIS2_PLACEMENT_3D ( 'NONE', #123, #27, #223 ) ;
#316 = PRODUCT_DEFINITION_SHAPE ( 'NONE', 'NONE',  #26 ) ;
#317 = PRESENTATION_STYLE_ASSIGNMENT (( #79 ) ) ;
#318 = LINE ( 'NONE', #14, #269 ) ;
#319 = DIRECTION ( 'NONE',  ( 0.0000000000000000000, 0.0000000000000000000, 1.000000000000000000 ) ) ;
#320 = CARTESIAN_POINT ( 'NONE',  ( 1.224646799147355900E-016, -6.499999999999999100, -1.000000000000002400 ) ) ;
#321 = DIRECTION ( 'NONE',  ( -0.0000000000000000000, 1.000000000000000000, -0.0000000000000000000 ) ) ;
#322 = FACE_OUTER_BOUND ( 'NONE', #72, .T. ) ;
#323 = DIRECTION ( 'NONE',  ( 0.0000000000000000000, 0.0000000000000000000, 1.000000000000000000 ) ) ;
#324 = EDGE_CURVE ( 'NONE', #179, #184, #78, .T. ) ;
#325 = ORIENTED_EDGE ( 'NONE', *, *, #266, .T. ) ;
#326 = ORIENTED_EDGE ( 'NONE', *, *, #15, .T. ) ;
#327 = CYLINDRICAL_SURFACE ( 'NONE', #56, 0.9500000000000016200 ) ;
#328 = SURFACE_STYLE_USAGE ( .BOTH. , #369 ) ;
#329 = AXIS2_PLACEMENT_3D ( 'NONE', #167, #355, #11 ) ;
#330 = DIRECTION ( 'NONE',  ( 1.000000000000000000, 0.0000000000000000000, 0.0000000000000000000 ) ) ;
#331 = PRODUCT_CONTEXT ( 'NONE', #150, 'mechanical' ) ;
#332 = PLANE ( 'NONE',  #75 ) ;
#333 = VECTOR ( 'NONE', #83, 999.9999999999998900 ) ;
#334 = CARTESIAN_POINT ( 'NONE',  ( 0.0000000000000000000, -6.499999999999999100, 1.000000000000002400 ) ) ;
#335 = EDGE_CURVE ( 'NONE', #290, #165, #238, .T. ) ;
#336 = DIRECTION ( 'NONE',  ( -0.0000000000000000000, 1.000000000000000000, -0.0000000000000000000 ) ) ;
#337 = STYLED_ITEM ( 'NONE', ( #317 ), #122 ) ;
#338 = ADVANCED_FACE ( 'NONE', ( #264 ), #108, .T. ) ;
#339 = ORIENTED_EDGE ( 'NONE', *, *, #371, .F. ) ;
#340 = AXIS2_PLACEMENT_3D ( 'NONE', #7, #256, #287 ) ;
#341 = AXIS2_PLACEMENT_3D ( 'NONE', #118, #270, #323 ) ;
#342 = EDGE_LOOP ( 'NONE', ( #278, #73, #65, #170 ) ) ;
#343 = DIRECTION ( 'NONE',  ( 0.0000000000000000000, 0.0000000000000000000, 1.000000000000000000 ) ) ;
#344 = ADVANCED_FACE ( 'NONE', ( #102, #312 ), #193, .F. ) ;
#345 = VERTEX_POINT ( 'NONE', #112 ) ;
#346 = DIRECTION ( 'NONE',  ( -0.0000000000000000000, 1.000000000000000000, -0.0000000000000000000 ) ) ;
#347 = CARTESIAN_POINT ( 'NONE',  ( 2.031753245665484200E-017, 6.400000000000000400, -0.1659052428079728900 ) ) ;
#348 = UNCERTAINTY_MEASURE_WITH_UNIT (LENGTH_MEASURE( 1.000000000000000100E-005 ), #197, 'distance_accuracy_value', 'NONE');
#349 = DIRECTION ( 'NONE',  ( 0.0000000000000000000, 0.0000000000000000000, 1.000000000000000000 ) ) ;
#350 = CIRCLE ( 'NONE', #362, 1.000000000000002200 ) ;
#351 = COLOUR_RGB ( '',0.8235294117647058400, 0.8705882352941176600, 0.9803921568627450600 ) ;
#352 = AXIS2_PLACEMENT_3D ( 'NONE', #168, #263, #43 ) ;
#353 = CARTESIAN_POINT ( 'NONE',  ( 0.0000000000000000000, 7.000000000000000900, 0.0000000000000000000 ) ) ;
#354 = ORIENTED_EDGE ( 'NONE', *, *, #324, .T. ) ;
#355 = DIRECTION ( 'NONE',  ( -0.0000000000000000000, 1.000000000000000000, -0.0000000000000000000 ) ) ;
#356 = TOROIDAL_SURFACE ( 'NONE', #329, 0.1659052428079728900, 0.6000000000000004200 ) ;
#357 = CARTESIAN_POINT ( 'NONE',  ( 1.028532359946623000E-016, 6.605212085995401800, 0.7297208152795178200 ) ) ;
#358 = AXIS2_PLACEMENT_3D ( 'NONE', #246, #172, #217 ) ;
#359 = DIRECTION ( 'NONE',  ( 0.0000000000000000000, -1.000000000000000000, 0.0000000000000000000 ) ) ;
#360 = CIRCLE ( 'NONE', #340, 1.000000000000002200 ) ;
#361 = DIRECTION ( 'NONE',  ( 0.0000000000000000000, 0.0000000000000000000, 1.000000000000000000 ) ) ;
#362 = AXIS2_PLACEMENT_3D ( 'NONE', #74, #185, #343 ) ;
#363 = ORIENTED_EDGE ( 'NONE', *, *, #63, .T. ) ;
#364 = DIRECTION ( 'NONE',  ( -0.0000000000000000000, 1.000000000000000000, -0.0000000000000000000 ) ) ;
#365 = DIRECTION ( 'NONE',  ( 8.659560562354931600E-017, 0.7071067811865477900, -0.7071067811865473500 ) ) ;
#366 = VERTEX_POINT ( 'NONE', #85 ) ;
#367 = AXIS2_PLACEMENT_3D ( 'NONE', #208, #183, #39 ) ;
#368 = FACE_OUTER_BOUND ( 'NONE', #18, .T. ) ;
#369 = SURFACE_SIDE_STYLE ('',( #158 ) ) ;
#370 = ORIENTED_EDGE ( 'NONE', *, *, #210, .F. ) ;
#371 = EDGE_CURVE ( 'NONE', #366, #31, #10, .T. ) ;
#372 = DIRECTION ( 'NONE',  ( 0.0000000000000000000, 0.0000000000000000000, 1.000000000000000000 ) ) ;
ENDSEC;
END-ISO-10303-21;
