ISO-10303-21;
HEADER;
FILE_DESCRIPTION (( 'STEP AP214' ),
    '1' );
FILE_NAME ('38873~1.STEP',
    '2019-11-07T08:14:11',
    ( '' ),
    ( '' ),
    'SwSTEP 2.0',
    'SolidWorks 2018',
    '' );
FILE_SCHEMA (( 'AUTOMOTIVE_DESIGN' ));
ENDSEC;

DATA;
#1 = VERTEX_POINT ( 'NONE', #312 ) ;
#2 = CONICAL_SURFACE ( 'NONE', #354, 0.9000000000000015765, 0.3490658503988666728 ) ;
#3 = EDGE_LOOP ( 'NONE', ( #104, #192, #330, #217 ) ) ;
#4 = DIRECTION ( 'NONE',  ( 0.0000000000000000000, 0.0000000000000000000, 1.000000000000000000 ) ) ;
#5 = CARTESIAN_POINT ( 'NONE',  ( 0.0000000000000000000, 0.0000000000000000000, 1.000000000000002220 ) ) ;
#6 = EDGE_CURVE ( 'NONE', #94, #43, #164, .T. ) ;
#7 = CIRCLE ( 'NONE', #121, 0.1159052428079730135 ) ;
#8 = CARTESIAN_POINT ( 'NONE',  ( 0.0000000000000000000, 13.43167305236271680, 0.0000000000000000000 ) ) ;
#9 = CARTESIAN_POINT ( 'NONE',  ( 0.0000000000000000000, -6.999999999999999112, 0.0000000000000000000 ) ) ;
#10 = DIRECTION ( 'NONE',  ( -0.0000000000000000000, 1.000000000000000000, -0.0000000000000000000 ) ) ;
#11 = CARTESIAN_POINT ( 'NONE',  ( 1.224646799147355919E-16, -6.499999999999999112, -1.000000000000002442 ) ) ;
#12 = ORIENTED_EDGE ( 'NONE', *, *, #13, .F. ) ;
#13 = EDGE_CURVE ( 'NONE', #114, #84, #147, .T. ) ;
#14 = CARTESIAN_POINT ( 'NONE',  ( 1.224646799147355672E-16, 13.43167305236271680, -1.000000000000002220 ) ) ;
#15 = VERTEX_POINT ( 'NONE', #289 ) ;
#16 = FACE_OUTER_BOUND ( 'NONE', #227, .T. ) ;
#17 = DIRECTION ( 'NONE',  ( 0.0000000000000000000, 0.0000000000000000000, 1.000000000000000000 ) ) ;
#18 = ORIENTED_EDGE ( 'NONE', *, *, #266, .T. ) ;
#19 = COLOUR_RGB ( '',0.7529411764705882248, 0.7529411764705882248, 0.7529411764705882248 ) ;
#20 = DIRECTION ( 'NONE',  ( -0.0000000000000000000, 1.000000000000000000, -0.0000000000000000000 ) ) ;
#21 = AXIS2_PLACEMENT_3D ( 'NONE', #153, #99, #123 ) ;
#22 =( NAMED_UNIT ( * ) SI_UNIT ( $, .STERADIAN. ) SOLID_ANGLE_UNIT ( ) );
#23 = ORIENTED_EDGE ( 'NONE', *, *, #214, .T. ) ;
#24 = VERTEX_POINT ( 'NONE', #165 ) ;
#25 = EDGE_CURVE ( 'NONE', #305, #24, #116, .T. ) ;
#26 = CARTESIAN_POINT ( 'NONE',  ( 0.0000000000000000000, -6.999999999999999112, 0.0000000000000000000 ) ) ;
#27 = EDGE_CURVE ( 'NONE', #225, #94, #37, .T. ) ;
#28 = STYLED_ITEM ( 'NONE', ( #80 ), #277 ) ;
#29 = CYLINDRICAL_SURFACE ( 'NONE', #21, 0.9000000000000015765 ) ;
#30 = DIRECTION ( 'NONE',  ( -0.0000000000000000000, 1.000000000000000000, -0.0000000000000000000 ) ) ;
#31 = EDGE_LOOP ( 'NONE', ( #100, #237, #366, #12 ) ) ;
#32 = CARTESIAN_POINT ( 'NONE',  ( 0.0000000000000000000, 6.605212085995401772, 0.0000000000000000000 ) ) ;
#33 = CARTESIAN_POINT ( 'NONE',  ( 0.0000000000000000000, 6.400000000000000355, 0.0000000000000000000 ) ) ;
#34 = ADVANCED_FACE ( 'NONE', ( #48 ), #209, .T. ) ;
#35 = CARTESIAN_POINT ( 'NONE',  ( 0.0000000000000000000, -6.999999999999999112, 0.0000000000000000000 ) ) ;
#36 = EDGE_CURVE ( 'NONE', #70, #94, #137, .T. ) ;
#37 = CIRCLE ( 'NONE', #72, 1.000000000000002442 ) ;
#38 = DIRECTION ( 'NONE',  ( 0.0000000000000000000, 0.7071067811865477948, 0.7071067811865473507 ) ) ;
#39 = DIRECTION ( 'NONE',  ( -0.0000000000000000000, 1.000000000000000000, -0.0000000000000000000 ) ) ;
#40 = CARTESIAN_POINT ( 'NONE',  ( 2.869457570061195819E-15, -7.000000000000000000, 0.0000000000000000000 ) ) ;
#41 = ORIENTED_EDGE ( 'NONE', *, *, #143, .F. ) ;
#42 = CIRCLE ( 'NONE', #178, 1.000000000000002220 ) ;
#43 = VERTEX_POINT ( 'NONE', #5 ) ;
#44 = SURFACE_SIDE_STYLE ('',( #238 ) ) ;
#45 = EDGE_CURVE ( 'NONE', #305, #242, #219, .T. ) ;
#46 = UNCERTAINTY_MEASURE_WITH_UNIT (LENGTH_MEASURE( 1.000000000000000082E-05 ), #68, 'distance_accuracy_value', 'NONE');
#47 = DIRECTION ( 'NONE',  ( -0.0000000000000000000, 1.000000000000000000, -0.0000000000000000000 ) ) ;
#48 = FACE_OUTER_BOUND ( 'NONE', #177, .T. ) ;
#49 = AXIS2_PLACEMENT_3D ( 'NONE', #360, #39, #150 ) ;
#50 = CARTESIAN_POINT ( 'NONE',  ( 0.0000000000000000000, 6.400000000000000355, 0.1159052428079729719 ) ) ;
#51 = SURFACE_SIDE_STYLE ('',( #306 ) ) ;
#52 = VERTEX_POINT ( 'NONE', #234 ) ;
#53 = CYLINDRICAL_SURFACE ( 'NONE', #308, 1.000000000000002220 ) ;
#54 = AXIS2_PLACEMENT_3D ( 'NONE', #32, #118, #4 ) ;
#55 = PRESENTATION_LAYER_ASSIGNMENT (  '', '', ( #28 ) ) ;
#56 = EDGE_CURVE ( 'NONE', #52, #70, #213, .T. ) ;
#57 = ADVANCED_FACE ( 'NONE', ( #141 ), #232, .F. ) ;
#58 = VECTOR ( 'NONE', #348, 999.9999999999998863 ) ;
#59 = CARTESIAN_POINT ( 'NONE',  ( 0.0000000000000000000, -6.999999999999999112, 0.5000000000000022204 ) ) ;
#60 = DIRECTION ( 'NONE',  ( -0.0000000000000000000, 1.000000000000000000, -0.0000000000000000000 ) ) ;
#61 = EDGE_CURVE ( 'NONE', #242, #114, #81, .T. ) ;
#62 = PRODUCT_DEFINITION_CONTEXT ( 'detailed design', #160, 'design' ) ;
#63 = DIRECTION ( 'NONE',  ( -0.0000000000000000000, 1.000000000000000000, -0.0000000000000000000 ) ) ;
#64 = VERTEX_POINT ( 'NONE', #117 ) ;
#65 = CARTESIAN_POINT ( 'NONE',  ( 0.0000000000000000000, 0.0000000000000000000, 0.0000000000000000000 ) ) ;
#66 = PLANE ( 'NONE',  #303 ) ;
#67 = AXIS2_PLACEMENT_3D ( 'NONE', #317, #142, #145 ) ;
#68 =( LENGTH_UNIT ( ) NAMED_UNIT ( * ) SI_UNIT ( .MILLI., .METRE. ) );
#69 = EDGE_CURVE ( 'NONE', #70, #52, #243, .T. ) ;
#70 = VERTEX_POINT ( 'NONE', #205 ) ;
#71 = DIRECTION ( 'NONE',  ( 0.0000000000000000000, 0.0000000000000000000, 1.000000000000000000 ) ) ;
#72 = AXIS2_PLACEMENT_3D ( 'NONE', #169, #224, #316 ) ;
#73 = DIRECTION ( 'NONE',  ( -0.0000000000000000000, 1.000000000000000000, -0.0000000000000000000 ) ) ;
#74 = APPLICATION_PROTOCOL_DEFINITION ( 'draft international standard', 'automotive_design', 1998, #250 ) ;
#75 = EDGE_LOOP ( 'NONE', ( #342, #318, #253, #346 ) ) ;
#76 = FACE_OUTER_BOUND ( 'NONE', #331, .T. ) ;
#77 = ORIENTED_EDGE ( 'NONE', *, *, #92, .F. ) ;
#78 = DIRECTION ( 'NONE',  ( 1.000000000000000000, 0.0000000000000000000, 0.0000000000000000000 ) ) ;
#79 = UNCERTAINTY_MEASURE_WITH_UNIT (LENGTH_MEASURE( 1.000000000000000082E-05 ), #304, 'distance_accuracy_value', 'NONE');
#80 = PRESENTATION_STYLE_ASSIGNMENT (( #338 ) ) ;
#81 = CIRCLE ( 'NONE', #106, 0.6000000000000003109 ) ;
#82 = AXIS2_PLACEMENT_3D ( 'NONE', #26, #228, #262 ) ;
#83 = ORIENTED_EDGE ( 'NONE', *, *, #313, .F. ) ;
#84 = VERTEX_POINT ( 'NONE', #347 ) ;
#85 = ADVANCED_FACE ( 'NONE', ( #198 ), #363, .T. ) ;
#86 = DIRECTION ( 'NONE',  ( -0.0000000000000000000, 1.000000000000000000, -0.0000000000000000000 ) ) ;
#87 = EDGE_CURVE ( 'NONE', #1, #15, #341, .T. ) ;
#88 = DIRECTION ( 'NONE',  ( 1.000000000000000000, 0.0000000000000000000, 1.224646799147353207E-16 ) ) ;
#89 = VECTOR ( 'NONE', #95, 1000.000000000000000 ) ;
#90 = ORIENTED_EDGE ( 'NONE', *, *, #351, .F. ) ;
#91 = CARTESIAN_POINT ( 'NONE',  ( 1.419429846091808663E-17, 6.400000000000000355, -0.1159052428079729719 ) ) ;
#92 = EDGE_CURVE ( 'NONE', #52, #225, #222, .T. ) ;
#93 = CARTESIAN_POINT ( 'NONE',  ( 6.123233995736791920E-17, -6.999999999999999112, -0.5000000000000022204 ) ) ;
#94 = VERTEX_POINT ( 'NONE', #120 ) ;
#95 = DIRECTION ( 'NONE',  ( -0.0000000000000000000, 1.000000000000000000, -0.0000000000000000000 ) ) ;
#96 = FILL_AREA_STYLE ('',( #185 ) ) ;
#97 = ORIENTED_EDGE ( 'NONE', *, *, #61, .T. ) ;
#98 = TOROIDAL_SURFACE ( 'NONE', #199, 0.1159052428079729719, 0.6000000000000003109 ) ;
#99 = DIRECTION ( 'NONE',  ( -0.0000000000000000000, 1.000000000000000000, -0.0000000000000000000 ) ) ;
#100 = ORIENTED_EDGE ( 'NONE', *, *, #61, .F. ) ;
#101 = AXIS2_PLACEMENT_3D ( 'NONE', #230, #60, #352 ) ;
#102 = DIRECTION ( 'NONE',  ( 0.0000000000000000000, 0.0000000000000000000, 1.000000000000000000 ) ) ;
#103 = AXIS2_PLACEMENT_3D ( 'NONE', #173, #30, #320 ) ;
#104 = ORIENTED_EDGE ( 'NONE', *, *, #69, .T. ) ;
#105 = CARTESIAN_POINT ( 'NONE',  ( 9.673000199892553262E-17, 6.605212085995401772, 0.6797208152795176650 ) ) ;
#106 = AXIS2_PLACEMENT_3D ( 'NONE', #91, #88, #322 ) ;
#107 = ORIENTED_EDGE ( 'NONE', *, *, #27, .T. ) ;
#108 = SHAPE_DEFINITION_REPRESENTATION ( #290, #277 ) ;
#109 = LINE ( 'NONE', #271, #367 ) ;
#110 = EDGE_CURVE ( 'NONE', #64, #1, #311, .T. ) ;
#111 = CARTESIAN_POINT ( 'NONE',  ( 0.0000000000000000000, 13.43167305236271680, 1.000000000000002220 ) ) ;
#112 = ORIENTED_EDGE ( 'NONE', *, *, #235, .T. ) ;
#113 = CARTESIAN_POINT ( 'NONE',  ( 0.0000000000000000000, 7.000000000000000888, 0.0000000000000000000 ) ) ;
#114 = VERTEX_POINT ( 'NONE', #115 ) ;
#115 = CARTESIAN_POINT ( 'NONE',  ( 4.871804526775360951E-17, 7.000000000000000888, -0.1159052428079730135 ) ) ;
#116 = LINE ( 'NONE', #343, #119 ) ;
#117 = CARTESIAN_POINT ( 'NONE',  ( 0.0000000000000000000, 0.0000000000000000000, 0.9000000000000015765 ) ) ;
#118 = DIRECTION ( 'NONE',  ( -0.0000000000000000000, 1.000000000000000000, -0.0000000000000000000 ) ) ;
#119 = VECTOR ( 'NONE', #195, 999.9999999999998863 ) ;
#120 = CARTESIAN_POINT ( 'NONE',  ( 0.0000000000000000000, -6.499999999999999112, 1.000000000000002442 ) ) ;
#121 = AXIS2_PLACEMENT_3D ( 'NONE', #295, #349, #175 ) ;
#122 = DIRECTION ( 'NONE',  ( 0.0000000000000000000, -0.0000000000000000000, -1.000000000000000000 ) ) ;
#123 = DIRECTION ( 'NONE',  ( 0.0000000000000000000, 0.0000000000000000000, 1.000000000000000000 ) ) ;
#124 = ORIENTED_EDGE ( 'NONE', *, *, #87, .F. ) ;
#125 = CYLINDRICAL_SURFACE ( 'NONE', #157, 1.000000000000002220 ) ;
#126 = FACE_OUTER_BOUND ( 'NONE', #75, .T. ) ;
#127 = CARTESIAN_POINT ( 'NONE',  ( 1.224646799147355672E-16, 0.0000000000000000000, -1.000000000000002220 ) ) ;
#128 = DIRECTION ( 'NONE',  ( 0.0000000000000000000, 0.0000000000000000000, 1.000000000000000000 ) ) ;
#129 = DIRECTION ( 'NONE',  ( -1.000000000000000000, 0.0000000000000000000, 0.0000000000000000000 ) ) ;
#130 = AXIS2_PLACEMENT_3D ( 'NONE', #131, #73, #215 ) ;
#131 = CARTESIAN_POINT ( 'NONE',  ( 0.0000000000000000000, 6.000000000000000000, 0.0000000000000000000 ) ) ;
#132 = PRODUCT ( '38873~1', '38873~1', '', ( #283 ) ) ;
#133 = FILL_AREA_STYLE_COLOUR ( '', #19 ) ;
#134 = DIRECTION ( 'NONE',  ( -0.0000000000000000000, 1.000000000000000000, -0.0000000000000000000 ) ) ;
#135 = ORIENTED_EDGE ( 'NONE', *, *, #351, .T. ) ;
#136 = COLOUR_RGB ( '',0.7529411764705882248, 0.7529411764705882248, 0.7529411764705882248 ) ;
#137 = LINE ( 'NONE', #59, #155 ) ;
#138 = EDGE_LOOP ( 'NONE', ( #356, #231, #90, #194 ) ) ;
#139 = AXIS2_PLACEMENT_3D ( 'NONE', #332, #359, #122 ) ;
#140 = ORIENTED_EDGE ( 'NONE', *, *, #36, .T. ) ;
#141 = FACE_OUTER_BOUND ( 'NONE', #260, .T. ) ;
#142 = DIRECTION ( 'NONE',  ( 0.0000000000000000000, -1.000000000000000000, 0.0000000000000000000 ) ) ;
#143 = EDGE_CURVE ( 'NONE', #84, #114, #7, .T. ) ;
#144 = AXIS2_PLACEMENT_3D ( 'NONE', #179, #206, #239 ) ;
#145 = DIRECTION ( 'NONE',  ( 0.0000000000000000000, -0.0000000000000000000, -1.000000000000000000 ) ) ;
#146 = ADVANCED_FACE ( 'NONE', ( #126 ), #171, .T. ) ;
#147 = CIRCLE ( 'NONE', #371, 0.1159052428079730135 ) ;
#148 = PRODUCT_DEFINITION ( 'UNKNOWN', '', #368, #62 ) ;
#149 = DIRECTION ( 'NONE',  ( 0.0000000000000000000, 0.0000000000000000000, 1.000000000000000000 ) ) ;
#150 = DIRECTION ( 'NONE',  ( 0.0000000000000000000, 0.0000000000000000000, 1.000000000000000000 ) ) ;
#151 = EDGE_LOOP ( 'NONE', ( #159, #97, #41, #83 ) ) ;
#152 = FACE_BOUND ( 'NONE', #294, .T. ) ;
#153 = CARTESIAN_POINT ( 'NONE',  ( 0.0000000000000000000, 13.43167305236271680, 0.0000000000000000000 ) ) ;
#154 = DIRECTION ( 'NONE',  ( 0.0000000000000000000, -1.000000000000000000, 0.0000000000000000000 ) ) ;
#155 = VECTOR ( 'NONE', #38, 999.9999999999998863 ) ;
#156 = DIRECTION ( 'NONE',  ( 0.0000000000000000000, 0.0000000000000000000, 1.000000000000000000 ) ) ;
#157 = AXIS2_PLACEMENT_3D ( 'NONE', #189, #247, #156 ) ;
#158 = EDGE_LOOP ( 'NONE', ( #284, #263, #287, #255 ) ) ;
#159 = ORIENTED_EDGE ( 'NONE', *, *, #45, .T. ) ;
#160 = APPLICATION_CONTEXT ( 'automotive_design' ) ;
#161 = EDGE_CURVE ( 'NONE', #242, #15, #109, .T. ) ;
#162 = MECHANICAL_DESIGN_GEOMETRIC_PRESENTATION_REPRESENTATION (  '', ( #252 ), #323 ) ;
#163 = CONICAL_SURFACE ( 'NONE', #229, 0.5000000000000022204, 0.7853981633974480570 ) ;
#164 = LINE ( 'NONE', #111, #265 ) ;
#165 = CARTESIAN_POINT ( 'NONE',  ( 0.0000000000000000000, 6.000000000000000000, 0.9000000000000015765 ) ) ;
#166 = EDGE_LOOP ( 'NONE', ( #202, #107, #190, #181 ) ) ;
#167 = ADVANCED_FACE ( 'NONE', ( #183 ), #163, .T. ) ;
#168 = DIRECTION ( 'NONE',  ( -0.0000000000000000000, 1.000000000000000000, -0.0000000000000000000 ) ) ;
#169 = CARTESIAN_POINT ( 'NONE',  ( 0.0000000000000000000, -6.499999999999999112, 0.0000000000000000000 ) ) ;
#170 = DIRECTION ( 'NONE',  ( -0.0000000000000000000, 1.000000000000000000, -0.0000000000000000000 ) ) ;
#171 = CYLINDRICAL_SURFACE ( 'NONE', #184, 0.9000000000000015765 ) ;
#172 = ORIENTED_EDGE ( 'NONE', *, *, #256, .F. ) ;
#173 = CARTESIAN_POINT ( 'NONE',  ( 0.0000000000000000000, 0.0000000000000000000, 0.0000000000000000000 ) ) ;
#174 = DIRECTION ( 'NONE',  ( 0.0000000000000000000, 0.0000000000000000000, 1.000000000000000000 ) ) ;
#175 = DIRECTION ( 'NONE',  ( 0.0000000000000000000, 0.0000000000000000000, 1.000000000000000000 ) ) ;
#176 = DIRECTION ( 'NONE',  ( -0.0000000000000000000, 1.000000000000000000, -0.0000000000000000000 ) ) ;
#177 = EDGE_LOOP ( 'NONE', ( #77, #337, #140, #292 ) ) ;
#178 = AXIS2_PLACEMENT_3D ( 'NONE', #65, #355, #241 ) ;
#179 = CARTESIAN_POINT ( 'NONE',  ( 0.0000000000000000000, -6.499999999999999112, 0.0000000000000000000 ) ) ;
#180 = PLANE ( 'NONE',  #139 ) ;
#181 = ORIENTED_EDGE ( 'NONE', *, *, #214, .F. ) ;
#182 = FACE_OUTER_BOUND ( 'NONE', #158, .T. ) ;
#183 = FACE_OUTER_BOUND ( 'NONE', #3, .T. ) ;
#184 = AXIS2_PLACEMENT_3D ( 'NONE', #8, #170, #149 ) ;
#185 = FILL_AREA_STYLE_COLOUR ( '', #136 ) ;
#186 =( NAMED_UNIT ( * ) SI_UNIT ( $, .STERADIAN. ) SOLID_ANGLE_UNIT ( ) );
#187 = VERTEX_POINT ( 'NONE', #127 ) ;
#188 =( LENGTH_UNIT ( ) NAMED_UNIT ( * ) SI_UNIT ( .MILLI., .METRE. ) );
#189 = CARTESIAN_POINT ( 'NONE',  ( 0.0000000000000000000, 13.43167305236271680, 0.0000000000000000000 ) ) ;
#190 = ORIENTED_EDGE ( 'NONE', *, *, #6, .T. ) ;
#191 = FACE_OUTER_BOUND ( 'NONE', #166, .T. ) ;
#192 = ORIENTED_EDGE ( 'NONE', *, *, #92, .T. ) ;
#193 = AXIS2_PLACEMENT_3D ( 'NONE', #9, #176, #203 ) ;
#194 = ORIENTED_EDGE ( 'NONE', *, *, #6, .F. ) ;
#195 = DIRECTION ( 'NONE',  ( 4.188538737677001009E-17, -0.9396926207859082059, 0.3420201433256694901 ) ) ;
#196 = ORIENTED_EDGE ( 'NONE', *, *, #361, .F. ) ;
#197 = CIRCLE ( 'NONE', #216, 1.000000000000002220 ) ;
#198 = FACE_OUTER_BOUND ( 'NONE', #151, .T. ) ;
#199 = AXIS2_PLACEMENT_3D ( 'NONE', #358, #211, #300 ) ;
#200 = DIRECTION ( 'NONE',  ( 0.0000000000000000000, -0.9396926207859082059, -0.3420201433256694901 ) ) ;
#201 = AXIS2_PLACEMENT_3D ( 'NONE', #275, #326, #207 ) ;
#202 = ORIENTED_EDGE ( 'NONE', *, *, #286, .F. ) ;
#203 = DIRECTION ( 'NONE',  ( 0.0000000000000000000, 0.0000000000000000000, 1.000000000000000000 ) ) ;
#204 = ADVANCED_FACE ( 'NONE', ( #212 ), #98, .T. ) ;
#205 = CARTESIAN_POINT ( 'NONE',  ( 0.0000000000000000000, -6.999999999999999112, 0.5000000000000022204 ) ) ;
#206 = DIRECTION ( 'NONE',  ( -0.0000000000000000000, 1.000000000000000000, -0.0000000000000000000 ) ) ;
#207 = DIRECTION ( 'NONE',  ( 0.0000000000000000000, 0.0000000000000000000, 1.000000000000000000 ) ) ;
#208 = FACE_OUTER_BOUND ( 'NONE', #259, .T. ) ;
#209 = CONICAL_SURFACE ( 'NONE', #82, 0.5000000000000022204, 0.7853981633974480570 ) ;
#210 = DIRECTION ( 'NONE',  ( -0.0000000000000000000, 1.000000000000000000, -0.0000000000000000000 ) ) ;
#211 = DIRECTION ( 'NONE',  ( -0.0000000000000000000, 1.000000000000000000, -0.0000000000000000000 ) ) ;
#212 = FACE_OUTER_BOUND ( 'NONE', #31, .T. ) ;
#213 = CIRCLE ( 'NONE', #101, 0.5000000000000022204 ) ;
#214 = EDGE_CURVE ( 'NONE', #187, #43, #42, .T. ) ;
#215 = DIRECTION ( 'NONE',  ( 0.0000000000000000000, 0.0000000000000000000, 1.000000000000000000 ) ) ;
#216 = AXIS2_PLACEMENT_3D ( 'NONE', #334, #20, #281 ) ;
#217 = ORIENTED_EDGE ( 'NONE', *, *, #36, .F. ) ;
#218 = CIRCLE ( 'NONE', #144, 1.000000000000002442 ) ;
#219 = CIRCLE ( 'NONE', #54, 0.6797208152795176650 ) ;
#220 = APPLICATION_PROTOCOL_DEFINITION ( 'draft international standard', 'automotive_design', 1998, #160 ) ;
#221 = AXIS2_PLACEMENT_3D ( 'NONE', #33, #321, #174 ) ;
#222 = LINE ( 'NONE', #93, #58 ) ;
#223 = AXIS2_PLACEMENT_3D ( 'NONE', #50, #129, #17 ) ;
#224 = DIRECTION ( 'NONE',  ( -0.0000000000000000000, 1.000000000000000000, -0.0000000000000000000 ) ) ;
#225 = VERTEX_POINT ( 'NONE', #11 ) ;
#226 = ADVANCED_FACE ( 'NONE', ( #16 ), #2, .T. ) ;
#227 = EDGE_LOOP ( 'NONE', ( #276, #196, #370, #112 ) ) ;
#228 = DIRECTION ( 'NONE',  ( -0.0000000000000000000, 1.000000000000000000, -0.0000000000000000000 ) ) ;
#229 = AXIS2_PLACEMENT_3D ( 'NONE', #35, #63, #299 ) ;
#230 = CARTESIAN_POINT ( 'NONE',  ( 0.0000000000000000000, -6.999999999999999112, 0.0000000000000000000 ) ) ;
#231 = ORIENTED_EDGE ( 'NONE', *, *, #286, .T. ) ;
#232 = PLANE ( 'NONE',  #67 ) ;
#233 = ORIENTED_EDGE ( 'NONE', *, *, #56, .F. ) ;
#234 = CARTESIAN_POINT ( 'NONE',  ( 9.184850993605176787E-17, -6.999999999999999112, -0.5000000000000022204 ) ) ;
#235 = EDGE_CURVE ( 'NONE', #15, #24, #325, .T. ) ;
#236 = ADVANCED_FACE ( 'NONE', ( #274 ), #66, .F. ) ;
#237 = ORIENTED_EDGE ( 'NONE', *, *, #361, .T. ) ;
#238 = SURFACE_STYLE_FILL_AREA ( #96 ) ;
#239 = DIRECTION ( 'NONE',  ( 0.0000000000000000000, 0.0000000000000000000, 1.000000000000000000 ) ) ;
#240 = CARTESIAN_POINT ( 'NONE',  ( 0.0000000000000000000, 6.000000000000000000, 0.0000000000000000000 ) ) ;
#241 = DIRECTION ( 'NONE',  ( 0.0000000000000000000, 0.0000000000000000000, 1.000000000000000000 ) ) ;
#242 = VERTEX_POINT ( 'NONE', #272 ) ;
#243 = CIRCLE ( 'NONE', #193, 0.5000000000000022204 ) ;
#244 = SURFACE_STYLE_USAGE ( .BOTH. , #44 ) ;
#245 = AXIS2_PLACEMENT_3D ( 'NONE', #251, #47, #362 ) ;
#246 = DIRECTION ( 'NONE',  ( 0.0000000000000000000, -1.000000000000000000, 0.0000000000000000000 ) ) ;
#247 = DIRECTION ( 'NONE',  ( -0.0000000000000000000, 1.000000000000000000, -0.0000000000000000000 ) ) ;
#248 = ORIENTED_EDGE ( 'NONE', *, *, #235, .F. ) ;
#249 = CIRCLE ( 'NONE', #223, 0.6000000000000003109 ) ;
#250 = APPLICATION_CONTEXT ( 'automotive_design' ) ;
#251 = CARTESIAN_POINT ( 'NONE',  ( 0.0000000000000000000, 6.605212085995401772, 0.0000000000000000000 ) ) ;
#252 = STYLED_ITEM ( 'NONE', ( #310 ), #288 ) ;
#253 = ORIENTED_EDGE ( 'NONE', *, *, #335, .F. ) ;
#254 = CONICAL_SURFACE ( 'NONE', #261, 0.9000000000000015765, 0.3490658503988666728 ) ;
#255 = ORIENTED_EDGE ( 'NONE', *, *, #161, .F. ) ;
#256 = EDGE_CURVE ( 'NONE', #1, #64, #340, .T. ) ;
#257 = EDGE_CURVE ( 'NONE', #94, #225, #218, .T. ) ;
#258 = DIRECTION ( 'NONE',  ( 0.0000000000000000000, 0.0000000000000000000, 1.000000000000000000 ) ) ;
#259 = EDGE_LOOP ( 'NONE', ( #135, #23 ) ) ;
#260 = EDGE_LOOP ( 'NONE', ( #279, #350 ) ) ;
#261 = AXIS2_PLACEMENT_3D ( 'NONE', #339, #246, #333 ) ;
#262 = DIRECTION ( 'NONE',  ( 0.0000000000000000000, 0.0000000000000000000, 1.000000000000000000 ) ) ;
#263 = ORIENTED_EDGE ( 'NONE', *, *, #25, .T. ) ;
#264 = CIRCLE ( 'NONE', #130, 0.9000000000000015765 ) ;
#265 = VECTOR ( 'NONE', #86, 1000.000000000000000 ) ;
#266 = EDGE_CURVE ( 'NONE', #64, #24, #357, .T. ) ;
#267 = ADVANCED_FACE ( 'NONE', ( #152, #208 ), #180, .F. ) ;
#268 = CARTESIAN_POINT ( 'NONE',  ( 1.102182119232619883E-16, 13.43167305236271680, -0.9000000000000015765 ) ) ;
#269 = ADVANCED_FACE ( 'NONE', ( #76 ), #29, .T. ) ;
#270 = MECHANICAL_DESIGN_GEOMETRIC_PRESENTATION_REPRESENTATION (  '', ( #28 ), #297 ) ;
#271 = CARTESIAN_POINT ( 'NONE',  ( 0.0000000000000000000, 6.000000000000000000, -0.9000000000000015765 ) ) ;
#272 = CARTESIAN_POINT ( 'NONE',  ( 0.0000000000000000000, 6.605212085995401772, -0.6797208152795176650 ) ) ;
#273 = PRESENTATION_LAYER_ASSIGNMENT (  '', '', ( #252 ) ) ;
#274 = FACE_OUTER_BOUND ( 'NONE', #298, .T. ) ;
#275 = CARTESIAN_POINT ( 'NONE',  ( 0.0000000000000000000, 6.000000000000000000, 0.0000000000000000000 ) ) ;
#276 = ORIENTED_EDGE ( 'NONE', *, *, #25, .F. ) ;
#277 = ADVANCED_BREP_SHAPE_REPRESENTATION ( '38873~1', ( #288, #328 ), #282 ) ;
#278 =( NAMED_UNIT ( * ) PLANE_ANGLE_UNIT ( ) SI_UNIT ( $, .RADIAN. ) );
#279 = ORIENTED_EDGE ( 'NONE', *, *, #143, .T. ) ;
#280 = CARTESIAN_POINT ( 'NONE',  ( 0.0000000000000000000, 0.0000000000000000000, 0.0000000000000000000 ) ) ;
#281 = DIRECTION ( 'NONE',  ( 0.0000000000000000000, 0.0000000000000000000, 1.000000000000000000 ) ) ;
#282 =( GEOMETRIC_REPRESENTATION_CONTEXT ( 3 ) GLOBAL_UNCERTAINTY_ASSIGNED_CONTEXT ( ( #369 ) ) GLOBAL_UNIT_ASSIGNED_CONTEXT ( ( #188, #302, #186 ) ) REPRESENTATION_CONTEXT ( 'NONE', 'WORKASPACE' ) );
#283 = PRODUCT_CONTEXT ( 'NONE', #250, 'mechanical' ) ;
#284 = ORIENTED_EDGE ( 'NONE', *, *, #45, .F. ) ;
#285 = LINE ( 'NONE', #14, #293 ) ;
#286 = EDGE_CURVE ( 'NONE', #225, #187, #285, .T. ) ;
#287 = ORIENTED_EDGE ( 'NONE', *, *, #335, .T. ) ;
#288 = MANIFOLD_SOLID_BREP ( 'Rotation1', #307 ) ;
#289 = CARTESIAN_POINT ( 'NONE',  ( 1.102182119232619883E-16, 6.000000000000000000, -0.9000000000000015765 ) ) ;
#290 = PRODUCT_DEFINITION_SHAPE ( 'NONE', 'NONE',  #148 ) ;
#291 = ADVANCED_FACE ( 'NONE', ( #191 ), #125, .T. ) ;
#292 = ORIENTED_EDGE ( 'NONE', *, *, #27, .F. ) ;
#293 = VECTOR ( 'NONE', #210, 1000.000000000000000 ) ;
#294 = EDGE_LOOP ( 'NONE', ( #314, #172 ) ) ;
#295 = CARTESIAN_POINT ( 'NONE',  ( 0.0000000000000000000, 7.000000000000000888, 0.0000000000000000000 ) ) ;
#296 =( NAMED_UNIT ( * ) SI_UNIT ( $, .STERADIAN. ) SOLID_ANGLE_UNIT ( ) );
#297 =( GEOMETRIC_REPRESENTATION_CONTEXT ( 3 ) GLOBAL_UNCERTAINTY_ASSIGNED_CONTEXT ( ( #79 ) ) GLOBAL_UNIT_ASSIGNED_CONTEXT ( ( #304, #365, #22 ) ) REPRESENTATION_CONTEXT ( 'NONE', 'WORKASPACE' ) );
#298 = EDGE_LOOP ( 'NONE', ( #309, #233 ) ) ;
#299 = DIRECTION ( 'NONE',  ( 0.0000000000000000000, 0.0000000000000000000, 1.000000000000000000 ) ) ;
#300 = DIRECTION ( 'NONE',  ( 0.0000000000000000000, 0.0000000000000000000, 1.000000000000000000 ) ) ;
#301 = VECTOR ( 'NONE', #10, 1000.000000000000000 ) ;
#302 =( NAMED_UNIT ( * ) PLANE_ANGLE_UNIT ( ) SI_UNIT ( $, .RADIAN. ) );
#303 = AXIS2_PLACEMENT_3D ( 'NONE', #40, #353, #128 ) ;
#304 =( LENGTH_UNIT ( ) NAMED_UNIT ( * ) SI_UNIT ( .MILLI., .METRE. ) );
#305 = VERTEX_POINT ( 'NONE', #105 ) ;
#306 = SURFACE_STYLE_FILL_AREA ( #364 ) ;
#307 = CLOSED_SHELL ( 'NONE', ( #85, #372, #146, #344, #167, #236, #34, #291, #267, #269, #226, #204, #57 ) ) ;
#308 = AXIS2_PLACEMENT_3D ( 'NONE', #336, #134, #71 ) ;
#309 = ORIENTED_EDGE ( 'NONE', *, *, #69, .F. ) ;
#310 = PRESENTATION_STYLE_ASSIGNMENT (( #244 ) ) ;
#311 = CIRCLE ( 'NONE', #103, 0.9000000000000015765 ) ;
#312 = CARTESIAN_POINT ( 'NONE',  ( 1.102182119232619883E-16, 0.0000000000000000000, -0.9000000000000015765 ) ) ;
#313 = EDGE_CURVE ( 'NONE', #305, #84, #249, .T. ) ;
#314 = ORIENTED_EDGE ( 'NONE', *, *, #110, .F. ) ;
#315 = PRODUCT_RELATED_PRODUCT_CATEGORY ( 'part', '', ( #132 ) ) ;
#316 = DIRECTION ( 'NONE',  ( 0.0000000000000000000, 0.0000000000000000000, 1.000000000000000000 ) ) ;
#317 = CARTESIAN_POINT ( 'NONE',  ( 0.1159052428079729719, 7.000000000000000000, 0.0000000000000000000 ) ) ;
#318 = ORIENTED_EDGE ( 'NONE', *, *, #87, .T. ) ;
#319 = FACE_OUTER_BOUND ( 'NONE', #138, .T. ) ;
#320 = DIRECTION ( 'NONE',  ( 0.0000000000000000000, 0.0000000000000000000, 1.000000000000000000 ) ) ;
#321 = DIRECTION ( 'NONE',  ( -0.0000000000000000000, 1.000000000000000000, -0.0000000000000000000 ) ) ;
#322 = DIRECTION ( 'NONE',  ( 1.224646799147352714E-16, 0.0000000000000000000, -1.000000000000000000 ) ) ;
#323 =( GEOMETRIC_REPRESENTATION_CONTEXT ( 3 ) GLOBAL_UNCERTAINTY_ASSIGNED_CONTEXT ( ( #46 ) ) GLOBAL_UNIT_ASSIGNED_CONTEXT ( ( #68, #278, #296 ) ) REPRESENTATION_CONTEXT ( 'NONE', 'WORKASPACE' ) );
#324 = ORIENTED_EDGE ( 'NONE', *, *, #256, .T. ) ;
#325 = CIRCLE ( 'NONE', #201, 0.9000000000000015765 ) ;
#326 = DIRECTION ( 'NONE',  ( -0.0000000000000000000, 1.000000000000000000, -0.0000000000000000000 ) ) ;
#327 = CARTESIAN_POINT ( 'NONE',  ( 0.0000000000000000000, 13.43167305236271680, 0.9000000000000015765 ) ) ;
#328 = AXIS2_PLACEMENT_3D ( 'NONE', #280, #102, #78 ) ;
#329 = DIRECTION ( 'NONE',  ( 0.0000000000000000000, 0.0000000000000000000, -1.000000000000000000 ) ) ;
#330 = ORIENTED_EDGE ( 'NONE', *, *, #257, .F. ) ;
#331 = EDGE_LOOP ( 'NONE', ( #124, #324, #18, #248 ) ) ;
#332 = CARTESIAN_POINT ( 'NONE',  ( 1.000000000000002220, 0.0000000000000000000, 0.0000000000000000000 ) ) ;
#333 = DIRECTION ( 'NONE',  ( 0.0000000000000000000, 0.0000000000000000000, -1.000000000000000000 ) ) ;
#334 = CARTESIAN_POINT ( 'NONE',  ( 0.0000000000000000000, 0.0000000000000000000, 0.0000000000000000000 ) ) ;
#335 = EDGE_CURVE ( 'NONE', #24, #15, #264, .T. ) ;
#336 = CARTESIAN_POINT ( 'NONE',  ( 0.0000000000000000000, 13.43167305236271680, 0.0000000000000000000 ) ) ;
#337 = ORIENTED_EDGE ( 'NONE', *, *, #56, .T. ) ;
#338 = SURFACE_STYLE_USAGE ( .BOTH. , #51 ) ;
#339 = CARTESIAN_POINT ( 'NONE',  ( 0.0000000000000000000, 6.000000000000000000, 0.0000000000000000000 ) ) ;
#340 = CIRCLE ( 'NONE', #49, 0.9000000000000015765 ) ;
#341 = LINE ( 'NONE', #268, #301 ) ;
#342 = ORIENTED_EDGE ( 'NONE', *, *, #110, .T. ) ;
#343 = CARTESIAN_POINT ( 'NONE',  ( 1.102182119232619883E-16, 6.000000000000000000, 0.9000000000000015765 ) ) ;
#344 = ADVANCED_FACE ( 'NONE', ( #319 ), #53, .T. ) ;
#345 = CIRCLE ( 'NONE', #245, 0.6797208152795176650 ) ;
#346 = ORIENTED_EDGE ( 'NONE', *, *, #266, .F. ) ;
#347 = CARTESIAN_POINT ( 'NONE',  ( 0.0000000000000000000, 7.000000000000000888, 0.1159052428079730135 ) ) ;
#348 = DIRECTION ( 'NONE',  ( 8.659560562354931626E-17, 0.7071067811865477948, -0.7071067811865473507 ) ) ;
#349 = DIRECTION ( 'NONE',  ( -0.0000000000000000000, 1.000000000000000000, -0.0000000000000000000 ) ) ;
#350 = ORIENTED_EDGE ( 'NONE', *, *, #13, .T. ) ;
#351 = EDGE_CURVE ( 'NONE', #43, #187, #197, .T. ) ;
#352 = DIRECTION ( 'NONE',  ( 0.0000000000000000000, 0.0000000000000000000, 1.000000000000000000 ) ) ;
#353 = DIRECTION ( 'NONE',  ( -0.0000000000000000000, 1.000000000000000000, 0.0000000000000000000 ) ) ;
#354 = AXIS2_PLACEMENT_3D ( 'NONE', #240, #154, #329 ) ;
#355 = DIRECTION ( 'NONE',  ( -0.0000000000000000000, 1.000000000000000000, -0.0000000000000000000 ) ) ;
#356 = ORIENTED_EDGE ( 'NONE', *, *, #257, .T. ) ;
#357 = LINE ( 'NONE', #327, #89 ) ;
#358 = CARTESIAN_POINT ( 'NONE',  ( 0.0000000000000000000, 6.400000000000000355, 0.0000000000000000000 ) ) ;
#359 = DIRECTION ( 'NONE',  ( 0.0000000000000000000, -1.000000000000000000, 0.0000000000000000000 ) ) ;
#360 = CARTESIAN_POINT ( 'NONE',  ( 0.0000000000000000000, 0.0000000000000000000, 0.0000000000000000000 ) ) ;
#361 = EDGE_CURVE ( 'NONE', #242, #305, #345, .T. ) ;
#362 = DIRECTION ( 'NONE',  ( 0.0000000000000000000, 0.0000000000000000000, 1.000000000000000000 ) ) ;
#363 = TOROIDAL_SURFACE ( 'NONE', #221, 0.1159052428079729719, 0.6000000000000003109 ) ;
#364 = FILL_AREA_STYLE ('',( #133 ) ) ;
#365 =( NAMED_UNIT ( * ) PLANE_ANGLE_UNIT ( ) SI_UNIT ( $, .RADIAN. ) );
#366 = ORIENTED_EDGE ( 'NONE', *, *, #313, .T. ) ;
#367 = VECTOR ( 'NONE', #200, 999.9999999999998863 ) ;
#368 = PRODUCT_DEFINITION_FORMATION_WITH_SPECIFIED_SOURCE ( 'ANY', '', #132, .NOT_KNOWN. ) ;
#369 = UNCERTAINTY_MEASURE_WITH_UNIT (LENGTH_MEASURE( 1.000000000000000082E-05 ), #188, 'distance_accuracy_value', 'NONE');
#370 = ORIENTED_EDGE ( 'NONE', *, *, #161, .T. ) ;
#371 = AXIS2_PLACEMENT_3D ( 'NONE', #113, #168, #258 ) ;
#372 = ADVANCED_FACE ( 'NONE', ( #182 ), #254, .T. ) ;
ENDSEC;
END-ISO-10303-21;
