ISO-10303-21;
HEADER;
FILE_DESCRIPTION (( 'STEP AP214' ),
    '1' );
FILE_NAME ('INGUN_3609.STEP',
    '2021-01-20T07:56:47',
    ( '' ),
    ( '' ),
    'SwSTEP 2.0',
    'SolidWorks 2018',
    '' );
FILE_SCHEMA (( 'AUTOMOTIVE_DESIGN' ));
ENDSEC;

DATA;
#1 = DIRECTION ( 'NONE',  ( -0.000000000000000000, 1.000000000000000000, -0.000000000000000000 ) ) ;
#2 = EDGE_LOOP ( 'NONE', ( #338, #125 ) ) ;
#3 = CYLINDRICAL_SURFACE ( 'NONE', #7, 1.000000000000004441 ) ;
#4 = VERTEX_POINT ( 'NONE', #18 ) ;
#5 = ADVANCED_FACE ( 'NONE', ( #261 ), #82, .F. ) ;
#6 = DIRECTION ( 'NONE',  ( 0.000000000000000000, 0.000000000000000000, 1.000000000000000000 ) ) ;
#7 = AXIS2_PLACEMENT_3D ( 'NONE', #253, #112, #308 ) ;
#8 = VECTOR ( 'NONE', #262, 1000.000000000000000 ) ;
#9 = DIRECTION ( 'NONE',  ( 0.000000000000000000, -1.000000000000000000, 0.000000000000000000 ) ) ;
#10 = VERTEX_POINT ( 'NONE', #372 ) ;
#11 = PLANE ( 'NONE',  #72 ) ;
#12 = CARTESIAN_POINT ( 'NONE',  ( 1.224646799147358877E-16, 2.450000000000000622, -1.000000000000004885 ) ) ;
#13 = ORIENTED_EDGE ( 'NONE', *, *, #225, .T. ) ;
#14 = PRESENTATION_LAYER_ASSIGNMENT (  '', '', ( #123 ) ) ;
#15 = DIRECTION ( 'NONE',  ( 0.000000000000000000, 0.000000000000000000, 1.000000000000000000 ) ) ;
#16 = DIRECTION ( 'NONE',  ( -0.000000000000000000, 1.000000000000000000, -0.000000000000000000 ) ) ;
#17 = CARTESIAN_POINT ( 'NONE',  ( 0.000000000000000000, 4.750000000000000888, 0.000000000000000000 ) ) ;
#18 = CARTESIAN_POINT ( 'NONE',  ( 0.000000000000000000, 4.750000000000000888, 2.000000000000005329 ) ) ;
#19 = DIRECTION ( 'NONE',  ( -0.000000000000000000, 1.000000000000000000, -0.000000000000000000 ) ) ;
#20 = UNCERTAINTY_MEASURE_WITH_UNIT (LENGTH_MEASURE( 1.000000000000000082E-05 ), #86, 'distance_accuracy_value', 'NONE');
#21 = PRODUCT_CONTEXT ( 'NONE', #197, 'mechanical' ) ;
#22 = ORIENTED_EDGE ( 'NONE', *, *, #160, .T. ) ;
#23 = DIRECTION ( 'NONE',  ( 0.000000000000000000, 0.000000000000000000, 1.000000000000000000 ) ) ;
#24 = EDGE_CURVE ( 'NONE', #291, #147, #363, .T. ) ;
#25 = APPLICATION_PROTOCOL_DEFINITION ( 'draft international standard', 'automotive_design', 1998, #197 ) ;
#26 = EDGE_LOOP ( 'NONE', ( #289, #191 ) ) ;
#27 = EDGE_LOOP ( 'NONE', ( #58, #55 ) ) ;
#28 = DIRECTION ( 'NONE',  ( -0.000000000000000000, 1.000000000000000000, -0.000000000000000000 ) ) ;
#29 = EDGE_CURVE ( 'NONE', #163, #44, #47, .T. ) ;
#30 = SURFACE_STYLE_FILL_AREA ( #342 ) ;
#31 = AXIS2_PLACEMENT_3D ( 'NONE', #94, #126, #33 ) ;
#32 = EDGE_LOOP ( 'NONE', ( #129, #137, #353, #303 ) ) ;
#33 = DIRECTION ( 'NONE',  ( 0.000000000000000000, 0.000000000000000000, 1.000000000000000000 ) ) ;
#34 = EDGE_LOOP ( 'NONE', ( #318, #88 ) ) ;
#35 =( GEOMETRIC_REPRESENTATION_CONTEXT ( 3 ) GLOBAL_UNCERTAINTY_ASSIGNED_CONTEXT ( ( #186 ) ) GLOBAL_UNIT_ASSIGNED_CONTEXT ( ( #52, #377, #85 ) ) REPRESENTATION_CONTEXT ( 'NONE', 'WORKASPACE' ) );
#36 = VECTOR ( 'NONE', #28, 1000.000000000000000 ) ;
#37 = ORIENTED_EDGE ( 'NONE', *, *, #237, .T. ) ;
#38 = DIRECTION ( 'NONE',  ( 0.000000000000000000, 0.000000000000000000, 1.000000000000000000 ) ) ;
#39 = EDGE_CURVE ( 'NONE', #345, #99, #378, .T. ) ;
#40 = CARTESIAN_POINT ( 'NONE',  ( 0.000000000000000000, 4.050000000000001599, 1.000000000000004219 ) ) ;
#41 = CARTESIAN_POINT ( 'NONE',  ( 0.000000000000000000, 30.17397590361445125, 0.000000000000000000 ) ) ;
#42 = ORIENTED_EDGE ( 'NONE', *, *, #97, .F. ) ;
#43 = AXIS2_PLACEMENT_3D ( 'NONE', #375, #290, #118 ) ;
#44 = VERTEX_POINT ( 'NONE', #293 ) ;
#45 = CARTESIAN_POINT ( 'NONE',  ( 0.000000000000000000, -4.749999999999997335, 0.000000000000000000 ) ) ;
#46 = DIRECTION ( 'NONE',  ( -0.000000000000000000, 1.000000000000000000, -0.000000000000000000 ) ) ;
#47 = CIRCLE ( 'NONE', #31, 0.7000000000000041744 ) ;
#48 = EDGE_CURVE ( 'NONE', #264, #4, #156, .T. ) ;
#49 = DIRECTION ( 'NONE',  ( 0.000000000000000000, 0.000000000000000000, 1.000000000000000000 ) ) ;
#50 = AXIS2_PLACEMENT_3D ( 'NONE', #56, #122, #319 ) ;
#51 = DIRECTION ( 'NONE',  ( 0.000000000000000000, 0.000000000000000000, 1.000000000000000000 ) ) ;
#52 =( LENGTH_UNIT ( ) NAMED_UNIT ( * ) SI_UNIT ( .MILLI., .METRE. ) );
#53 = CIRCLE ( 'NONE', #350, 1.000000000000004219 ) ;
#54 = EDGE_LOOP ( 'NONE', ( #347, #202, #201, #162 ) ) ;
#55 = ORIENTED_EDGE ( 'NONE', *, *, #174, .F. ) ;
#56 = CARTESIAN_POINT ( 'NONE',  ( 0.000000000000000000, -4.749999999999997335, 0.000000000000000000 ) ) ;
#57 = LINE ( 'NONE', #213, #287 ) ;
#58 = ORIENTED_EDGE ( 'NONE', *, *, #29, .F. ) ;
#59 = UNCERTAINTY_MEASURE_WITH_UNIT (LENGTH_MEASURE( 1.000000000000000082E-05 ), #314, 'distance_accuracy_value', 'NONE');
#60 = FACE_OUTER_BOUND ( 'NONE', #67, .T. ) ;
#61 = EDGE_LOOP ( 'NONE', ( #241, #13, #256, #152 ) ) ;
#62 = ORIENTED_EDGE ( 'NONE', *, *, #141, .F. ) ;
#63 = ADVANCED_FACE ( 'NONE', ( #271 ), #119, .T. ) ;
#64 = ADVANCED_FACE ( 'NONE', ( #111 ), #288, .F. ) ;
#65 = FACE_OUTER_BOUND ( 'NONE', #260, .T. ) ;
#66 = DIRECTION ( 'NONE',  ( -0.000000000000000000, 1.000000000000000000, -0.000000000000000000 ) ) ;
#67 = EDGE_LOOP ( 'NONE', ( #211, #42 ) ) ;
#68 = EDGE_CURVE ( 'NONE', #207, #345, #183, .T. ) ;
#69 = DIRECTION ( 'NONE',  ( -0.000000000000000000, 1.000000000000000000, 0.000000000000000000 ) ) ;
#70 = PLANE ( 'NONE',  #144 ) ;
#71 = FACE_BOUND ( 'NONE', #2, .T. ) ;
#72 = AXIS2_PLACEMENT_3D ( 'NONE', #101, #9, #219 ) ;
#73 = ORIENTED_EDGE ( 'NONE', *, *, #24, .T. ) ;
#74 = CARTESIAN_POINT ( 'NONE',  ( 0.000000000000000000, 30.17397590361445125, 1.000000000000004441 ) ) ;
#75 = DIRECTION ( 'NONE',  ( 0.000000000000000000, 0.000000000000000000, 1.000000000000000000 ) ) ;
#76 = DIRECTION ( 'NONE',  ( 0.000000000000000000, 0.000000000000000000, 1.000000000000000000 ) ) ;
#77 = SURFACE_SIDE_STYLE ('',( #145 ) ) ;
#78 = APPLICATION_PROTOCOL_DEFINITION ( 'draft international standard', 'automotive_design', 1998, #198 ) ;
#79 = PRESENTATION_LAYER_ASSIGNMENT (  '', '', ( #273 ) ) ;
#80 = CYLINDRICAL_SURFACE ( 'NONE', #373, 1.050000000000004929 ) ;
#81 = CARTESIAN_POINT ( 'NONE',  ( 1.285879139104728128E-16, -4.749999999999997335, -1.050000000000005818 ) ) ;
#82 = CYLINDRICAL_SURFACE ( 'NONE', #193, 0.7000000000000041744 ) ;
#83 = EDGE_CURVE ( 'NONE', #207, #248, #93, .T. ) ;
#84 = DIRECTION ( 'NONE',  ( -0.000000000000000000, 1.000000000000000000, -0.000000000000000000 ) ) ;
#85 =( NAMED_UNIT ( * ) SI_UNIT ( $, .STERADIAN. ) SOLID_ANGLE_UNIT ( ) );
#86 =( LENGTH_UNIT ( ) NAMED_UNIT ( * ) SI_UNIT ( .MILLI., .METRE. ) );
#87 = FACE_BOUND ( 'NONE', #130, .T. ) ;
#88 = ORIENTED_EDGE ( 'NONE', *, *, #114, .F. ) ;
#89 = PRODUCT_DEFINITION_SHAPE ( 'NONE', 'NONE',  #220 ) ;
#90 = EDGE_CURVE ( 'NONE', #99, #345, #102, .T. ) ;
#91 = AXIS2_PLACEMENT_3D ( 'NONE', #349, #153, #182 ) ;
#92 = FACE_OUTER_BOUND ( 'NONE', #239, .T. ) ;
#93 = CIRCLE ( 'NONE', #124, 1.050000000000005818 ) ;
#94 = CARTESIAN_POINT ( 'NONE',  ( 0.000000000000000000, 0.2500000000000002220, 0.000000000000000000 ) ) ;
#95 = ADVANCED_FACE ( 'NONE', ( #295 ), #235, .T. ) ;
#96 = ORIENTED_EDGE ( 'NONE', *, *, #160, .F. ) ;
#97 = EDGE_CURVE ( 'NONE', #364, #10, #333, .T. ) ;
#98 = FACE_OUTER_BOUND ( 'NONE', #26, .T. ) ;
#99 = VERTEX_POINT ( 'NONE', #224 ) ;
#100 = AXIS2_PLACEMENT_3D ( 'NONE', #245, #246, #274 ) ;
#101 = CARTESIAN_POINT ( 'NONE',  ( 5.128577638341018255E-15, 4.750000000000001776, 0.000000000000000000 ) ) ;
#102 = CIRCLE ( 'NONE', #265, 1.050000000000004041 ) ;
#103 = ORIENTED_EDGE ( 'NONE', *, *, #225, .F. ) ;
#104 = CARTESIAN_POINT ( 'NONE',  ( 0.000000000000000000, 2.450000000000000622, 1.000000000000004885 ) ) ;
#105 = CARTESIAN_POINT ( 'NONE',  ( 8.572527594031523726E-17, 30.17397590361445125, -0.7000000000000041744 ) ) ;
#106 = CARTESIAN_POINT ( 'NONE',  ( 0.000000000000000000, 30.17397590361445125, 0.000000000000000000 ) ) ;
#107 = DIRECTION ( 'NONE',  ( -0.000000000000000000, 1.000000000000000000, -0.000000000000000000 ) ) ;
#108 = DIRECTION ( 'NONE',  ( -0.000000000000000000, 1.000000000000000000, -0.000000000000000000 ) ) ;
#109 = EDGE_CURVE ( 'NONE', #276, #44, #367, .T. ) ;
#110 = DIRECTION ( 'NONE',  ( 0.000000000000000000, 0.000000000000000000, 1.000000000000000000 ) ) ;
#111 = FACE_OUTER_BOUND ( 'NONE', #302, .T. ) ;
#112 = DIRECTION ( 'NONE',  ( -0.000000000000000000, 1.000000000000000000, -0.000000000000000000 ) ) ;
#113 = CARTESIAN_POINT ( 'NONE',  ( 0.000000000000000000, 4.050000000000001599, 0.000000000000000000 ) ) ;
#114 = EDGE_CURVE ( 'NONE', #248, #207, #234, .T. ) ;
#115 = CARTESIAN_POINT ( 'NONE',  ( 0.7000000000000041744, 0.2500000000000002220, 0.000000000000000000 ) ) ;
#116 = DIRECTION ( 'NONE',  ( -0.000000000000000000, 1.000000000000000000, 0.000000000000000000 ) ) ;
#117 = DIRECTION ( 'NONE',  ( -0.000000000000000000, 1.000000000000000000, -0.000000000000000000 ) ) ;
#118 = DIRECTION ( 'NONE',  ( 1.000000000000000000, 0.000000000000000000, 0.000000000000000000 ) ) ;
#119 = CYLINDRICAL_SURFACE ( 'NONE', #204, 1.050000000000004929 ) ;
#120 = ORIENTED_EDGE ( 'NONE', *, *, #109, .T. ) ;
#121 = DIRECTION ( 'NONE',  ( -0.000000000000000000, 1.000000000000000000, -0.000000000000000000 ) ) ;
#122 = DIRECTION ( 'NONE',  ( -0.000000000000000000, 1.000000000000000000, -0.000000000000000000 ) ) ;
#123 = STYLED_ITEM ( 'NONE', ( #240 ), #343 ) ;
#124 = AXIS2_PLACEMENT_3D ( 'NONE', #143, #339, #170 ) ;
#125 = ORIENTED_EDGE ( 'NONE', *, *, #24, .F. ) ;
#126 = DIRECTION ( 'NONE',  ( -0.000000000000000000, 1.000000000000000000, -0.000000000000000000 ) ) ;
#127 = EDGE_CURVE ( 'NONE', #177, #163, #337, .T. ) ;
#128 = FACE_OUTER_BOUND ( 'NONE', #34, .T. ) ;
#129 = ORIENTED_EDGE ( 'NONE', *, *, #292, .F. ) ;
#130 = EDGE_LOOP ( 'NONE', ( #159, #37 ) ) ;
#131 = EDGE_LOOP ( 'NONE', ( #103, #230, #206, #222 ) ) ;
#132 = AXIS2_PLACEMENT_3D ( 'NONE', #173, #376, #51 ) ;
#133 = CARTESIAN_POINT ( 'NONE',  ( 0.000000000000000000, 30.17397590361445125, 0.000000000000000000 ) ) ;
#134 = CIRCLE ( 'NONE', #100, 2.000000000000005329 ) ;
#135 = CARTESIAN_POINT ( 'NONE',  ( 1.050000000000005818, -4.750000000000000000, 0.000000000000000000 ) ) ;
#136 = ORIENTED_EDGE ( 'NONE', *, *, #292, .T. ) ;
#137 = ORIENTED_EDGE ( 'NONE', *, *, #97, .T. ) ;
#138 = CARTESIAN_POINT ( 'NONE',  ( 0.000000000000000000, 30.17397590361445125, 0.7000000000000041744 ) ) ;
#139 = DIRECTION ( 'NONE',  ( -0.000000000000000000, 1.000000000000000000, -0.000000000000000000 ) ) ;
#140 = CIRCLE ( 'NONE', #270, 2.000000000000005329 ) ;
#141 = EDGE_CURVE ( 'NONE', #147, #313, #172, .T. ) ;
#142 = DIRECTION ( 'NONE',  ( 0.000000000000000000, 0.000000000000000000, 1.000000000000000000 ) ) ;
#143 = CARTESIAN_POINT ( 'NONE',  ( 0.000000000000000000, -4.749999999999997335, 0.000000000000000000 ) ) ;
#144 = AXIS2_PLACEMENT_3D ( 'NONE', #301, #189, #165 ) ;
#145 = SURFACE_STYLE_FILL_AREA ( #196 ) ;
#146 =( NAMED_UNIT ( * ) SI_UNIT ( $, .STERADIAN. ) SOLID_ANGLE_UNIT ( ) );
#147 = VERTEX_POINT ( 'NONE', #104 ) ;
#148 = CLOSED_SHELL ( 'NONE', ( #326, #95, #63, #64, #358, #5, #354, #209, #324, #208, #296, #268, #355 ) ) ;
#149 =( NAMED_UNIT ( * ) SI_UNIT ( $, .STERADIAN. ) SOLID_ANGLE_UNIT ( ) );
#150 = DIRECTION ( 'NONE',  ( 0.000000000000000000, 0.000000000000000000, 1.000000000000000000 ) ) ;
#151 = CIRCLE ( 'NONE', #50, 0.7000000000000041744 ) ;
#152 = ORIENTED_EDGE ( 'NONE', *, *, #68, .F. ) ;
#153 = DIRECTION ( 'NONE',  ( -0.000000000000000000, 1.000000000000000000, -0.000000000000000000 ) ) ;
#154 = EDGE_CURVE ( 'NONE', #4, #264, #140, .T. ) ;
#155 = CARTESIAN_POINT ( 'NONE',  ( 0.000000000000000000, 30.17397590361445125, 0.000000000000000000 ) ) ;
#156 = CIRCLE ( 'NONE', #178, 2.000000000000005329 ) ;
#157 = PRODUCT ( 'INGUN_3609', 'INGUN_3609', '', ( #21 ) ) ;
#158 = CYLINDRICAL_SURFACE ( 'NONE', #330, 2.000000000000005329 ) ;
#159 = ORIENTED_EDGE ( 'NONE', *, *, #212, .T. ) ;
#160 = EDGE_CURVE ( 'NONE', #344, #313, #298, .T. ) ;
#161 = CIRCLE ( 'NONE', #327, 0.7000000000000041744 ) ;
#162 = ORIENTED_EDGE ( 'NONE', *, *, #29, .T. ) ;
#163 = VERTEX_POINT ( 'NONE', #194 ) ;
#164 = DIRECTION ( 'NONE',  ( -0.000000000000000000, 1.000000000000000000, 0.000000000000000000 ) ) ;
#165 = DIRECTION ( 'NONE',  ( 0.000000000000000000, -0.000000000000000000, -1.000000000000000000 ) ) ;
#166 =( GEOMETRIC_REPRESENTATION_CONTEXT ( 3 ) GLOBAL_UNCERTAINTY_ASSIGNED_CONTEXT ( ( #59 ) ) GLOBAL_UNIT_ASSIGNED_CONTEXT ( ( #314, #340, #146 ) ) REPRESENTATION_CONTEXT ( 'NONE', 'WORKASPACE' ) );
#167 = ORIENTED_EDGE ( 'NONE', *, *, #154, .F. ) ;
#168 = DIRECTION ( 'NONE',  ( -0.000000000000000000, 1.000000000000000000, -0.000000000000000000 ) ) ;
#169 = CARTESIAN_POINT ( 'NONE',  ( 0.000000000000000000, 0.2500000000000002220, 0.000000000000000000 ) ) ;
#170 = DIRECTION ( 'NONE',  ( 0.000000000000000000, 0.000000000000000000, 1.000000000000000000 ) ) ;
#171 = FILL_AREA_STYLE_COLOUR ( '', #247 ) ;
#172 = LINE ( 'NONE', #74, #321 ) ;
#173 = CARTESIAN_POINT ( 'NONE',  ( 0.000000000000000000, 2.450000000000000622, 0.000000000000000000 ) ) ;
#174 = EDGE_CURVE ( 'NONE', #44, #163, #161, .T. ) ;
#175 = ORIENTED_EDGE ( 'NONE', *, *, #174, .T. ) ;
#176 = EDGE_LOOP ( 'NONE', ( #306, #136, #167, #229 ) ) ;
#177 = VERTEX_POINT ( 'NONE', #278 ) ;
#178 = AXIS2_PLACEMENT_3D ( 'NONE', #316, #336, #195 ) ;
#179 = PRESENTATION_STYLE_ASSIGNMENT (( #283 ) ) ;
#180 = ORIENTED_EDGE ( 'NONE', *, *, #48, .T. ) ;
#181 = AXIS2_PLACEMENT_3D ( 'NONE', #135, #164, #365 ) ;
#182 = DIRECTION ( 'NONE',  ( 0.000000000000000000, 0.000000000000000000, 1.000000000000000000 ) ) ;
#183 = LINE ( 'NONE', #335, #322 ) ;
#184 = PRODUCT_RELATED_PRODUCT_CATEGORY ( 'part', '', ( #157 ) ) ;
#185 = ORIENTED_EDGE ( 'NONE', *, *, #127, .F. ) ;
#186 = UNCERTAINTY_MEASURE_WITH_UNIT (LENGTH_MEASURE( 1.000000000000000082E-05 ), #52, 'distance_accuracy_value', 'NONE');
#187 = AXIS2_PLACEMENT_3D ( 'NONE', #133, #66, #6 ) ;
#188 = CARTESIAN_POINT ( 'NONE',  ( 0.000000000000000000, 2.450000000000000622, 1.050000000000004041 ) ) ;
#189 = DIRECTION ( 'NONE',  ( 0.000000000000000000, -1.000000000000000000, 0.000000000000000000 ) ) ;
#190 = ORIENTED_EDGE ( 'NONE', *, *, #251, .F. ) ;
#191 = ORIENTED_EDGE ( 'NONE', *, *, #90, .T. ) ;
#192 = DIRECTION ( 'NONE',  ( 0.000000000000000000, 0.000000000000000000, 1.000000000000000000 ) ) ;
#193 = AXIS2_PLACEMENT_3D ( 'NONE', #106, #46, #142 ) ;
#194 = CARTESIAN_POINT ( 'NONE',  ( 0.000000000000000000, 0.2500000000000002220, 0.7000000000000041744 ) ) ;
#195 = DIRECTION ( 'NONE',  ( 0.000000000000000000, 0.000000000000000000, 1.000000000000000000 ) ) ;
#196 = FILL_AREA_STYLE ('',( #255 ) ) ;
#197 = APPLICATION_CONTEXT ( 'automotive_design' ) ;
#198 = APPLICATION_CONTEXT ( 'automotive_design' ) ;
#199 = PLANE ( 'NONE',  #238 ) ;
#200 = FACE_OUTER_BOUND ( 'NONE', #32, .T. ) ;
#201 = ORIENTED_EDGE ( 'NONE', *, *, #127, .T. ) ;
#202 = ORIENTED_EDGE ( 'NONE', *, *, #212, .F. ) ;
#203 = CARTESIAN_POINT ( 'NONE',  ( 0.000000000000000000, 2.450000000000000622, 0.000000000000000000 ) ) ;
#204 = AXIS2_PLACEMENT_3D ( 'NONE', #155, #320, #214 ) ;
#205 = FACE_OUTER_BOUND ( 'NONE', #27, .T. ) ;
#206 = ORIENTED_EDGE ( 'NONE', *, *, #68, .T. ) ;
#207 = VERTEX_POINT ( 'NONE', #369 ) ;
#208 = ADVANCED_FACE ( 'NONE', ( #92 ), #3, .T. ) ;
#209 = ADVANCED_FACE ( 'NONE', ( #351 ), #80, .T. ) ;
#210 = VECTOR ( 'NONE', #282, 1000.000000000000000 ) ;
#211 = ORIENTED_EDGE ( 'NONE', *, *, #299, .F. ) ;
#212 = EDGE_CURVE ( 'NONE', #177, #276, #151, .T. ) ;
#213 = CARTESIAN_POINT ( 'NONE',  ( 2.449293598294712824E-16, 30.17397590361445125, -2.000000000000005329 ) ) ;
#214 = DIRECTION ( 'NONE',  ( 0.000000000000000000, 0.000000000000000000, 1.000000000000000000 ) ) ;
#215 = MECHANICAL_DESIGN_GEOMETRIC_PRESENTATION_REPRESENTATION (  '', ( #273 ), #236 ) ;
#216 = LINE ( 'NONE', #317, #36 ) ;
#217 = ORIENTED_EDGE ( 'NONE', *, *, #154, .T. ) ;
#218 = EDGE_CURVE ( 'NONE', #291, #344, #216, .T. ) ;
#219 = DIRECTION ( 'NONE',  ( 0.000000000000000000, -0.000000000000000000, -1.000000000000000000 ) ) ;
#220 = PRODUCT_DEFINITION ( 'UNKNOWN', '', #356, #250 ) ;
#221 = CARTESIAN_POINT ( 'NONE',  ( 0.000000000000000000, 4.050000000000001599, 0.000000000000000000 ) ) ;
#222 = ORIENTED_EDGE ( 'NONE', *, *, #90, .F. ) ;
#223 = CARTESIAN_POINT ( 'NONE',  ( 0.000000000000000000, 30.17397590361445125, 0.000000000000000000 ) ) ;
#224 = CARTESIAN_POINT ( 'NONE',  ( 1.285879139104726402E-16, 2.450000000000000622, -1.050000000000004041 ) ) ;
#225 = EDGE_CURVE ( 'NONE', #248, #99, #232, .T. ) ;
#226 = DIRECTION ( 'NONE',  ( 0.000000000000000000, 0.000000000000000000, 1.000000000000000000 ) ) ;
#227 = AXIS2_PLACEMENT_3D ( 'NONE', #223, #370, #75 ) ;
#228 = CIRCLE ( 'NONE', #348, 0.7000000000000041744 ) ;
#229 = ORIENTED_EDGE ( 'NONE', *, *, #360, .F. ) ;
#230 = ORIENTED_EDGE ( 'NONE', *, *, #114, .T. ) ;
#231 = CARTESIAN_POINT ( 'NONE',  ( 1.285879139104726895E-16, 30.17397590361445125, -1.050000000000004929 ) ) ;
#232 = LINE ( 'NONE', #231, #8 ) ;
#233 = AXIS2_PLACEMENT_3D ( 'NONE', #45, #249, #76 ) ;
#234 = CIRCLE ( 'NONE', #233, 1.050000000000005818 ) ;
#235 = CYLINDRICAL_SURFACE ( 'NONE', #227, 1.000000000000004441 ) ;
#236 =( GEOMETRIC_REPRESENTATION_CONTEXT ( 3 ) GLOBAL_UNCERTAINTY_ASSIGNED_CONTEXT ( ( #20 ) ) GLOBAL_UNIT_ASSIGNED_CONTEXT ( ( #86, #346, #149 ) ) REPRESENTATION_CONTEXT ( 'NONE', 'WORKASPACE' ) );
#237 = EDGE_CURVE ( 'NONE', #276, #177, #228, .T. ) ;
#238 = AXIS2_PLACEMENT_3D ( 'NONE', #115, #116, #257 ) ;
#239 = EDGE_LOOP ( 'NONE', ( #359, #73, #281, #96 ) ) ;
#240 = PRESENTATION_STYLE_ASSIGNMENT (( #259 ) ) ;
#241 = ORIENTED_EDGE ( 'NONE', *, *, #83, .T. ) ;
#242 = EDGE_CURVE ( 'NONE', #147, #291, #254, .T. ) ;
#243 = CARTESIAN_POINT ( 'NONE',  ( 2.000000000000005329, 4.050000000000000711, 0.000000000000000000 ) ) ;
#244 = CARTESIAN_POINT ( 'NONE',  ( 0.000000000000000000, -4.749999999999997335, 0.000000000000000000 ) ) ;
#245 = CARTESIAN_POINT ( 'NONE',  ( 0.000000000000000000, 4.050000000000001599, 0.000000000000000000 ) ) ;
#246 = DIRECTION ( 'NONE',  ( -0.000000000000000000, 1.000000000000000000, -0.000000000000000000 ) ) ;
#247 = COLOUR_RGB ( '',1.000000000000000000, 1.000000000000000000, 0.000000000000000000 ) ;
#248 = VERTEX_POINT ( 'NONE', #81 ) ;
#249 = DIRECTION ( 'NONE',  ( -0.000000000000000000, 1.000000000000000000, -0.000000000000000000 ) ) ;
#250 = PRODUCT_DEFINITION_CONTEXT ( 'detailed design', #198, 'design' ) ;
#251 = EDGE_CURVE ( 'NONE', #313, #344, #53, .T. ) ;
#252 = DIRECTION ( 'NONE',  ( -0.000000000000000000, 1.000000000000000000, -0.000000000000000000 ) ) ;
#253 = CARTESIAN_POINT ( 'NONE',  ( 0.000000000000000000, 30.17397590361445125, 0.000000000000000000 ) ) ;
#254 = CIRCLE ( 'NONE', #132, 1.000000000000004885 ) ;
#255 = FILL_AREA_STYLE_COLOUR ( '', #263 ) ;
#256 = ORIENTED_EDGE ( 'NONE', *, *, #39, .F. ) ;
#257 = DIRECTION ( 'NONE',  ( 0.000000000000000000, 0.000000000000000000, 1.000000000000000000 ) ) ;
#258 = AXIS2_PLACEMENT_3D ( 'NONE', #341, #279, #38 ) ;
#259 = SURFACE_STYLE_USAGE ( .BOTH. , #286 ) ;
#260 = EDGE_LOOP ( 'NONE', ( #217, #180 ) ) ;
#261 = FACE_OUTER_BOUND ( 'NONE', #54, .T. ) ;
#262 = DIRECTION ( 'NONE',  ( -0.000000000000000000, 1.000000000000000000, -0.000000000000000000 ) ) ;
#263 = COLOUR_RGB ( '',1.000000000000000000, 1.000000000000000000, 0.000000000000000000 ) ;
#264 = VERTEX_POINT ( 'NONE', #284 ) ;
#265 = AXIS2_PLACEMENT_3D ( 'NONE', #374, #252, #110 ) ;
#266 = EDGE_LOOP ( 'NONE', ( #368, #325, #190, #62 ) ) ;
#267 = MANIFOLD_SOLID_BREP ( 'Rotation1', #148 ) ;
#268 = ADVANCED_FACE ( 'NONE', ( #200 ), #294, .T. ) ;
#269 = FACE_OUTER_BOUND ( 'NONE', #176, .T. ) ;
#270 = AXIS2_PLACEMENT_3D ( 'NONE', #17, #168, #309 ) ;
#271 = FACE_OUTER_BOUND ( 'NONE', #61, .T. ) ;
#272 = DIRECTION ( 'NONE',  ( 0.000000000000000000, 0.000000000000000000, 1.000000000000000000 ) ) ;
#273 = STYLED_ITEM ( 'NONE', ( #179 ), #267 ) ;
#274 = DIRECTION ( 'NONE',  ( 0.000000000000000000, 0.000000000000000000, 1.000000000000000000 ) ) ;
#275 = ORIENTED_EDGE ( 'NONE', *, *, #251, .T. ) ;
#276 = VERTEX_POINT ( 'NONE', #366 ) ;
#277 = DIRECTION ( 'NONE',  ( 0.000000000000000000, 0.000000000000000000, 1.000000000000000000 ) ) ;
#278 = CARTESIAN_POINT ( 'NONE',  ( 0.000000000000000000, -4.749999999999997335, 0.7000000000000041744 ) ) ;
#279 = DIRECTION ( 'NONE',  ( -0.000000000000000000, 1.000000000000000000, -0.000000000000000000 ) ) ;
#280 = LINE ( 'NONE', #311, #305 ) ;
#281 = ORIENTED_EDGE ( 'NONE', *, *, #141, .T. ) ;
#282 = DIRECTION ( 'NONE',  ( -0.000000000000000000, 1.000000000000000000, -0.000000000000000000 ) ) ;
#283 = SURFACE_STYLE_USAGE ( .BOTH. , #77 ) ;
#284 = CARTESIAN_POINT ( 'NONE',  ( 2.449293598294712824E-16, 4.750000000000000888, -2.000000000000005329 ) ) ;
#285 = AXIS2_PLACEMENT_3D ( 'NONE', #221, #307, #15 ) ;
#286 = SURFACE_SIDE_STYLE ('',( #30 ) ) ;
#287 = VECTOR ( 'NONE', #331, 1000.000000000000000 ) ;
#288 = CYLINDRICAL_SURFACE ( 'NONE', #187, 0.7000000000000041744 ) ;
#289 = ORIENTED_EDGE ( 'NONE', *, *, #39, .T. ) ;
#290 = DIRECTION ( 'NONE',  ( 0.000000000000000000, 0.000000000000000000, 1.000000000000000000 ) ) ;
#291 = VERTEX_POINT ( 'NONE', #12 ) ;
#292 = EDGE_CURVE ( 'NONE', #364, #264, #57, .T. ) ;
#293 = CARTESIAN_POINT ( 'NONE',  ( 8.572527594031523726E-17, 0.2500000000000002220, -0.7000000000000041744 ) ) ;
#294 = CYLINDRICAL_SURFACE ( 'NONE', #258, 2.000000000000005329 ) ;
#295 = FACE_OUTER_BOUND ( 'NONE', #266, .T. ) ;
#296 = ADVANCED_FACE ( 'NONE', ( #60, #362 ), #332, .F. ) ;
#297 = MECHANICAL_DESIGN_GEOMETRIC_PRESENTATION_REPRESENTATION (  '', ( #123 ), #35 ) ;
#298 = CIRCLE ( 'NONE', #310, 1.000000000000004219 ) ;
#299 = EDGE_CURVE ( 'NONE', #10, #364, #134, .T. ) ;
#300 = AXIS2_PLACEMENT_3D ( 'NONE', #203, #1, #323 ) ;
#301 = CARTESIAN_POINT ( 'NONE',  ( 1.000000000000004885, 2.450000000000000178, 0.000000000000000000 ) ) ;
#302 = EDGE_LOOP ( 'NONE', ( #328, #120, #175, #185 ) ) ;
#303 = ORIENTED_EDGE ( 'NONE', *, *, #48, .F. ) ;
#304 = PLANE ( 'NONE',  #181 ) ;
#305 = VECTOR ( 'NONE', #84, 1000.000000000000000 ) ;
#306 = ORIENTED_EDGE ( 'NONE', *, *, #299, .T. ) ;
#307 = DIRECTION ( 'NONE',  ( -0.000000000000000000, 1.000000000000000000, -0.000000000000000000 ) ) ;
#308 = DIRECTION ( 'NONE',  ( 0.000000000000000000, 0.000000000000000000, 1.000000000000000000 ) ) ;
#309 = DIRECTION ( 'NONE',  ( 0.000000000000000000, 0.000000000000000000, 1.000000000000000000 ) ) ;
#310 = AXIS2_PLACEMENT_3D ( 'NONE', #334, #108, #192 ) ;
#311 = CARTESIAN_POINT ( 'NONE',  ( 0.000000000000000000, 30.17397590361445125, 2.000000000000005329 ) ) ;
#312 = VECTOR ( 'NONE', #16, 1000.000000000000000 ) ;
#313 = VERTEX_POINT ( 'NONE', #40 ) ;
#314 =( LENGTH_UNIT ( ) NAMED_UNIT ( * ) SI_UNIT ( .MILLI., .METRE. ) );
#315 = AXIS2_PLACEMENT_3D ( 'NONE', #243, #69, #272 ) ;
#316 = CARTESIAN_POINT ( 'NONE',  ( 0.000000000000000000, 4.750000000000000888, 0.000000000000000000 ) ) ;
#317 = CARTESIAN_POINT ( 'NONE',  ( 1.224646799147358384E-16, 30.17397590361445125, -1.000000000000004441 ) ) ;
#318 = ORIENTED_EDGE ( 'NONE', *, *, #83, .F. ) ;
#319 = DIRECTION ( 'NONE',  ( 0.000000000000000000, 0.000000000000000000, 1.000000000000000000 ) ) ;
#320 = DIRECTION ( 'NONE',  ( -0.000000000000000000, 1.000000000000000000, -0.000000000000000000 ) ) ;
#321 = VECTOR ( 'NONE', #139, 1000.000000000000000 ) ;
#322 = VECTOR ( 'NONE', #107, 1000.000000000000000 ) ;
#323 = DIRECTION ( 'NONE',  ( 0.000000000000000000, 0.000000000000000000, 1.000000000000000000 ) ) ;
#324 = ADVANCED_FACE ( 'NONE', ( #71, #98 ), #70, .F. ) ;
#325 = ORIENTED_EDGE ( 'NONE', *, *, #218, .T. ) ;
#326 = ADVANCED_FACE ( 'NONE', ( #269 ), #158, .T. ) ;
#327 = AXIS2_PLACEMENT_3D ( 'NONE', #169, #371, #49 ) ;
#328 = ORIENTED_EDGE ( 'NONE', *, *, #237, .F. ) ;
#329 = DIRECTION ( 'NONE',  ( -0.000000000000000000, 1.000000000000000000, -0.000000000000000000 ) ) ;
#330 = AXIS2_PLACEMENT_3D ( 'NONE', #41, #329, #277 ) ;
#331 = DIRECTION ( 'NONE',  ( -0.000000000000000000, 1.000000000000000000, -0.000000000000000000 ) ) ;
#332 = PLANE ( 'NONE',  #315 ) ;
#333 = CIRCLE ( 'NONE', #285, 2.000000000000005329 ) ;
#334 = CARTESIAN_POINT ( 'NONE',  ( 0.000000000000000000, 4.050000000000001599, 0.000000000000000000 ) ) ;
#335 = CARTESIAN_POINT ( 'NONE',  ( 0.000000000000000000, 30.17397590361445125, 1.050000000000004929 ) ) ;
#336 = DIRECTION ( 'NONE',  ( -0.000000000000000000, 1.000000000000000000, -0.000000000000000000 ) ) ;
#337 = LINE ( 'NONE', #138, #312 ) ;
#338 = ORIENTED_EDGE ( 'NONE', *, *, #242, .F. ) ;
#339 = DIRECTION ( 'NONE',  ( -0.000000000000000000, 1.000000000000000000, -0.000000000000000000 ) ) ;
#340 =( NAMED_UNIT ( * ) PLANE_ANGLE_UNIT ( ) SI_UNIT ( $, .RADIAN. ) );
#341 = CARTESIAN_POINT ( 'NONE',  ( 0.000000000000000000, 30.17397590361445125, 0.000000000000000000 ) ) ;
#342 = FILL_AREA_STYLE ('',( #171 ) ) ;
#343 = ADVANCED_BREP_SHAPE_REPRESENTATION ( 'INGUN_3609', ( #267, #43 ), #166 ) ;
#344 = VERTEX_POINT ( 'NONE', #361 ) ;
#345 = VERTEX_POINT ( 'NONE', #188 ) ;
#346 =( NAMED_UNIT ( * ) PLANE_ANGLE_UNIT ( ) SI_UNIT ( $, .RADIAN. ) );
#347 = ORIENTED_EDGE ( 'NONE', *, *, #109, .F. ) ;
#348 = AXIS2_PLACEMENT_3D ( 'NONE', #244, #117, #226 ) ;
#349 = CARTESIAN_POINT ( 'NONE',  ( 0.000000000000000000, 2.450000000000000622, 0.000000000000000000 ) ) ;
#350 = AXIS2_PLACEMENT_3D ( 'NONE', #113, #19, #23 ) ;
#351 = FACE_OUTER_BOUND ( 'NONE', #131, .T. ) ;
#352 = EDGE_LOOP ( 'NONE', ( #275, #22 ) ) ;
#353 = ORIENTED_EDGE ( 'NONE', *, *, #360, .T. ) ;
#354 = ADVANCED_FACE ( 'NONE', ( #128, #87 ), #304, .F. ) ;
#355 = ADVANCED_FACE ( 'NONE', ( #65 ), #11, .F. ) ;
#356 = PRODUCT_DEFINITION_FORMATION_WITH_SPECIFIED_SOURCE ( 'ANY', '', #157, .NOT_KNOWN. ) ;
#357 = SHAPE_DEFINITION_REPRESENTATION ( #89, #343 ) ;
#358 = ADVANCED_FACE ( 'NONE', ( #205 ), #199, .F. ) ;
#359 = ORIENTED_EDGE ( 'NONE', *, *, #218, .F. ) ;
#360 = EDGE_CURVE ( 'NONE', #10, #4, #280, .T. ) ;
#361 = CARTESIAN_POINT ( 'NONE',  ( 1.224646799147358138E-16, 4.050000000000001599, -1.000000000000004219 ) ) ;
#362 = FACE_BOUND ( 'NONE', #352, .T. ) ;
#363 = CIRCLE ( 'NONE', #300, 1.000000000000004885 ) ;
#364 = VERTEX_POINT ( 'NONE', #379 ) ;
#365 = DIRECTION ( 'NONE',  ( 0.000000000000000000, 0.000000000000000000, 1.000000000000000000 ) ) ;
#366 = CARTESIAN_POINT ( 'NONE',  ( 8.572527594031523726E-17, -4.749999999999997335, -0.7000000000000041744 ) ) ;
#367 = LINE ( 'NONE', #105, #210 ) ;
#368 = ORIENTED_EDGE ( 'NONE', *, *, #242, .T. ) ;
#369 = CARTESIAN_POINT ( 'NONE',  ( 0.000000000000000000, -4.749999999999997335, 1.050000000000005818 ) ) ;
#370 = DIRECTION ( 'NONE',  ( -0.000000000000000000, 1.000000000000000000, -0.000000000000000000 ) ) ;
#371 = DIRECTION ( 'NONE',  ( -0.000000000000000000, 1.000000000000000000, -0.000000000000000000 ) ) ;
#372 = CARTESIAN_POINT ( 'NONE',  ( 0.000000000000000000, 4.050000000000001599, 2.000000000000005329 ) ) ;
#373 = AXIS2_PLACEMENT_3D ( 'NONE', #380, #121, #150 ) ;
#374 = CARTESIAN_POINT ( 'NONE',  ( 0.000000000000000000, 2.450000000000000622, 0.000000000000000000 ) ) ;
#375 = CARTESIAN_POINT ( 'NONE',  ( 0.000000000000000000, 0.000000000000000000, 0.000000000000000000 ) ) ;
#376 = DIRECTION ( 'NONE',  ( -0.000000000000000000, 1.000000000000000000, -0.000000000000000000 ) ) ;
#377 =( NAMED_UNIT ( * ) PLANE_ANGLE_UNIT ( ) SI_UNIT ( $, .RADIAN. ) );
#378 = CIRCLE ( 'NONE', #91, 1.050000000000004041 ) ;
#379 = CARTESIAN_POINT ( 'NONE',  ( 2.449293598294712824E-16, 4.050000000000001599, -2.000000000000005329 ) ) ;
#380 = CARTESIAN_POINT ( 'NONE',  ( 0.000000000000000000, 30.17397590361445125, 0.000000000000000000 ) ) ;
ENDSEC;
END-ISO-10303-21;
