ISO-10303-21;
HEADER;
FILE_DESCRIPTION (( 'STEP AP214' ),
    '1' );
FILE_NAME ('INGUN_33527.STEP',
    '2024-11-25T08:20:19',
    ( '' ),
    ( '' ),
    'SwSTEP 2.0',
    'SolidWorks 2023',
    '' );
FILE_SCHEMA (( 'AUTOMOTIVE_DESIGN' ));
ENDSEC;

DATA;
#1 = DIRECTION ( 'NONE',  ( -0.000000000000000000, -1.000000000000000000, -0.000000000000000000 ) ) ;
#2 = ADVANCED_FACE ( 'NONE', ( #20 ), #136, .T. ) ;
#3 = CARTESIAN_POINT ( 'NONE',  ( -9.799999999999998934, 0.5000000000000000000, 6.900000000000001243 ) ) ;
#4 = UNCERTAINTY_MEASURE_WITH_UNIT (LENGTH_MEASURE( 1.000000000000000082E-05 ), #87, 'distance_accuracy_value', 'NONE');
#5 = AXIS2_PLACEMENT_3D ( 'NONE', #145, #263, #356 ) ;
#6 = DIRECTION ( 'NONE',  ( -1.000000000000000000, 0.000000000000000000, -0.000000000000000000 ) ) ;
#7 = LINE ( 'NONE', #96, #141 ) ;
#8 = CARTESIAN_POINT ( 'NONE',  ( 9.800000000000002487, -0.5000000000000000000, -6.899999999999998579 ) ) ;
#9 = DIRECTION ( 'NONE',  ( -0.000000000000000000, -1.000000000000000000, -0.000000000000000000 ) ) ;
#10 = FACE_OUTER_BOUND ( 'NONE', #55, .T. ) ;
#11 =( NAMED_UNIT ( * ) PLANE_ANGLE_UNIT ( ) SI_UNIT ( $, .RADIAN. ) );
#12 = EDGE_CURVE ( 'NONE', #253, #80, #292, .T. ) ;
#13 = DIRECTION ( 'NONE',  ( 0.000000000000000000, -1.000000000000000000, 0.000000000000000000 ) ) ;
#14 = DIRECTION ( 'NONE',  ( -0.000000000000000000, -1.000000000000000000, -0.000000000000000000 ) ) ;
#15 =( NAMED_UNIT ( * ) SI_UNIT ( $, .STERADIAN. ) SOLID_ANGLE_UNIT ( ) );
#16 = VERTEX_POINT ( 'NONE', #247 ) ;
#17 = DIRECTION ( 'NONE',  ( 0.000000000000000000, 1.000000000000000000, 0.000000000000000000 ) ) ;
#18 = PLANE ( 'NONE',  #31 ) ;
#19 = ORIENTED_EDGE ( 'NONE', *, *, #386, .F. ) ;
#20 = FACE_OUTER_BOUND ( 'NONE', #357, .T. ) ;
#21 = CLOSED_SHELL ( 'NONE', ( #377, #308, #56, #335 ) ) ;
#22 = AXIS2_PLACEMENT_3D ( 'NONE', #148, #272, #99 ) ;
#23 = ORIENTED_EDGE ( 'NONE', *, *, #144, .T. ) ;
#24 = CARTESIAN_POINT ( 'NONE',  ( 9.800000000000002487, -0.5000000000000000000, -6.899999999999998579 ) ) ;
#25 = VERTEX_POINT ( 'NONE', #218 ) ;
#26 = ORIENTED_EDGE ( 'NONE', *, *, #199, .F. ) ;
#27 = ADVANCED_FACE ( 'NONE', ( #50 ), #384, .F. ) ;
#28 = LINE ( 'NONE', #142, #187 ) ;
#29 =( LENGTH_UNIT ( ) NAMED_UNIT ( * ) SI_UNIT ( .MILLI., .METRE. ) );
#30 = DIRECTION ( 'NONE',  ( 0.000000000000000000, 0.000000000000000000, 1.000000000000000000 ) ) ;
#31 = AXIS2_PLACEMENT_3D ( 'NONE', #249, #196, #379 ) ;
#32 = EDGE_CURVE ( 'NONE', #80, #253, #107, .T. ) ;
#33 = AXIS2_PLACEMENT_3D ( 'NONE', #370, #210, #42 ) ;
#34 = DIRECTION ( 'NONE',  ( -0.000000000000000000, -1.000000000000000000, -0.000000000000000000 ) ) ;
#35 = DIRECTION ( 'NONE',  ( -0.000000000000000000, -1.000000000000000000, -0.000000000000000000 ) ) ;
#36 = PRODUCT_DEFINITION_CONTEXT ( 'detailed design', #277, 'design' ) ;
#37 = DIRECTION ( 'NONE',  ( 0.000000000000000000, 1.000000000000000000, 0.000000000000000000 ) ) ;
#38 = FACE_OUTER_BOUND ( 'NONE', #256, .T. ) ;
#39 = VECTOR ( 'NONE', #177, 1000.000000000000000 ) ;
#40 = LINE ( 'NONE', #183, #53 ) ;
#41 = FACE_OUTER_BOUND ( 'NONE', #164, .T. ) ;
#42 = DIRECTION ( 'NONE',  ( 0.000000000000000000, 0.000000000000000000, 1.000000000000000000 ) ) ;
#43 = DIRECTION ( 'NONE',  ( -0.000000000000000000, -1.000000000000000000, -0.000000000000000000 ) ) ;
#44 = ORIENTED_EDGE ( 'NONE', *, *, #313, .T. ) ;
#45 = AXIS2_PLACEMENT_3D ( 'NONE', #170, #173, #6 ) ;
#46 = AXIS2_PLACEMENT_3D ( 'NONE', #267, #14, #130 ) ;
#47 = CARTESIAN_POINT ( 'NONE',  ( 1.500000000000000000, 2.899999999999999911, -1.125000000000000888 ) ) ;
#48 = ORIENTED_EDGE ( 'NONE', *, *, #138, .F. ) ;
#49 = EDGE_LOOP ( 'NONE', ( #248, #44 ) ) ;
#50 = FACE_OUTER_BOUND ( 'NONE', #191, .T. ) ;
#51 = VERTEX_POINT ( 'NONE', #310 ) ;
#52 = CIRCLE ( 'NONE', #262, 1.125000000000000888 ) ;
#53 = VECTOR ( 'NONE', #73, 1000.000000000000000 ) ;
#54 = VERTEX_POINT ( 'NONE', #47 ) ;
#55 = EDGE_LOOP ( 'NONE', ( #382, #76 ) ) ;
#56 = ADVANCED_FACE ( 'NONE', ( #188 ), #18, .T. ) ;
#57 = LINE ( 'NONE', #358, #244 ) ;
#58 = ORIENTED_EDGE ( 'NONE', *, *, #32, .F. ) ;
#59 = FILL_AREA_STYLE ('',( #383 ) ) ;
#60 = DIRECTION ( 'NONE',  ( 0.000000000000000000, 0.000000000000000000, 1.000000000000000000 ) ) ;
#61 = AXIS2_PLACEMENT_3D ( 'NONE', #166, #158, #82 ) ;
#62 = VECTOR ( 'NONE', #131, 1000.000000000000000 ) ;
#63 =( NAMED_UNIT ( * ) PLANE_ANGLE_UNIT ( ) SI_UNIT ( $, .RADIAN. ) );
#64 = FILL_AREA_STYLE_COLOUR ( '', #284 ) ;
#65 = EDGE_CURVE ( 'NONE', #229, #250, #161, .T. ) ;
#66 = DIRECTION ( 'NONE',  ( -0.000000000000000000, -1.000000000000000000, -0.000000000000000000 ) ) ;
#67 = AXIS2_PLACEMENT_3D ( 'NONE', #91, #120, #30 ) ;
#68 = DIRECTION ( 'NONE',  ( 0.000000000000000000, 0.000000000000000000, 1.000000000000000000 ) ) ;
#69 = DIRECTION ( 'NONE',  ( 0.000000000000000000, 0.000000000000000000, 1.000000000000000000 ) ) ;
#70 = CARTESIAN_POINT ( 'NONE',  ( 9.800000000000002487, -0.5000000000000000000, 6.900000000000001243 ) ) ;
#71 = DIRECTION ( 'NONE',  ( 0.000000000000000000, -0.000000000000000000, 1.000000000000000000 ) ) ;
#72 = UNCERTAINTY_MEASURE_WITH_UNIT (LENGTH_MEASURE( 1.000000000000000082E-05 ), #236, 'distance_accuracy_value', 'NONE');
#73 = DIRECTION ( 'NONE',  ( -1.000000000000000000, -0.000000000000000000, -0.000000000000000000 ) ) ;
#74 = EDGE_CURVE ( 'NONE', #16, #250, #340, .T. ) ;
#75 = PRODUCT_DEFINITION_SHAPE ( 'NONE', 'NONE',  #341 ) ;
#76 = ORIENTED_EDGE ( 'NONE', *, *, #74, .F. ) ;
#77 = ADVANCED_FACE ( 'NONE', ( #111 ), #226, .F. ) ;
#78 = VERTEX_POINT ( 'NONE', #327 ) ;
#79 = DIRECTION ( 'NONE',  ( 0.000000000000000000, 1.000000000000000000, 0.000000000000000000 ) ) ;
#80 = VERTEX_POINT ( 'NONE', #299 ) ;
#81 = PLANE ( 'NONE',  #116 ) ;
#82 = DIRECTION ( 'NONE',  ( 0.000000000000000000, 0.000000000000000000, -1.000000000000000000 ) ) ;
#83 = AXIS2_PLACEMENT_3D ( 'NONE', #241, #9, #337 ) ;
#84 = ORIENTED_EDGE ( 'NONE', *, *, #138, .T. ) ;
#85 = FILL_AREA_STYLE ('',( #64 ) ) ;
#86 = ORIENTED_EDGE ( 'NONE', *, *, #326, .T. ) ;
#87 =( LENGTH_UNIT ( ) NAMED_UNIT ( * ) SI_UNIT ( .MILLI., .METRE. ) );
#88 = DIRECTION ( 'NONE',  ( 1.000000000000000000, 0.000000000000000000, 0.000000000000000000 ) ) ;
#89 =( GEOMETRIC_REPRESENTATION_CONTEXT ( 3 ) GLOBAL_UNCERTAINTY_ASSIGNED_CONTEXT ( ( #203 ) ) GLOBAL_UNIT_ASSIGNED_CONTEXT ( ( #29, #63, #294 ) ) REPRESENTATION_CONTEXT ( 'NONE', 'WORKASPACE' ) );
#90 = EDGE_CURVE ( 'NONE', #283, #160, #126, .T. ) ;
#91 = CARTESIAN_POINT ( 'NONE',  ( -1.500000000000000000, 2.899999999999999911, 0.000000000000000000 ) ) ;
#92 = CARTESIAN_POINT ( 'NONE',  ( 1.500000000000000222, 2.899999999999999911, 1.125000000000000888 ) ) ;
#93 = CARTESIAN_POINT ( 'NONE',  ( -1.499999999999999778, 2.899999999999999911, 1.125000000000000000 ) ) ;
#94 = AXIS2_PLACEMENT_3D ( 'NONE', #24, #388, #217 ) ;
#95 = EDGE_CURVE ( 'NONE', #252, #51, #363, .T. ) ;
#96 = CARTESIAN_POINT ( 'NONE',  ( -9.799999999999998934, -0.5000000000000000000, 6.900000000000001243 ) ) ;
#97 = SHAPE_DEFINITION_REPRESENTATION ( #75, #201 ) ;
#98 = CARTESIAN_POINT ( 'NONE',  ( -1.500000000000000000, 2.899999999999999911, -1.125000000000000000 ) ) ;
#99 = DIRECTION ( 'NONE',  ( 0.000000000000000000, 0.000000000000000000, 1.000000000000000000 ) ) ;
#100 = STYLED_ITEM ( 'NONE', ( #184 ), #387 ) ;
#101 = CYLINDRICAL_SURFACE ( 'NONE', #46, 1.125000000000000888 ) ;
#102 = DIRECTION ( 'NONE',  ( 0.000000000000000000, 0.000000000000000000, 1.000000000000000000 ) ) ;
#103 = VERTEX_POINT ( 'NONE', #232 ) ;
#104 = ORIENTED_EDGE ( 'NONE', *, *, #301, .T. ) ;
#105 = ORIENTED_EDGE ( 'NONE', *, *, #117, .F. ) ;
#106 = ADVANCED_FACE ( 'NONE', ( #260 ), #202, .T. ) ;
#107 = CIRCLE ( 'NONE', #275, 1.125000000000000888 ) ;
#108 = ORIENTED_EDGE ( 'NONE', *, *, #238, .F. ) ;
#109 = CARTESIAN_POINT ( 'NONE',  ( -1.500000000000000000, 2.899999999999999911, -1.125000000000000000 ) ) ;
#110 = ORIENTED_EDGE ( 'NONE', *, *, #353, .T. ) ;
#111 = FACE_OUTER_BOUND ( 'NONE', #274, .T. ) ;
#112 = VERTEX_POINT ( 'NONE', #139 ) ;
#113 =( NAMED_UNIT ( * ) PLANE_ANGLE_UNIT ( ) SI_UNIT ( $, .RADIAN. ) );
#114 = VECTOR ( 'NONE', #230, 1000.000000000000000 ) ;
#115 = PRESENTATION_STYLE_ASSIGNMENT (( #295 ) ) ;
#116 = AXIS2_PLACEMENT_3D ( 'NONE', #185, #303, #309 ) ;
#117 = EDGE_CURVE ( 'NONE', #103, #78, #298, .T. ) ;
#118 = ORIENTED_EDGE ( 'NONE', *, *, #181, .T. ) ;
#119 = CARTESIAN_POINT ( 'NONE',  ( 1.500000000000000000, 2.899999999999999911, 0.000000000000000000 ) ) ;
#120 = DIRECTION ( 'NONE',  ( 0.000000000000000000, 1.000000000000000000, 0.000000000000000000 ) ) ;
#121 = PRODUCT_RELATED_PRODUCT_CATEGORY ( 'part', '', ( #389 ) ) ;
#122 = PLANE ( 'NONE',  #45 ) ;
#123 = MANIFOLD_SOLID_BREP ( 'Linear austragen1', #362 ) ;
#124 = PRODUCT_CONTEXT ( 'NONE', #222, 'mechanical' ) ;
#125 = AXIS2_PLACEMENT_3D ( 'NONE', #220, #17, #344 ) ;
#126 = LINE ( 'NONE', #143, #380 ) ;
#127 = CARTESIAN_POINT ( 'NONE',  ( -1.500000000000000000, 0.5000000000000000000, -1.125000000000000000 ) ) ;
#128 = CARTESIAN_POINT ( 'NONE',  ( -9.799999999999998934, 0.5000000000000000000, 6.900000000000001243 ) ) ;
#129 = VECTOR ( 'NONE', #350, 1000.000000000000000 ) ;
#130 = DIRECTION ( 'NONE',  ( 0.000000000000000000, 0.000000000000000000, -1.000000000000000000 ) ) ;
#131 = DIRECTION ( 'NONE',  ( -0.000000000000000000, -1.000000000000000000, -0.000000000000000000 ) ) ;
#132 = DIRECTION ( 'NONE',  ( -0.000000000000000000, -1.000000000000000000, -0.000000000000000000 ) ) ;
#133 = EDGE_CURVE ( 'NONE', #54, #25, #52, .T. ) ;
#134 = VERTEX_POINT ( 'NONE', #259 ) ;
#135 = ORIENTED_EDGE ( 'NONE', *, *, #238, .T. ) ;
#136 = PLANE ( 'NONE',  #94 ) ;
#137 = ORIENTED_EDGE ( 'NONE', *, *, #366, .F. ) ;
#138 = EDGE_CURVE ( 'NONE', #112, #103, #57, .T. ) ;
#139 = CARTESIAN_POINT ( 'NONE',  ( -9.799999999999998934, 0.5000000000000000000, 6.900000000000001243 ) ) ;
#140 = ORIENTED_EDGE ( 'NONE', *, *, #223, .T. ) ;
#141 = VECTOR ( 'NONE', #336, 1000.000000000000000 ) ;
#142 = CARTESIAN_POINT ( 'NONE',  ( 9.800000000000002487, 0.5000000000000000000, 6.900000000000001243 ) ) ;
#143 = CARTESIAN_POINT ( 'NONE',  ( -9.799999999999998934, -0.5000000000000000000, 6.900000000000001243 ) ) ;
#144 = EDGE_CURVE ( 'NONE', #112, #283, #261, .T. ) ;
#145 = CARTESIAN_POINT ( 'NONE',  ( 1.500000000000000000, 2.899999999999999911, 0.000000000000000000 ) ) ;
#146 = FACE_OUTER_BOUND ( 'NONE', #278, .T. ) ;
#147 = FACE_OUTER_BOUND ( 'NONE', #168, .T. ) ;
#148 = CARTESIAN_POINT ( 'NONE',  ( 1.500000000000000000, 2.899999999999999911, 0.000000000000000000 ) ) ;
#149 = FACE_OUTER_BOUND ( 'NONE', #287, .T. ) ;
#150 = VECTOR ( 'NONE', #205, 1000.000000000000000 ) ;
#151 = AXIS2_PLACEMENT_3D ( 'NONE', #154, #37, #71 ) ;
#152 = PLANE ( 'NONE',  #237 ) ;
#153 = CYLINDRICAL_SURFACE ( 'NONE', #83, 1.125000000000000000 ) ;
#154 = CARTESIAN_POINT ( 'NONE',  ( -1.500000000000000000, 0.5000000000000000000, 0.000000000000000000 ) ) ;
#155 = CARTESIAN_POINT ( 'NONE',  ( 0.000000000000000000, 0.000000000000000000, 0.000000000000000000 ) ) ;
#156 = PRESENTATION_LAYER_ASSIGNMENT (  '', '', ( #213 ) ) ;
#157 = EDGE_CURVE ( 'NONE', #229, #134, #392, .T. ) ;
#158 = DIRECTION ( 'NONE',  ( 1.000000000000000000, -0.000000000000000000, 0.000000000000000000 ) ) ;
#159 = ORIENTED_EDGE ( 'NONE', *, *, #157, .F. ) ;
#160 = VERTEX_POINT ( 'NONE', #328 ) ;
#161 = LINE ( 'NONE', #109, #129 ) ;
#162 = ORIENTED_EDGE ( 'NONE', *, *, #301, .F. ) ;
#163 = AXIS2_PLACEMENT_3D ( 'NONE', #352, #320, #228 ) ;
#164 = EDGE_LOOP ( 'NONE', ( #221, #282, #219, #198 ) ) ;
#165 = ADVANCED_FACE ( 'NONE', ( #200 ), #122, .F. ) ;
#166 = CARTESIAN_POINT ( 'NONE',  ( -9.799999999999998934, 0.5000000000000000000, 6.900000000000001243 ) ) ;
#167 = DIRECTION ( 'NONE',  ( 1.000000000000000000, 0.000000000000000000, 0.000000000000000000 ) ) ;
#168 = EDGE_LOOP ( 'NONE', ( #19, #159, #251, #86 ) ) ;
#169 = ADVANCED_FACE ( 'NONE', ( #146 ), #290, .T. ) ;
#170 = CARTESIAN_POINT ( 'NONE',  ( -9.799999999999998934, 0.5000000000000000000, 6.900000000000001243 ) ) ;
#171 = CIRCLE ( 'NONE', #22, 1.125000000000000888 ) ;
#172 = DIRECTION ( 'NONE',  ( 0.000000000000000000, 1.000000000000000000, 0.000000000000000000 ) ) ;
#173 = DIRECTION ( 'NONE',  ( 0.000000000000000000, 0.000000000000000000, -1.000000000000000000 ) ) ;
#174 = CARTESIAN_POINT ( 'NONE',  ( -9.799999999999998934, -0.5000000000000000000, -6.899999999999998579 ) ) ;
#175 = VECTOR ( 'NONE', #66, 1000.000000000000000 ) ;
#176 = EDGE_CURVE ( 'NONE', #103, #160, #28, .T. ) ;
#177 = DIRECTION ( 'NONE',  ( -0.000000000000000000, -0.000000000000000000, 1.000000000000000000 ) ) ;
#178 =( NAMED_UNIT ( * ) SI_UNIT ( $, .STERADIAN. ) SOLID_ANGLE_UNIT ( ) );
#179 = CARTESIAN_POINT ( 'NONE',  ( -9.799999999999998934, 0.5000000000000000000, -6.899999999999998579 ) ) ;
#180 = DIRECTION ( 'NONE',  ( 0.000000000000000000, 0.000000000000000000, -1.000000000000000000 ) ) ;
#181 = EDGE_CURVE ( 'NONE', #281, #51, #234, .T. ) ;
#182 = PRESENTATION_LAYER_ASSIGNMENT (  '', '', ( #100 ) ) ;
#183 = CARTESIAN_POINT ( 'NONE',  ( -9.799999999999998934, 0.5000000000000000000, -6.899999999999998579 ) ) ;
#184 = PRESENTATION_STYLE_ASSIGNMENT (( #273 ) ) ;
#185 = CARTESIAN_POINT ( 'NONE',  ( -9.799999999999998934, 0.5000000000000000000, -6.899999999999998579 ) ) ;
#186 = DIRECTION ( 'NONE',  ( 0.000000000000000000, 0.000000000000000000, 1.000000000000000000 ) ) ;
#187 = VECTOR ( 'NONE', #1, 1000.000000000000000 ) ;
#188 = FACE_OUTER_BOUND ( 'NONE', #49, .T. ) ;
#189 = ORIENTED_EDGE ( 'NONE', *, *, #223, .F. ) ;
#190 = FACE_OUTER_BOUND ( 'NONE', #393, .T. ) ;
#191 = EDGE_LOOP ( 'NONE', ( #314, #385, #317, #118 ) ) ;
#192 = EDGE_LOOP ( 'NONE', ( #323, #289, #48, #23 ) ) ;
#193 = DIRECTION ( 'NONE',  ( 0.000000000000000000, 0.000000000000000000, 1.000000000000000000 ) ) ;
#194 = SURFACE_SIDE_STYLE ('',( #254 ) ) ;
#195 = MECHANICAL_DESIGN_GEOMETRIC_PRESENTATION_REPRESENTATION (  '', ( #100 ), #312 ) ;
#196 = DIRECTION ( 'NONE',  ( 0.000000000000000000, 1.000000000000000000, 0.000000000000000000 ) ) ;
#197 = ORIENTED_EDGE ( 'NONE', *, *, #95, .F. ) ;
#198 = ORIENTED_EDGE ( 'NONE', *, *, #65, .F. ) ;
#199 = EDGE_CURVE ( 'NONE', #78, #252, #364, .T. ) ;
#200 = FACE_OUTER_BOUND ( 'NONE', #192, .T. ) ;
#201 = ADVANCED_BREP_SHAPE_REPRESENTATION ( 'INGUN_33527', ( #123, #371, #387, #367 ), #330 ) ;
#202 = CYLINDRICAL_SURFACE ( 'NONE', #5, 1.125000000000000888 ) ;
#203 = UNCERTAINTY_MEASURE_WITH_UNIT (LENGTH_MEASURE( 1.000000000000000082E-05 ), #29, 'distance_accuracy_value', 'NONE');
#204 = CARTESIAN_POINT ( 'NONE',  ( 1.500000000000000000, 2.899999999999999911, 0.000000000000000000 ) ) ;
#205 = DIRECTION ( 'NONE',  ( -1.000000000000000000, -0.000000000000000000, -0.000000000000000000 ) ) ;
#206 = CARTESIAN_POINT ( 'NONE',  ( 1.500000000000000222, 0.5000000000000000000, 1.125000000000000888 ) ) ;
#207 = VECTOR ( 'NONE', #34, 1000.000000000000000 ) ;
#208 = APPLICATION_PROTOCOL_DEFINITION ( 'draft international standard', 'automotive_design', 1998, #222 ) ;
#209 = SURFACE_SIDE_STYLE ('',( #269 ) ) ;
#210 = DIRECTION ( 'NONE',  ( 0.000000000000000000, 1.000000000000000000, 0.000000000000000000 ) ) ;
#211 = CARTESIAN_POINT ( 'NONE',  ( 1.500000000000000000, 2.899999999999999911, -1.125000000000000888 ) ) ;
#212 = FACE_OUTER_BOUND ( 'NONE', #321, .T. ) ;
#213 = STYLED_ITEM ( 'NONE', ( #115 ), #123 ) ;
#214 = MECHANICAL_DESIGN_GEOMETRIC_PRESENTATION_REPRESENTATION (  '', ( #293 ), #375 ) ;
#215 = PLANE ( 'NONE',  #245 ) ;
#216 = DIRECTION ( 'NONE',  ( 1.000000000000000000, 0.000000000000000000, 0.000000000000000000 ) ) ;
#217 = DIRECTION ( 'NONE',  ( 0.000000000000000000, -0.000000000000000000, -1.000000000000000000 ) ) ;
#218 = CARTESIAN_POINT ( 'NONE',  ( 1.500000000000000222, 2.899999999999999911, 1.125000000000000888 ) ) ;
#219 = ORIENTED_EDGE ( 'NONE', *, *, #74, .T. ) ;
#220 = CARTESIAN_POINT ( 'NONE',  ( 1.500000000000000000, 0.5000000000000000000, 0.000000000000000000 ) ) ;
#221 = ORIENTED_EDGE ( 'NONE', *, *, #313, .F. ) ;
#222 = APPLICATION_CONTEXT ( 'automotive_design' ) ;
#223 = EDGE_CURVE ( 'NONE', #25, #253, #342, .T. ) ;
#224 = CARTESIAN_POINT ( 'NONE',  ( -1.500000000000000000, 0.5000000000000000000, 0.000000000000000000 ) ) ;
#225 = ORIENTED_EDGE ( 'NONE', *, *, #133, .F. ) ;
#226 = PLANE ( 'NONE',  #163 ) ;
#227 = ORIENTED_EDGE ( 'NONE', *, *, #366, .T. ) ;
#228 = DIRECTION ( 'NONE',  ( 0.000000000000000000, -0.000000000000000000, 1.000000000000000000 ) ) ;
#229 = VERTEX_POINT ( 'NONE', #98 ) ;
#230 = DIRECTION ( 'NONE',  ( 0.000000000000000000, 0.000000000000000000, -1.000000000000000000 ) ) ;
#231 = SURFACE_STYLE_USAGE ( .BOTH. , #194 ) ;
#232 = CARTESIAN_POINT ( 'NONE',  ( 9.800000000000002487, 0.5000000000000000000, 6.900000000000001243 ) ) ;
#233 = EDGE_CURVE ( 'NONE', #51, #283, #7, .T. ) ;
#234 = LINE ( 'NONE', #179, #207 ) ;
#235 = CARTESIAN_POINT ( 'NONE',  ( -1.500000000000000000, 2.899999999999999911, 0.000000000000000000 ) ) ;
#236 =( LENGTH_UNIT ( ) NAMED_UNIT ( * ) SI_UNIT ( .MILLI., .METRE. ) );
#237 = AXIS2_PLACEMENT_3D ( 'NONE', #266, #13, #374 ) ;
#238 = EDGE_CURVE ( 'NONE', #78, #281, #40, .T. ) ;
#239 = CYLINDRICAL_SURFACE ( 'NONE', #332, 1.125000000000000000 ) ;
#240 = DIRECTION ( 'NONE',  ( -0.000000000000000000, -1.000000000000000000, -0.000000000000000000 ) ) ;
#241 = CARTESIAN_POINT ( 'NONE',  ( -1.500000000000000000, 2.899999999999999911, 0.000000000000000000 ) ) ;
#242 = DIRECTION ( 'NONE',  ( -1.000000000000000000, 0.000000000000000000, 0.000000000000000000 ) ) ;
#243 = FILL_AREA_STYLE_COLOUR ( '', #264 ) ;
#244 = VECTOR ( 'NONE', #167, 1000.000000000000000 ) ;
#245 = AXIS2_PLACEMENT_3D ( 'NONE', #331, #242, #68 ) ;
#246 = ADVANCED_FACE ( 'NONE', ( #190 ), #215, .F. ) ;
#247 = CARTESIAN_POINT ( 'NONE',  ( -1.499999999999999778, 0.5000000000000000000, 1.125000000000000000 ) ) ;
#248 = ORIENTED_EDGE ( 'NONE', *, *, #157, .T. ) ;
#249 = CARTESIAN_POINT ( 'NONE',  ( -1.500000000000000000, 2.899999999999999911, 0.000000000000000000 ) ) ;
#250 = VERTEX_POINT ( 'NONE', #127 ) ;
#251 = ORIENTED_EDGE ( 'NONE', *, *, #65, .T. ) ;
#252 = VERTEX_POINT ( 'NONE', #8 ) ;
#253 = VERTEX_POINT ( 'NONE', #206 ) ;
#254 = SURFACE_STYLE_FILL_AREA ( #59 ) ;
#255 = CARTESIAN_POINT ( 'NONE',  ( 9.800000000000002487, 0.5000000000000000000, 6.900000000000001243 ) ) ;
#256 = EDGE_LOOP ( 'NONE', ( #376, #318, #108, #349 ) ) ;
#257 = VECTOR ( 'NONE', #35, 1000.000000000000000 ) ;
#258 = AXIS2_PLACEMENT_3D ( 'NONE', #306, #265, #69 ) ;
#259 = CARTESIAN_POINT ( 'NONE',  ( -1.499999999999999778, 2.899999999999999911, 1.125000000000000000 ) ) ;
#260 = FACE_OUTER_BOUND ( 'NONE', #390, .T. ) ;
#261 = LINE ( 'NONE', #3, #175 ) ;
#262 = AXIS2_PLACEMENT_3D ( 'NONE', #204, #172, #60 ) ;
#263 = DIRECTION ( 'NONE',  ( -0.000000000000000000, -1.000000000000000000, -0.000000000000000000 ) ) ;
#264 = COLOUR_RGB ( '',0.7921568627450980005, 0.8196078431372548767, 0.9333333333333333481 ) ;
#265 = DIRECTION ( 'NONE',  ( 0.000000000000000000, 1.000000000000000000, 0.000000000000000000 ) ) ;
#266 = CARTESIAN_POINT ( 'NONE',  ( 9.800000000000002487, 0.5000000000000000000, -6.899999999999998579 ) ) ;
#267 = CARTESIAN_POINT ( 'NONE',  ( 1.500000000000000000, 2.899999999999999911, 0.000000000000000000 ) ) ;
#268 = CLOSED_SHELL ( 'NONE', ( #360, #106, #169, #77 ) ) ;
#269 = SURFACE_STYLE_FILL_AREA ( #343 ) ;
#270 = PRESENTATION_LAYER_ASSIGNMENT (  '', '', ( #293 ) ) ;
#271 = CARTESIAN_POINT ( 'NONE',  ( -9.799999999999998934, 0.5000000000000000000, -6.899999999999998579 ) ) ;
#272 = DIRECTION ( 'NONE',  ( 0.000000000000000000, 1.000000000000000000, 0.000000000000000000 ) ) ;
#273 = SURFACE_STYLE_USAGE ( .BOTH. , #209 ) ;
#274 = EDGE_LOOP ( 'NONE', ( #58, #351 ) ) ;
#275 = AXIS2_PLACEMENT_3D ( 'NONE', #345, #288, #186 ) ;
#276 = VECTOR ( 'NONE', #180, 1000.000000000000000 ) ;
#277 = APPLICATION_CONTEXT ( 'automotive_design' ) ;
#278 = EDGE_LOOP ( 'NONE', ( #348, #110 ) ) ;
#279 = ORIENTED_EDGE ( 'NONE', *, *, #353, .F. ) ;
#280 = ADVANCED_FACE ( 'NONE', ( #212 ), #152, .F. ) ;
#281 = VERTEX_POINT ( 'NONE', #271 ) ;
#282 = ORIENTED_EDGE ( 'NONE', *, *, #386, .T. ) ;
#283 = VERTEX_POINT ( 'NONE', #368 ) ;
#284 = COLOUR_RGB ( '',0.7921568627450980005, 0.8196078431372548767, 0.9333333333333333481 ) ;
#285 = VECTOR ( 'NONE', #43, 1000.000000000000000 ) ;
#286 = ORIENTED_EDGE ( 'NONE', *, *, #296, .T. ) ;
#287 = EDGE_LOOP ( 'NONE', ( #279, #140, #354, #162 ) ) ;
#288 = DIRECTION ( 'NONE',  ( 0.000000000000000000, 1.000000000000000000, 0.000000000000000000 ) ) ;
#289 = ORIENTED_EDGE ( 'NONE', *, *, #176, .F. ) ;
#290 = PLANE ( 'NONE',  #329 ) ;
#291 = ORIENTED_EDGE ( 'NONE', *, *, #233, .F. ) ;
#292 = CIRCLE ( 'NONE', #125, 1.125000000000000888 ) ;
#293 = STYLED_ITEM ( 'NONE', ( #359 ), #371 ) ;
#294 =( NAMED_UNIT ( * ) SI_UNIT ( $, .STERADIAN. ) SOLID_ANGLE_UNIT ( ) );
#295 = SURFACE_STYLE_USAGE ( .BOTH. , #324 ) ;
#296 = EDGE_CURVE ( 'NONE', #281, #112, #339, .T. ) ;
#297 = UNCERTAINTY_MEASURE_WITH_UNIT (LENGTH_MEASURE( 1.000000000000000082E-05 ), #334, 'distance_accuracy_value', 'NONE');
#298 = LINE ( 'NONE', #255, #114 ) ;
#299 = CARTESIAN_POINT ( 'NONE',  ( 1.500000000000000000, 0.5000000000000000000, -1.125000000000000888 ) ) ;
#300 = PRODUCT_DEFINITION_FORMATION_WITH_SPECIFIED_SOURCE ( 'ANY', '', #389, .NOT_KNOWN. ) ;
#301 = EDGE_CURVE ( 'NONE', #54, #80, #373, .T. ) ;
#302 = DIRECTION ( 'NONE',  ( 0.000000000000000000, 0.000000000000000000, -1.000000000000000000 ) ) ;
#303 = DIRECTION ( 'NONE',  ( 0.000000000000000000, 0.000000000000000000, 1.000000000000000000 ) ) ;
#304 = PLANE ( 'NONE',  #151 ) ;
#305 = CARTESIAN_POINT ( 'NONE',  ( 9.800000000000002487, 0.5000000000000000000, -6.899999999999998579 ) ) ;
#306 = CARTESIAN_POINT ( 'NONE',  ( -1.500000000000000000, 0.5000000000000000000, 0.000000000000000000 ) ) ;
#307 =( NAMED_UNIT ( * ) SI_UNIT ( $, .STERADIAN. ) SOLID_ANGLE_UNIT ( ) );
#308 = ADVANCED_FACE ( 'NONE', ( #147 ), #239, .T. ) ;
#309 = DIRECTION ( 'NONE',  ( 1.000000000000000000, 0.000000000000000000, -0.000000000000000000 ) ) ;
#310 = CARTESIAN_POINT ( 'NONE',  ( -9.799999999999998934, -0.5000000000000000000, -6.899999999999998579 ) ) ;
#311 = VECTOR ( 'NONE', #132, 1000.000000000000000 ) ;
#312 =( GEOMETRIC_REPRESENTATION_CONTEXT ( 3 ) GLOBAL_UNCERTAINTY_ASSIGNED_CONTEXT ( ( #297 ) ) GLOBAL_UNIT_ASSIGNED_CONTEXT ( ( #334, #11, #15 ) ) REPRESENTATION_CONTEXT ( 'NONE', 'WORKASPACE' ) );
#313 = EDGE_CURVE ( 'NONE', #134, #229, #319, .T. ) ;
#314 = ORIENTED_EDGE ( 'NONE', *, *, #233, .T. ) ;
#315 = ORIENTED_EDGE ( 'NONE', *, *, #90, .F. ) ;
#316 = ORIENTED_EDGE ( 'NONE', *, *, #117, .T. ) ;
#317 = ORIENTED_EDGE ( 'NONE', *, *, #296, .F. ) ;
#318 = ORIENTED_EDGE ( 'NONE', *, *, #181, .F. ) ;
#319 = CIRCLE ( 'NONE', #33, 1.125000000000000000 ) ;
#320 = DIRECTION ( 'NONE',  ( 0.000000000000000000, 1.000000000000000000, 0.000000000000000000 ) ) ;
#321 = EDGE_LOOP ( 'NONE', ( #316, #135, #286, #84 ) ) ;
#322 = DIRECTION ( 'NONE',  ( 0.000000000000000000, -0.000000000000000000, 1.000000000000000000 ) ) ;
#323 = ORIENTED_EDGE ( 'NONE', *, *, #90, .T. ) ;
#324 = SURFACE_SIDE_STYLE ('',( #391 ) ) ;
#325 = CIRCLE ( 'NONE', #258, 1.125000000000000000 ) ;
#326 = EDGE_CURVE ( 'NONE', #250, #16, #325, .T. ) ;
#327 = CARTESIAN_POINT ( 'NONE',  ( 9.800000000000002487, 0.5000000000000000000, -6.899999999999998579 ) ) ;
#328 = CARTESIAN_POINT ( 'NONE',  ( 9.800000000000002487, -0.5000000000000000000, 6.900000000000001243 ) ) ;
#329 = AXIS2_PLACEMENT_3D ( 'NONE', #119, #361, #322 ) ;
#330 =( GEOMETRIC_REPRESENTATION_CONTEXT ( 3 ) GLOBAL_UNCERTAINTY_ASSIGNED_CONTEXT ( ( #72 ) ) GLOBAL_UNIT_ASSIGNED_CONTEXT ( ( #236, #369, #307 ) ) REPRESENTATION_CONTEXT ( 'NONE', 'WORKASPACE' ) );
#331 = CARTESIAN_POINT ( 'NONE',  ( 9.800000000000002487, 0.5000000000000000000, 6.900000000000001243 ) ) ;
#332 = AXIS2_PLACEMENT_3D ( 'NONE', #235, #240, #302 ) ;
#333 = APPLICATION_PROTOCOL_DEFINITION ( 'draft international standard', 'automotive_design', 1998, #277 ) ;
#334 =( LENGTH_UNIT ( ) NAMED_UNIT ( * ) SI_UNIT ( .MILLI., .METRE. ) );
#335 = ADVANCED_FACE ( 'NONE', ( #10 ), #304, .F. ) ;
#336 = DIRECTION ( 'NONE',  ( -0.000000000000000000, -0.000000000000000000, 1.000000000000000000 ) ) ;
#337 = DIRECTION ( 'NONE',  ( 0.000000000000000000, 0.000000000000000000, -1.000000000000000000 ) ) ;
#338 = LINE ( 'NONE', #70, #276 ) ;
#339 = LINE ( 'NONE', #128, #39 ) ;
#340 = CIRCLE ( 'NONE', #346, 1.125000000000000000 ) ;
#341 = PRODUCT_DEFINITION ( 'UNKNOWN', '', #300, #36 ) ;
#342 = LINE ( 'NONE', #92, #257 ) ;
#343 = FILL_AREA_STYLE ('',( #243 ) ) ;
#344 = DIRECTION ( 'NONE',  ( 0.000000000000000000, 0.000000000000000000, 1.000000000000000000 ) ) ;
#345 = CARTESIAN_POINT ( 'NONE',  ( 1.500000000000000000, 0.5000000000000000000, 0.000000000000000000 ) ) ;
#346 = AXIS2_PLACEMENT_3D ( 'NONE', #224, #79, #193 ) ;
#347 = ORIENTED_EDGE ( 'NONE', *, *, #176, .T. ) ;
#348 = ORIENTED_EDGE ( 'NONE', *, *, #133, .T. ) ;
#349 = ORIENTED_EDGE ( 'NONE', *, *, #199, .T. ) ;
#350 = DIRECTION ( 'NONE',  ( -0.000000000000000000, -1.000000000000000000, -0.000000000000000000 ) ) ;
#351 = ORIENTED_EDGE ( 'NONE', *, *, #12, .F. ) ;
#352 = CARTESIAN_POINT ( 'NONE',  ( 1.500000000000000000, 0.5000000000000000000, 0.000000000000000000 ) ) ;
#353 = EDGE_CURVE ( 'NONE', #25, #54, #171, .T. ) ;
#354 = ORIENTED_EDGE ( 'NONE', *, *, #12, .T. ) ;
#355 = MECHANICAL_DESIGN_GEOMETRIC_PRESENTATION_REPRESENTATION (  '', ( #213 ), #89 ) ;
#356 = DIRECTION ( 'NONE',  ( 0.000000000000000000, 0.000000000000000000, -1.000000000000000000 ) ) ;
#357 = EDGE_LOOP ( 'NONE', ( #137, #315, #291, #197 ) ) ;
#358 = CARTESIAN_POINT ( 'NONE',  ( -9.799999999999998934, 0.5000000000000000000, 6.900000000000001243 ) ) ;
#359 = PRESENTATION_STYLE_ASSIGNMENT (( #231 ) ) ;
#360 = ADVANCED_FACE ( 'NONE', ( #149 ), #101, .T. ) ;
#361 = DIRECTION ( 'NONE',  ( 0.000000000000000000, 1.000000000000000000, 0.000000000000000000 ) ) ;
#362 = CLOSED_SHELL ( 'NONE', ( #246, #372, #27, #165, #280, #2 ) ) ;
#363 = LINE ( 'NONE', #174, #150 ) ;
#364 = LINE ( 'NONE', #305, #311 ) ;
#365 = LINE ( 'NONE', #93, #285 ) ;
#366 = EDGE_CURVE ( 'NONE', #160, #252, #338, .T. ) ;
#367 = AXIS2_PLACEMENT_3D ( 'NONE', #155, #102, #216 ) ;
#368 = CARTESIAN_POINT ( 'NONE',  ( -9.799999999999998934, -0.5000000000000000000, 6.900000000000001243 ) ) ;
#369 =( NAMED_UNIT ( * ) PLANE_ANGLE_UNIT ( ) SI_UNIT ( $, .RADIAN. ) );
#370 = CARTESIAN_POINT ( 'NONE',  ( -1.500000000000000000, 2.899999999999999911, 0.000000000000000000 ) ) ;
#371 = MANIFOLD_SOLID_BREP ( 'Aufsatz-Linear austragen1[1]', #21 ) ;
#372 = ADVANCED_FACE ( 'NONE', ( #38 ), #81, .F. ) ;
#373 = LINE ( 'NONE', #211, #62 ) ;
#374 = DIRECTION ( 'NONE',  ( 0.000000000000000000, -0.000000000000000000, -1.000000000000000000 ) ) ;
#375 =( GEOMETRIC_REPRESENTATION_CONTEXT ( 3 ) GLOBAL_UNCERTAINTY_ASSIGNED_CONTEXT ( ( #4 ) ) GLOBAL_UNIT_ASSIGNED_CONTEXT ( ( #87, #113, #178 ) ) REPRESENTATION_CONTEXT ( 'NONE', 'WORKASPACE' ) );
#376 = ORIENTED_EDGE ( 'NONE', *, *, #95, .T. ) ;
#377 = ADVANCED_FACE ( 'NONE', ( #41 ), #153, .T. ) ;
#378 = ORIENTED_EDGE ( 'NONE', *, *, #32, .T. ) ;
#379 = DIRECTION ( 'NONE',  ( 0.000000000000000000, -0.000000000000000000, 1.000000000000000000 ) ) ;
#380 = VECTOR ( 'NONE', #88, 1000.000000000000000 ) ;
#381 = COLOUR_RGB ( '',0.7921568627450980005, 0.8196078431372548767, 0.9333333333333333481 ) ;
#382 = ORIENTED_EDGE ( 'NONE', *, *, #326, .F. ) ;
#383 = FILL_AREA_STYLE_COLOUR ( '', #381 ) ;
#384 = PLANE ( 'NONE',  #61 ) ;
#385 = ORIENTED_EDGE ( 'NONE', *, *, #144, .F. ) ;
#386 = EDGE_CURVE ( 'NONE', #134, #16, #365, .T. ) ;
#387 = MANIFOLD_SOLID_BREP ( 'Aufsatz-Linear austragen1[2]', #268 ) ;
#388 = DIRECTION ( 'NONE',  ( 0.000000000000000000, -1.000000000000000000, 0.000000000000000000 ) ) ;
#389 = PRODUCT ( 'INGUN_33527', 'INGUN_33527', '', ( #124 ) ) ;
#390 = EDGE_LOOP ( 'NONE', ( #189, #225, #104, #378 ) ) ;
#391 = SURFACE_STYLE_FILL_AREA ( #85 ) ;
#392 = CIRCLE ( 'NONE', #67, 1.125000000000000000 ) ;
#393 = EDGE_LOOP ( 'NONE', ( #227, #26, #105, #347 ) ) ;
ENDSEC;
END-ISO-10303-21;
