ISO-10303-21;
HEADER;
FILE_DESCRIPTION (( 'STEP AP214' ),
    '1' );
FILE_NAME ('INGUN_33526.STEP',
    '2024-11-25T08:20:12',
    ( '' ),
    ( '' ),
    'SwSTEP 2.0',
    'SolidWorks 2023',
    '' );
FILE_SCHEMA (( 'AUTOMOTIVE_DESIGN' ));
ENDSEC;

DATA;
#1 = CARTESIAN_POINT ( 'NONE',  ( -1.500000000000000000, 2.899999999999999911, 0.000000000000000000 ) ) ;
#2 = VERTEX_POINT ( 'NONE', #330 ) ;
#3 = LINE ( 'NONE', #159, #290 ) ;
#4 = VERTEX_POINT ( 'NONE', #195 ) ;
#5 = DIRECTION ( 'NONE',  ( -0.000000000000000000, -1.000000000000000000, -0.000000000000000000 ) ) ;
#6 = FACE_OUTER_BOUND ( 'NONE', #353, .T. ) ;
#7 =( NAMED_UNIT ( * ) SI_UNIT ( $, .STERADIAN. ) SOLID_ANGLE_UNIT ( ) );
#8 = DIRECTION ( 'NONE',  ( 0.000000000000000000, 0.000000000000000000, 1.000000000000000000 ) ) ;
#9 =( GEOMETRIC_REPRESENTATION_CONTEXT ( 3 ) GLOBAL_UNCERTAINTY_ASSIGNED_CONTEXT ( ( #369 ) ) GLOBAL_UNIT_ASSIGNED_CONTEXT ( ( #312, #284, #82 ) ) REPRESENTATION_CONTEXT ( 'NONE', 'WORKASPACE' ) );
#10 = DIRECTION ( 'NONE',  ( 0.000000000000000000, 0.000000000000000000, -1.000000000000000000 ) ) ;
#11 = CARTESIAN_POINT ( 'NONE',  ( 1.500000000000000000, 0.5000000000000000000, 0.000000000000000000 ) ) ;
#12 = SURFACE_STYLE_USAGE ( .BOTH. , #45 ) ;
#13 = DIRECTION ( 'NONE',  ( -0.000000000000000000, -1.000000000000000000, -0.000000000000000000 ) ) ;
#14 = DIRECTION ( 'NONE',  ( 1.000000000000000000, -0.000000000000000000, 0.000000000000000000 ) ) ;
#15 = DIRECTION ( 'NONE',  ( -0.000000000000000000, -1.000000000000000000, -0.000000000000000000 ) ) ;
#16 = LINE ( 'NONE', #51, #259 ) ;
#17 = CARTESIAN_POINT ( 'NONE',  ( -9.199999999999999289, 0.5000000000000000000, 6.099999999999997868 ) ) ;
#18 = PRODUCT_DEFINITION_CONTEXT ( 'detailed design', #340, 'design' ) ;
#19 = APPLICATION_PROTOCOL_DEFINITION ( 'draft international standard', 'automotive_design', 1998, #26 ) ;
#20 = AXIS2_PLACEMENT_3D ( 'NONE', #230, #380, #346 ) ;
#21 = DIRECTION ( 'NONE',  ( 0.000000000000000000, 0.000000000000000000, -1.000000000000000000 ) ) ;
#22 = CARTESIAN_POINT ( 'NONE',  ( 1.500000000000000000, 0.5000000000000000000, -1.125000000000000888 ) ) ;
#23 = EDGE_CURVE ( 'NONE', #155, #264, #167, .T. ) ;
#24 = FILL_AREA_STYLE_COLOUR ( '', #175 ) ;
#25 = ORIENTED_EDGE ( 'NONE', *, *, #337, .F. ) ;
#26 = APPLICATION_CONTEXT ( 'automotive_design' ) ;
#27 = EDGE_LOOP ( 'NONE', ( #243, #184, #25, #125 ) ) ;
#28 = EDGE_CURVE ( 'NONE', #325, #242, #94, .T. ) ;
#29 = EDGE_LOOP ( 'NONE', ( #298, #186, #217, #90 ) ) ;
#30 = CLOSED_SHELL ( 'NONE', ( #158, #235, #206, #317 ) ) ;
#31 = ADVANCED_FACE ( 'NONE', ( #216 ), #100, .T. ) ;
#32 = ORIENTED_EDGE ( 'NONE', *, *, #241, .F. ) ;
#33 = ORIENTED_EDGE ( 'NONE', *, *, #208, .T. ) ;
#34 = CARTESIAN_POINT ( 'NONE',  ( 1.500000000000000222, 0.5000000000000000000, 1.125000000000000888 ) ) ;
#35 = CARTESIAN_POINT ( 'NONE',  ( 1.500000000000000222, 2.899999999999999911, 1.125000000000000888 ) ) ;
#36 = DIRECTION ( 'NONE',  ( 0.000000000000000000, 1.000000000000000000, 0.000000000000000000 ) ) ;
#37 = VECTOR ( 'NONE', #275, 1000.000000000000000 ) ;
#38 = AXIS2_PLACEMENT_3D ( 'NONE', #136, #194, #10 ) ;
#39 = LINE ( 'NONE', #331, #333 ) ;
#40 = CARTESIAN_POINT ( 'NONE',  ( -9.199999999999999289, 0.5000000000000000000, 6.099999999999997868 ) ) ;
#41 = CARTESIAN_POINT ( 'NONE',  ( 1.500000000000000000, 0.5000000000000000000, 0.000000000000000000 ) ) ;
#42 = CYLINDRICAL_SURFACE ( 'NONE', #350, 1.125000000000000000 ) ;
#43 = FACE_OUTER_BOUND ( 'NONE', #278, .T. ) ;
#44 = VECTOR ( 'NONE', #126, 1000.000000000000000 ) ;
#45 = SURFACE_SIDE_STYLE ('',( #274 ) ) ;
#46 = ADVANCED_FACE ( 'NONE', ( #66 ), #222, .F. ) ;
#47 = PLANE ( 'NONE',  #120 ) ;
#48 = DIRECTION ( 'NONE',  ( 0.000000000000000000, 1.000000000000000000, 0.000000000000000000 ) ) ;
#49 = DIRECTION ( 'NONE',  ( 0.000000000000000000, -0.000000000000000000, -1.000000000000000000 ) ) ;
#50 = LINE ( 'NONE', #172, #62 ) ;
#51 = CARTESIAN_POINT ( 'NONE',  ( -9.199999999999999289, 0.5000000000000000000, -6.100000000000001421 ) ) ;
#52 = EDGE_CURVE ( 'NONE', #89, #293, #68, .T. ) ;
#53 = VECTOR ( 'NONE', #111, 1000.000000000000000 ) ;
#54 = DIRECTION ( 'NONE',  ( 0.000000000000000000, 0.000000000000000000, 1.000000000000000000 ) ) ;
#55 = SURFACE_STYLE_USAGE ( .BOTH. , #320 ) ;
#56 =( NAMED_UNIT ( * ) PLANE_ANGLE_UNIT ( ) SI_UNIT ( $, .RADIAN. ) );
#57 = ORIENTED_EDGE ( 'NONE', *, *, #241, .T. ) ;
#58 = VECTOR ( 'NONE', #336, 1000.000000000000000 ) ;
#59 = EDGE_CURVE ( 'NONE', #293, #242, #305, .T. ) ;
#60 = EDGE_LOOP ( 'NONE', ( #123, #357 ) ) ;
#61 = ORIENTED_EDGE ( 'NONE', *, *, #227, .F. ) ;
#62 = VECTOR ( 'NONE', #226, 1000.000000000000000 ) ;
#63 =( GEOMETRIC_REPRESENTATION_CONTEXT ( 3 ) GLOBAL_UNCERTAINTY_ASSIGNED_CONTEXT ( ( #81 ) ) GLOBAL_UNIT_ASSIGNED_CONTEXT ( ( #207, #385, #376 ) ) REPRESENTATION_CONTEXT ( 'NONE', 'WORKASPACE' ) );
#64 = EDGE_LOOP ( 'NONE', ( #61, #118, #309, #212 ) ) ;
#65 = ORIENTED_EDGE ( 'NONE', *, *, #359, .F. ) ;
#66 = FACE_OUTER_BOUND ( 'NONE', #269, .T. ) ;
#67 = FACE_OUTER_BOUND ( 'NONE', #135, .T. ) ;
#68 = LINE ( 'NONE', #192, #58 ) ;
#69 = AXIS2_PLACEMENT_3D ( 'NONE', #77, #199, #313 ) ;
#70 = ADVANCED_FACE ( 'NONE', ( #6 ), #42, .T. ) ;
#71 =( GEOMETRIC_REPRESENTATION_CONTEXT ( 3 ) GLOBAL_UNCERTAINTY_ASSIGNED_CONTEXT ( ( #289 ) ) GLOBAL_UNIT_ASSIGNED_CONTEXT ( ( #233, #56, #144 ) ) REPRESENTATION_CONTEXT ( 'NONE', 'WORKASPACE' ) );
#72 = FILL_AREA_STYLE_COLOUR ( '', #321 ) ;
#73 = ORIENTED_EDGE ( 'NONE', *, *, #352, .T. ) ;
#74 = DIRECTION ( 'NONE',  ( 0.000000000000000000, 0.000000000000000000, 1.000000000000000000 ) ) ;
#75 = DIRECTION ( 'NONE',  ( 0.000000000000000000, 1.000000000000000000, 0.000000000000000000 ) ) ;
#76 = DIRECTION ( 'NONE',  ( -0.000000000000000000, -1.000000000000000000, -0.000000000000000000 ) ) ;
#77 = CARTESIAN_POINT ( 'NONE',  ( 1.500000000000000000, 0.5000000000000000000, 0.000000000000000000 ) ) ;
#78 = AXIS2_PLACEMENT_3D ( 'NONE', #189, #36, #161 ) ;
#79 = LINE ( 'NONE', #84, #115 ) ;
#80 = CARTESIAN_POINT ( 'NONE',  ( -1.500000000000000000, 2.899999999999999911, 0.000000000000000000 ) ) ;
#81 = UNCERTAINTY_MEASURE_WITH_UNIT (LENGTH_MEASURE( 1.000000000000000082E-05 ), #207, 'distance_accuracy_value', 'NONE');
#82 =( NAMED_UNIT ( * ) SI_UNIT ( $, .STERADIAN. ) SOLID_ANGLE_UNIT ( ) );
#83 = DIRECTION ( 'NONE',  ( 0.000000000000000000, 0.000000000000000000, 1.000000000000000000 ) ) ;
#84 = CARTESIAN_POINT ( 'NONE',  ( -9.199999999999999289, 0.5000000000000000000, -6.100000000000001421 ) ) ;
#85 = AXIS2_PLACEMENT_3D ( 'NONE', #86, #174, #112 ) ;
#86 = CARTESIAN_POINT ( 'NONE',  ( 1.500000000000000000, 2.899999999999999911, 0.000000000000000000 ) ) ;
#87 = PRODUCT_DEFINITION ( 'UNKNOWN', '', #139, #18 ) ;
#88 = AXIS2_PLACEMENT_3D ( 'NONE', #156, #183, #296 ) ;
#89 = VERTEX_POINT ( 'NONE', #368 ) ;
#90 = ORIENTED_EDGE ( 'NONE', *, *, #244, .T. ) ;
#91 = ADVANCED_FACE ( 'NONE', ( #103 ), #224, .F. ) ;
#92 = ORIENTED_EDGE ( 'NONE', *, *, #52, .F. ) ;
#93 = CIRCLE ( 'NONE', #328, 1.125000000000000888 ) ;
#94 = LINE ( 'NONE', #40, #37 ) ;
#95 = EDGE_LOOP ( 'NONE', ( #326, #32, #265, #92 ) ) ;
#96 = DIRECTION ( 'NONE',  ( 0.000000000000000000, 0.000000000000000000, 1.000000000000000000 ) ) ;
#97 = EDGE_CURVE ( 'NONE', #181, #127, #371, .T. ) ;
#98 = VERTEX_POINT ( 'NONE', #256 ) ;
#99 = LINE ( 'NONE', #35, #366 ) ;
#100 = PLANE ( 'NONE',  #343 ) ;
#101 = AXIS2_PLACEMENT_3D ( 'NONE', #273, #48, #271 ) ;
#102 = COLOUR_RGB ( '',0.7921568627450980005, 0.8196078431372548767, 0.9333333333333333481 ) ;
#103 = FACE_OUTER_BOUND ( 'NONE', #130, .T. ) ;
#104 = ADVANCED_FACE ( 'NONE', ( #171 ), #166, .T. ) ;
#105 = DIRECTION ( 'NONE',  ( -0.000000000000000000, -1.000000000000000000, -0.000000000000000000 ) ) ;
#106 = DIRECTION ( 'NONE',  ( -0.000000000000000000, -1.000000000000000000, -0.000000000000000000 ) ) ;
#107 = DIRECTION ( 'NONE',  ( 0.000000000000000000, 0.000000000000000000, -1.000000000000000000 ) ) ;
#108 = CYLINDRICAL_SURFACE ( 'NONE', #20, 1.125000000000000888 ) ;
#109 = VECTOR ( 'NONE', #15, 1000.000000000000000 ) ;
#110 = PLANE ( 'NONE',  #246 ) ;
#111 = DIRECTION ( 'NONE',  ( 1.000000000000000000, 0.000000000000000000, 0.000000000000000000 ) ) ;
#112 = DIRECTION ( 'NONE',  ( 0.000000000000000000, 0.000000000000000000, 1.000000000000000000 ) ) ;
#113 = APPLICATION_PROTOCOL_DEFINITION ( 'draft international standard', 'automotive_design', 1998, #340 ) ;
#114 = DIRECTION ( 'NONE',  ( 0.000000000000000000, -0.000000000000000000, -1.000000000000000000 ) ) ;
#115 = VECTOR ( 'NONE', #76, 1000.000000000000000 ) ;
#116 = VERTEX_POINT ( 'NONE', #145 ) ;
#117 = EDGE_CURVE ( 'NONE', #4, #293, #79, .T. ) ;
#118 = ORIENTED_EDGE ( 'NONE', *, *, #359, .T. ) ;
#119 = ORIENTED_EDGE ( 'NONE', *, *, #52, .T. ) ;
#120 = AXIS2_PLACEMENT_3D ( 'NONE', #17, #14, #170 ) ;
#121 = PRESENTATION_LAYER_ASSIGNMENT (  '', '', ( #383 ) ) ;
#122 = EDGE_CURVE ( 'NONE', #2, #98, #185, .T. ) ;
#123 = ORIENTED_EDGE ( 'NONE', *, *, #122, .T. ) ;
#124 = CARTESIAN_POINT ( 'NONE',  ( 9.199999999999999289, 0.5000000000000000000, -6.100000000000001421 ) ) ;
#125 = ORIENTED_EDGE ( 'NONE', *, *, #117, .T. ) ;
#126 = DIRECTION ( 'NONE',  ( -0.000000000000000000, -1.000000000000000000, -0.000000000000000000 ) ) ;
#127 = VERTEX_POINT ( 'NONE', #210 ) ;
#128 = MANIFOLD_SOLID_BREP ( 'Aufsatz-Linear austragen1[1]', #237 ) ;
#129 = AXIS2_PLACEMENT_3D ( 'NONE', #282, #13, #21 ) ;
#130 = EDGE_LOOP ( 'NONE', ( #119, #266, #362, #33 ) ) ;
#131 = FACE_OUTER_BOUND ( 'NONE', #356, .T. ) ;
#132 = EDGE_CURVE ( 'NONE', #292, #4, #16, .T. ) ;
#133 = CARTESIAN_POINT ( 'NONE',  ( 9.199999999999999289, 0.5000000000000000000, -6.100000000000001421 ) ) ;
#134 = ORIENTED_EDGE ( 'NONE', *, *, #208, .F. ) ;
#135 = EDGE_LOOP ( 'NONE', ( #384, #134, #150, #294 ) ) ;
#136 = CARTESIAN_POINT ( 'NONE',  ( -1.500000000000000000, 2.899999999999999911, 0.000000000000000000 ) ) ;
#137 = DIRECTION ( 'NONE',  ( -0.000000000000000000, -1.000000000000000000, -0.000000000000000000 ) ) ;
#138 = MECHANICAL_DESIGN_GEOMETRIC_PRESENTATION_REPRESENTATION (  '', ( #160 ), #9 ) ;
#139 = PRODUCT_DEFINITION_FORMATION_WITH_SPECIFIED_SOURCE ( 'ANY', '', #388, .NOT_KNOWN. ) ;
#140 = CARTESIAN_POINT ( 'NONE',  ( 9.199999999999999289, 0.5000000000000000000, 6.099999999999997868 ) ) ;
#141 = CYLINDRICAL_SURFACE ( 'NONE', #129, 1.125000000000000888 ) ;
#142 = DIRECTION ( 'NONE',  ( 0.000000000000000000, 0.000000000000000000, -1.000000000000000000 ) ) ;
#143 = DIRECTION ( 'NONE',  ( 0.000000000000000000, 1.000000000000000000, 0.000000000000000000 ) ) ;
#144 =( NAMED_UNIT ( * ) SI_UNIT ( $, .STERADIAN. ) SOLID_ANGLE_UNIT ( ) );
#145 = CARTESIAN_POINT ( 'NONE',  ( -1.499999999999999778, 0.5000000000000000000, 1.125000000000000000 ) ) ;
#146 = DIRECTION ( 'NONE',  ( 1.000000000000000000, 0.000000000000000000, 0.000000000000000000 ) ) ;
#147 = EDGE_CURVE ( 'NONE', #251, #219, #93, .T. ) ;
#148 = PLANE ( 'NONE',  #287 ) ;
#149 = CARTESIAN_POINT ( 'NONE',  ( -1.499999999999999778, 2.899999999999999911, 1.125000000000000000 ) ) ;
#150 = ORIENTED_EDGE ( 'NONE', *, *, #267, .F. ) ;
#151 = ORIENTED_EDGE ( 'NONE', *, *, #352, .F. ) ;
#152 = VECTOR ( 'NONE', #248, 1000.000000000000000 ) ;
#153 = AXIS2_PLACEMENT_3D ( 'NONE', #203, #54, #176 ) ;
#154 = ORIENTED_EDGE ( 'NONE', *, *, #244, .F. ) ;
#155 = VERTEX_POINT ( 'NONE', #288 ) ;
#156 = CARTESIAN_POINT ( 'NONE',  ( -1.500000000000000000, 0.5000000000000000000, 0.000000000000000000 ) ) ;
#157 = ORIENTED_EDGE ( 'NONE', *, *, #295, .T. ) ;
#158 = ADVANCED_FACE ( 'NONE', ( #169 ), #141, .T. ) ;
#159 = CARTESIAN_POINT ( 'NONE',  ( 9.199999999999999289, -0.5000000000000000000, 6.099999999999997868 ) ) ;
#160 = STYLED_ITEM ( 'NONE', ( #177 ), #128 ) ;
#161 = DIRECTION ( 'NONE',  ( 0.000000000000000000, -0.000000000000000000, 1.000000000000000000 ) ) ;
#162 = DIRECTION ( 'NONE',  ( -0.000000000000000000, -0.000000000000000000, 1.000000000000000000 ) ) ;
#163 = CARTESIAN_POINT ( 'NONE',  ( -9.199999999999999289, -0.5000000000000000000, 6.099999999999997868 ) ) ;
#164 =( LENGTH_UNIT ( ) NAMED_UNIT ( * ) SI_UNIT ( .MILLI., .METRE. ) );
#165 = CARTESIAN_POINT ( 'NONE',  ( -1.500000000000000000, 2.899999999999999911, 0.000000000000000000 ) ) ;
#166 = PLANE ( 'NONE',  #304 ) ;
#167 = CIRCLE ( 'NONE', #272, 1.125000000000000000 ) ;
#168 = MECHANICAL_DESIGN_GEOMETRIC_PRESENTATION_REPRESENTATION (  '', ( #392 ), #63 ) ;
#169 = FACE_OUTER_BOUND ( 'NONE', #64, .T. ) ;
#170 = DIRECTION ( 'NONE',  ( 0.000000000000000000, 0.000000000000000000, -1.000000000000000000 ) ) ;
#171 = FACE_OUTER_BOUND ( 'NONE', #95, .T. ) ;
#172 = CARTESIAN_POINT ( 'NONE',  ( 9.199999999999999289, 0.5000000000000000000, 6.099999999999997868 ) ) ;
#173 = ADVANCED_FACE ( 'NONE', ( #374 ), #148, .F. ) ;
#174 = DIRECTION ( 'NONE',  ( 0.000000000000000000, 1.000000000000000000, 0.000000000000000000 ) ) ;
#175 = COLOUR_RGB ( '',0.7921568627450980005, 0.8196078431372548767, 0.9333333333333333481 ) ;
#176 = DIRECTION ( 'NONE',  ( 1.000000000000000000, 0.000000000000000000, 0.000000000000000000 ) ) ;
#177 = PRESENTATION_STYLE_ASSIGNMENT (( #55 ) ) ;
#178 = CARTESIAN_POINT ( 'NONE',  ( 1.500000000000000000, 2.899999999999999911, -1.125000000000000888 ) ) ;
#179 = AXIS2_PLACEMENT_3D ( 'NONE', #261, #379, #351 ) ;
#180 = PRESENTATION_LAYER_ASSIGNMENT (  '', '', ( #392 ) ) ;
#181 = VERTEX_POINT ( 'NONE', #378 ) ;
#182 = ADVANCED_FACE ( 'NONE', ( #229 ), #110, .F. ) ;
#183 = DIRECTION ( 'NONE',  ( 0.000000000000000000, 1.000000000000000000, 0.000000000000000000 ) ) ;
#184 = ORIENTED_EDGE ( 'NONE', *, *, #28, .F. ) ;
#185 = CIRCLE ( 'NONE', #85, 1.125000000000000888 ) ;
#186 = ORIENTED_EDGE ( 'NONE', *, *, #132, .T. ) ;
#187 = DIRECTION ( 'NONE',  ( 0.000000000000000000, -0.000000000000000000, 1.000000000000000000 ) ) ;
#188 = DIRECTION ( 'NONE',  ( -1.000000000000000000, 0.000000000000000000, 0.000000000000000000 ) ) ;
#189 = CARTESIAN_POINT ( 'NONE',  ( -1.500000000000000000, 0.5000000000000000000, 0.000000000000000000 ) ) ;
#190 = UNCERTAINTY_MEASURE_WITH_UNIT (LENGTH_MEASURE( 1.000000000000000082E-05 ), #164, 'distance_accuracy_value', 'NONE');
#191 = CIRCLE ( 'NONE', #69, 1.125000000000000888 ) ;
#192 = CARTESIAN_POINT ( 'NONE',  ( -9.199999999999999289, -0.5000000000000000000, -6.100000000000001421 ) ) ;
#193 = ORIENTED_EDGE ( 'NONE', *, *, #280, .F. ) ;
#194 = DIRECTION ( 'NONE',  ( -0.000000000000000000, -1.000000000000000000, -0.000000000000000000 ) ) ;
#195 = CARTESIAN_POINT ( 'NONE',  ( -9.199999999999999289, 0.5000000000000000000, -6.100000000000001421 ) ) ;
#196 = CARTESIAN_POINT ( 'NONE',  ( -1.500000000000000000, 2.899999999999999911, -1.125000000000000000 ) ) ;
#197 = DIRECTION ( 'NONE',  ( -1.000000000000000000, -0.000000000000000000, -0.000000000000000000 ) ) ;
#198 = AXIS2_PLACEMENT_3D ( 'NONE', #41, #225, #335 ) ;
#199 = DIRECTION ( 'NONE',  ( 0.000000000000000000, 1.000000000000000000, 0.000000000000000000 ) ) ;
#200 = FILL_AREA_STYLE ('',( #24 ) ) ;
#201 = CARTESIAN_POINT ( 'NONE',  ( -9.199999999999999289, 0.5000000000000000000, 6.099999999999997868 ) ) ;
#202 = FACE_OUTER_BOUND ( 'NONE', #60, .T. ) ;
#203 = CARTESIAN_POINT ( 'NONE',  ( 0.000000000000000000, 0.000000000000000000, 0.000000000000000000 ) ) ;
#204 = DIRECTION ( 'NONE',  ( -1.000000000000000000, 0.000000000000000000, -0.000000000000000000 ) ) ;
#205 = CLOSED_SHELL ( 'NONE', ( #302, #91, #291, #173, #182, #104 ) ) ;
#206 = ADVANCED_FACE ( 'NONE', ( #202 ), #315, .T. ) ;
#207 =( LENGTH_UNIT ( ) NAMED_UNIT ( * ) SI_UNIT ( .MILLI., .METRE. ) );
#208 = EDGE_CURVE ( 'NONE', #292, #89, #268, .T. ) ;
#209 = ORIENTED_EDGE ( 'NONE', *, *, #97, .F. ) ;
#210 = CARTESIAN_POINT ( 'NONE',  ( 9.199999999999999289, -0.5000000000000000000, 6.099999999999997868 ) ) ;
#211 = ORIENTED_EDGE ( 'NONE', *, *, #147, .F. ) ;
#212 = ORIENTED_EDGE ( 'NONE', *, *, #390, .F. ) ;
#213 = ORIENTED_EDGE ( 'NONE', *, *, #390, .T. ) ;
#214 = EDGE_CURVE ( 'NONE', #297, #116, #377, .T. ) ;
#215 = PRESENTATION_LAYER_ASSIGNMENT (  '', '', ( #160 ) ) ;
#216 = FACE_OUTER_BOUND ( 'NONE', #360, .T. ) ;
#217 = ORIENTED_EDGE ( 'NONE', *, *, #337, .T. ) ;
#218 = CARTESIAN_POINT ( 'NONE',  ( -9.199999999999999289, -0.5000000000000000000, -6.100000000000001421 ) ) ;
#219 = VERTEX_POINT ( 'NONE', #34 ) ;
#220 = SURFACE_SIDE_STYLE ('',( #361 ) ) ;
#221 = AXIS2_PLACEMENT_3D ( 'NONE', #341, #75, #277 ) ;
#222 = PLANE ( 'NONE',  #78 ) ;
#223 = PLANE ( 'NONE',  #198 ) ;
#224 = PLANE ( 'NONE',  #263 ) ;
#225 = DIRECTION ( 'NONE',  ( 0.000000000000000000, 1.000000000000000000, 0.000000000000000000 ) ) ;
#226 = DIRECTION ( 'NONE',  ( 0.000000000000000000, 0.000000000000000000, -1.000000000000000000 ) ) ;
#227 = EDGE_CURVE ( 'NONE', #98, #2, #311, .T. ) ;
#228 = CARTESIAN_POINT ( 'NONE',  ( -9.199999999999999289, 0.5000000000000000000, 6.099999999999997868 ) ) ;
#229 = FACE_OUTER_BOUND ( 'NONE', #29, .T. ) ;
#230 = CARTESIAN_POINT ( 'NONE',  ( 1.500000000000000000, 2.899999999999999911, 0.000000000000000000 ) ) ;
#231 = DIRECTION ( 'NONE',  ( 0.000000000000000000, -1.000000000000000000, 0.000000000000000000 ) ) ;
#232 = LINE ( 'NONE', #201, #354 ) ;
#233 =( LENGTH_UNIT ( ) NAMED_UNIT ( * ) SI_UNIT ( .MILLI., .METRE. ) );
#234 = CARTESIAN_POINT ( 'NONE',  ( 9.199999999999999289, -0.5000000000000000000, -6.100000000000001421 ) ) ;
#235 = ADVANCED_FACE ( 'NONE', ( #131 ), #108, .T. ) ;
#236 = DIRECTION ( 'NONE',  ( 0.000000000000000000, -1.000000000000000000, 0.000000000000000000 ) ) ;
#237 = CLOSED_SHELL ( 'NONE', ( #70, #375, #31, #46 ) ) ;
#238 = MECHANICAL_DESIGN_GEOMETRIC_PRESENTATION_REPRESENTATION (  '', ( #383 ), #334 ) ;
#239 = EDGE_LOOP ( 'NONE', ( #211, #193 ) ) ;
#240 = EDGE_CURVE ( 'NONE', #264, #155, #253, .T. ) ;
#241 = EDGE_CURVE ( 'NONE', #242, #127, #260, .T. ) ;
#242 = VERTEX_POINT ( 'NONE', #262 ) ;
#243 = ORIENTED_EDGE ( 'NONE', *, *, #59, .T. ) ;
#244 = EDGE_CURVE ( 'NONE', #325, #181, #232, .T. ) ;
#245 = ORIENTED_EDGE ( 'NONE', *, *, #147, .T. ) ;
#246 = AXIS2_PLACEMENT_3D ( 'NONE', #381, #231, #114 ) ;
#247 = CARTESIAN_POINT ( 'NONE',  ( -1.500000000000000000, 2.899999999999999911, 0.000000000000000000 ) ) ;
#248 = DIRECTION ( 'NONE',  ( -0.000000000000000000, -1.000000000000000000, -0.000000000000000000 ) ) ;
#249 = ORIENTED_EDGE ( 'NONE', *, *, #23, .T. ) ;
#250 = FACE_OUTER_BOUND ( 'NONE', #239, .T. ) ;
#251 = VERTEX_POINT ( 'NONE', #22 ) ;
#252 = PRESENTATION_STYLE_ASSIGNMENT (( #338 ) ) ;
#253 = CIRCLE ( 'NONE', #319, 1.125000000000000000 ) ;
#254 = DIRECTION ( 'NONE',  ( 0.000000000000000000, 0.000000000000000000, -1.000000000000000000 ) ) ;
#255 = LINE ( 'NONE', #178, #109 ) ;
#256 = CARTESIAN_POINT ( 'NONE',  ( 1.500000000000000222, 2.899999999999999911, 1.125000000000000888 ) ) ;
#257 = FILL_AREA_STYLE_COLOUR ( '', #102 ) ;
#258 = CARTESIAN_POINT ( 'NONE',  ( -9.199999999999999289, 0.5000000000000000000, 6.099999999999997868 ) ) ;
#259 = VECTOR ( 'NONE', #197, 1000.000000000000000 ) ;
#260 = LINE ( 'NONE', #283, #53 ) ;
#261 = CARTESIAN_POINT ( 'NONE',  ( 1.500000000000000000, 2.899999999999999911, 0.000000000000000000 ) ) ;
#262 = CARTESIAN_POINT ( 'NONE',  ( -9.199999999999999289, -0.5000000000000000000, 6.099999999999997868 ) ) ;
#263 = AXIS2_PLACEMENT_3D ( 'NONE', #339, #74, #345 ) ;
#264 = VERTEX_POINT ( 'NONE', #149 ) ;
#265 = ORIENTED_EDGE ( 'NONE', *, *, #59, .F. ) ;
#266 = ORIENTED_EDGE ( 'NONE', *, *, #117, .F. ) ;
#267 = EDGE_CURVE ( 'NONE', #181, #292, #50, .T. ) ;
#268 = LINE ( 'NONE', #124, #44 ) ;
#269 = EDGE_LOOP ( 'NONE', ( #393, #323 ) ) ;
#270 = ORIENTED_EDGE ( 'NONE', *, *, #23, .F. ) ;
#271 = DIRECTION ( 'NONE',  ( 0.000000000000000000, 0.000000000000000000, 1.000000000000000000 ) ) ;
#272 = AXIS2_PLACEMENT_3D ( 'NONE', #247, #332, #8 ) ;
#273 = CARTESIAN_POINT ( 'NONE',  ( 1.500000000000000000, 2.899999999999999911, 0.000000000000000000 ) ) ;
#274 = SURFACE_STYLE_FILL_AREA ( #370 ) ;
#275 = DIRECTION ( 'NONE',  ( -0.000000000000000000, -1.000000000000000000, -0.000000000000000000 ) ) ;
#276 = ORIENTED_EDGE ( 'NONE', *, *, #240, .F. ) ;
#277 = DIRECTION ( 'NONE',  ( 0.000000000000000000, 0.000000000000000000, 1.000000000000000000 ) ) ;
#278 = EDGE_LOOP ( 'NONE', ( #327, #270, #73, #365 ) ) ;
#279 = VECTOR ( 'NONE', #162, 1000.000000000000000 ) ;
#280 = EDGE_CURVE ( 'NONE', #219, #251, #191, .T. ) ;
#281 =( NAMED_UNIT ( * ) PLANE_ANGLE_UNIT ( ) SI_UNIT ( $, .RADIAN. ) );
#282 = CARTESIAN_POINT ( 'NONE',  ( 1.500000000000000000, 2.899999999999999911, 0.000000000000000000 ) ) ;
#283 = CARTESIAN_POINT ( 'NONE',  ( -9.199999999999999289, -0.5000000000000000000, 6.099999999999997868 ) ) ;
#284 =( NAMED_UNIT ( * ) PLANE_ANGLE_UNIT ( ) SI_UNIT ( $, .RADIAN. ) );
#285 = FACE_OUTER_BOUND ( 'NONE', #27, .T. ) ;
#286 = PRODUCT_CONTEXT ( 'NONE', #26, 'mechanical' ) ;
#287 = AXIS2_PLACEMENT_3D ( 'NONE', #258, #107, #204 ) ;
#288 = CARTESIAN_POINT ( 'NONE',  ( -1.500000000000000000, 2.899999999999999911, -1.125000000000000000 ) ) ;
#289 = UNCERTAINTY_MEASURE_WITH_UNIT (LENGTH_MEASURE( 1.000000000000000082E-05 ), #233, 'distance_accuracy_value', 'NONE');
#290 = VECTOR ( 'NONE', #142, 1000.000000000000000 ) ;
#291 = ADVANCED_FACE ( 'NONE', ( #285 ), #47, .F. ) ;
#292 = VERTEX_POINT ( 'NONE', #133 ) ;
#293 = VERTEX_POINT ( 'NONE', #218 ) ;
#294 = ORIENTED_EDGE ( 'NONE', *, *, #97, .T. ) ;
#295 = EDGE_CURVE ( 'NONE', #264, #116, #39, .T. ) ;
#296 = DIRECTION ( 'NONE',  ( 0.000000000000000000, 0.000000000000000000, 1.000000000000000000 ) ) ;
#297 = VERTEX_POINT ( 'NONE', #342 ) ;
#298 = ORIENTED_EDGE ( 'NONE', *, *, #267, .T. ) ;
#299 = EDGE_LOOP ( 'NONE', ( #57, #209, #154, #301 ) ) ;
#300 = LINE ( 'NONE', #196, #152 ) ;
#301 = ORIENTED_EDGE ( 'NONE', *, *, #28, .T. ) ;
#302 = ADVANCED_FACE ( 'NONE', ( #67 ), #363, .F. ) ;
#303 = ADVANCED_BREP_SHAPE_REPRESENTATION ( 'INGUN_33526', ( #387, #128, #372, #153 ), #71 ) ;
#304 = AXIS2_PLACEMENT_3D ( 'NONE', #234, #236, #49 ) ;
#305 = LINE ( 'NONE', #163, #382 ) ;
#306 = FILL_AREA_STYLE ('',( #72 ) ) ;
#307 = DIRECTION ( 'NONE',  ( -0.000000000000000000, -0.000000000000000000, 1.000000000000000000 ) ) ;
#308 = LINE ( 'NONE', #228, #279 ) ;
#309 = ORIENTED_EDGE ( 'NONE', *, *, #280, .T. ) ;
#310 = CARTESIAN_POINT ( 'NONE',  ( -9.199999999999999289, 0.5000000000000000000, 6.099999999999997868 ) ) ;
#311 = CIRCLE ( 'NONE', #101, 1.125000000000000888 ) ;
#312 =( LENGTH_UNIT ( ) NAMED_UNIT ( * ) SI_UNIT ( .MILLI., .METRE. ) );
#313 = DIRECTION ( 'NONE',  ( 0.000000000000000000, 0.000000000000000000, 1.000000000000000000 ) ) ;
#314 = DIRECTION ( 'NONE',  ( 0.000000000000000000, 0.000000000000000000, 1.000000000000000000 ) ) ;
#315 = PLANE ( 'NONE',  #179 ) ;
#316 = DIRECTION ( 'NONE',  ( 0.000000000000000000, 1.000000000000000000, 0.000000000000000000 ) ) ;
#317 = ADVANCED_FACE ( 'NONE', ( #250 ), #223, .F. ) ;
#318 = PRODUCT_DEFINITION_SHAPE ( 'NONE', 'NONE',  #87 ) ;
#319 = AXIS2_PLACEMENT_3D ( 'NONE', #80, #316, #83 ) ;
#320 = SURFACE_SIDE_STYLE ('',( #349 ) ) ;
#321 = COLOUR_RGB ( '',0.7921568627450980005, 0.8196078431372548767, 0.9333333333333333481 ) ;
#322 = SHAPE_DEFINITION_REPRESENTATION ( #318, #303 ) ;
#323 = ORIENTED_EDGE ( 'NONE', *, *, #344, .F. ) ;
#324 = VECTOR ( 'NONE', #106, 1000.000000000000000 ) ;
#325 = VERTEX_POINT ( 'NONE', #310 ) ;
#326 = ORIENTED_EDGE ( 'NONE', *, *, #364, .F. ) ;
#327 = ORIENTED_EDGE ( 'NONE', *, *, #295, .F. ) ;
#328 = AXIS2_PLACEMENT_3D ( 'NONE', #11, #143, #314 ) ;
#329 = DIRECTION ( 'NONE',  ( 0.000000000000000000, 1.000000000000000000, 0.000000000000000000 ) ) ;
#330 = CARTESIAN_POINT ( 'NONE',  ( 1.500000000000000000, 2.899999999999999911, -1.125000000000000888 ) ) ;
#331 = CARTESIAN_POINT ( 'NONE',  ( -1.499999999999999778, 2.899999999999999911, 1.125000000000000000 ) ) ;
#332 = DIRECTION ( 'NONE',  ( 0.000000000000000000, 1.000000000000000000, 0.000000000000000000 ) ) ;
#333 = VECTOR ( 'NONE', #105, 1000.000000000000000 ) ;
#334 =( GEOMETRIC_REPRESENTATION_CONTEXT ( 3 ) GLOBAL_UNCERTAINTY_ASSIGNED_CONTEXT ( ( #190 ) ) GLOBAL_UNIT_ASSIGNED_CONTEXT ( ( #164, #281, #7 ) ) REPRESENTATION_CONTEXT ( 'NONE', 'WORKASPACE' ) );
#335 = DIRECTION ( 'NONE',  ( 0.000000000000000000, -0.000000000000000000, 1.000000000000000000 ) ) ;
#336 = DIRECTION ( 'NONE',  ( -1.000000000000000000, -0.000000000000000000, -0.000000000000000000 ) ) ;
#337 = EDGE_CURVE ( 'NONE', #4, #325, #308, .T. ) ;
#338 = SURFACE_STYLE_USAGE ( .BOTH. , #220 ) ;
#339 = CARTESIAN_POINT ( 'NONE',  ( -9.199999999999999289, 0.5000000000000000000, -6.100000000000001421 ) ) ;
#340 = APPLICATION_CONTEXT ( 'automotive_design' ) ;
#341 = CARTESIAN_POINT ( 'NONE',  ( -1.500000000000000000, 0.5000000000000000000, 0.000000000000000000 ) ) ;
#342 = CARTESIAN_POINT ( 'NONE',  ( -1.500000000000000000, 0.5000000000000000000, -1.125000000000000000 ) ) ;
#343 = AXIS2_PLACEMENT_3D ( 'NONE', #1, #329, #187 ) ;
#344 = EDGE_CURVE ( 'NONE', #116, #297, #391, .T. ) ;
#345 = DIRECTION ( 'NONE',  ( 1.000000000000000000, 0.000000000000000000, -0.000000000000000000 ) ) ;
#346 = DIRECTION ( 'NONE',  ( 0.000000000000000000, 0.000000000000000000, -1.000000000000000000 ) ) ;
#347 = PRODUCT_RELATED_PRODUCT_CATEGORY ( 'part', '', ( #388 ) ) ;
#348 = CARTESIAN_POINT ( 'NONE',  ( 9.199999999999999289, 0.5000000000000000000, 6.099999999999997868 ) ) ;
#349 = SURFACE_STYLE_FILL_AREA ( #200 ) ;
#350 = AXIS2_PLACEMENT_3D ( 'NONE', #165, #137, #254 ) ;
#351 = DIRECTION ( 'NONE',  ( 0.000000000000000000, -0.000000000000000000, 1.000000000000000000 ) ) ;
#352 = EDGE_CURVE ( 'NONE', #155, #297, #300, .T. ) ;
#353 = EDGE_LOOP ( 'NONE', ( #276, #157, #355, #151 ) ) ;
#354 = VECTOR ( 'NONE', #146, 1000.000000000000000 ) ;
#355 = ORIENTED_EDGE ( 'NONE', *, *, #344, .T. ) ;
#356 = EDGE_LOOP ( 'NONE', ( #65, #386, #213, #245 ) ) ;
#357 = ORIENTED_EDGE ( 'NONE', *, *, #227, .T. ) ;
#358 = AXIS2_PLACEMENT_3D ( 'NONE', #140, #188, #96 ) ;
#359 = EDGE_CURVE ( 'NONE', #98, #219, #99, .T. ) ;
#360 = EDGE_LOOP ( 'NONE', ( #249, #389 ) ) ;
#361 = SURFACE_STYLE_FILL_AREA ( #306 ) ;
#362 = ORIENTED_EDGE ( 'NONE', *, *, #132, .F. ) ;
#363 = PLANE ( 'NONE',  #358 ) ;
#364 = EDGE_CURVE ( 'NONE', #127, #89, #3, .T. ) ;
#365 = ORIENTED_EDGE ( 'NONE', *, *, #214, .T. ) ;
#366 = VECTOR ( 'NONE', #5, 1000.000000000000000 ) ;
#367 = CYLINDRICAL_SURFACE ( 'NONE', #38, 1.125000000000000000 ) ;
#368 = CARTESIAN_POINT ( 'NONE',  ( 9.199999999999999289, -0.5000000000000000000, -6.100000000000001421 ) ) ;
#369 = UNCERTAINTY_MEASURE_WITH_UNIT (LENGTH_MEASURE( 1.000000000000000082E-05 ), #312, 'distance_accuracy_value', 'NONE');
#370 = FILL_AREA_STYLE ('',( #257 ) ) ;
#371 = LINE ( 'NONE', #348, #324 ) ;
#372 = MANIFOLD_SOLID_BREP ( 'Aufsatz-Linear austragen1[2]', #30 ) ;
#373 = PRESENTATION_STYLE_ASSIGNMENT (( #12 ) ) ;
#374 = FACE_OUTER_BOUND ( 'NONE', #299, .T. ) ;
#375 = ADVANCED_FACE ( 'NONE', ( #43 ), #367, .T. ) ;
#376 =( NAMED_UNIT ( * ) SI_UNIT ( $, .STERADIAN. ) SOLID_ANGLE_UNIT ( ) );
#377 = CIRCLE ( 'NONE', #88, 1.125000000000000000 ) ;
#378 = CARTESIAN_POINT ( 'NONE',  ( 9.199999999999999289, 0.5000000000000000000, 6.099999999999997868 ) ) ;
#379 = DIRECTION ( 'NONE',  ( 0.000000000000000000, 1.000000000000000000, 0.000000000000000000 ) ) ;
#380 = DIRECTION ( 'NONE',  ( -0.000000000000000000, -1.000000000000000000, -0.000000000000000000 ) ) ;
#381 = CARTESIAN_POINT ( 'NONE',  ( 9.199999999999999289, 0.5000000000000000000, -6.100000000000001421 ) ) ;
#382 = VECTOR ( 'NONE', #307, 1000.000000000000000 ) ;
#383 = STYLED_ITEM ( 'NONE', ( #252 ), #372 ) ;
#384 = ORIENTED_EDGE ( 'NONE', *, *, #364, .T. ) ;
#385 =( NAMED_UNIT ( * ) PLANE_ANGLE_UNIT ( ) SI_UNIT ( $, .RADIAN. ) );
#386 = ORIENTED_EDGE ( 'NONE', *, *, #122, .F. ) ;
#387 = MANIFOLD_SOLID_BREP ( 'Linear austragen1', #205 ) ;
#388 = PRODUCT ( 'INGUN_33526', 'INGUN_33526', '', ( #286 ) ) ;
#389 = ORIENTED_EDGE ( 'NONE', *, *, #240, .T. ) ;
#390 = EDGE_CURVE ( 'NONE', #2, #251, #255, .T. ) ;
#391 = CIRCLE ( 'NONE', #221, 1.125000000000000000 ) ;
#392 = STYLED_ITEM ( 'NONE', ( #373 ), #387 ) ;
#393 = ORIENTED_EDGE ( 'NONE', *, *, #214, .F. ) ;
ENDSEC;
END-ISO-10303-21;
