ISO-10303-21;
HEADER;
FILE_DESCRIPTION (( 'STEP AP214' ),
    '1' );
FILE_NAME ('INGUN_33524.STEP',
    '2024-11-25T08:19:55',
    ( '' ),
    ( '' ),
    'SwSTEP 2.0',
    'SolidWorks 2023',
    '' );
FILE_SCHEMA (( 'AUTOMOTIVE_DESIGN' ));
ENDSEC;

DATA;
#1 = EDGE_LOOP ( 'NONE', ( #33, #128 ) ) ;
#2 = VERTEX_POINT ( 'NONE', #387 ) ;
#3 = AXIS2_PLACEMENT_3D ( 'NONE', #359, #60, #177 ) ;
#4 = ADVANCED_FACE ( 'NONE', ( #241 ), #336, .T. ) ;
#5 = PRESENTATION_LAYER_ASSIGNMENT (  '', '', ( #174 ) ) ;
#6 = DIRECTION ( 'NONE',  ( 0.000000000000000000, 0.000000000000000000, 1.000000000000000000 ) ) ;
#7 = CARTESIAN_POINT ( 'NONE',  ( 1.500000000000000000, 2.899999999999999911, 0.000000000000000000 ) ) ;
#8 =( NAMED_UNIT ( * ) SI_UNIT ( $, .STERADIAN. ) SOLID_ANGLE_UNIT ( ) );
#9 = AXIS2_PLACEMENT_3D ( 'NONE', #63, #296, #153 ) ;
#10 = APPLICATION_PROTOCOL_DEFINITION ( 'draft international standard', 'automotive_design', 1998, #166 ) ;
#11 = CARTESIAN_POINT ( 'NONE',  ( 1.500000000000000000, 2.899999999999999911, 0.000000000000000000 ) ) ;
#12 = LINE ( 'NONE', #161, #226 ) ;
#13 = CARTESIAN_POINT ( 'NONE',  ( 9.199999999999995737, -0.5000000000000000000, -5.000000000000002665 ) ) ;
#14 = ADVANCED_FACE ( 'NONE', ( #363 ), #367, .F. ) ;
#15 = UNCERTAINTY_MEASURE_WITH_UNIT (LENGTH_MEASURE( 1.000000000000000082E-05 ), #311, 'distance_accuracy_value', 'NONE');
#16 = CARTESIAN_POINT ( 'NONE',  ( -9.200000000000002842, 0.5000000000000000000, -5.000000000000002665 ) ) ;
#17 = VECTOR ( 'NONE', #54, 1000.000000000000000 ) ;
#18 = CARTESIAN_POINT ( 'NONE',  ( -1.500000000000000000, 2.899999999999999911, -1.125000000000000000 ) ) ;
#19 = DIRECTION ( 'NONE',  ( -0.000000000000000000, -1.000000000000000000, -0.000000000000000000 ) ) ;
#20 = EDGE_CURVE ( 'NONE', #146, #155, #346, .T. ) ;
#21 = CARTESIAN_POINT ( 'NONE',  ( 1.500000000000000000, 2.899999999999999911, -1.125000000000000888 ) ) ;
#22 = ORIENTED_EDGE ( 'NONE', *, *, #247, .F. ) ;
#23 =( GEOMETRIC_REPRESENTATION_CONTEXT ( 3 ) GLOBAL_UNCERTAINTY_ASSIGNED_CONTEXT ( ( #15 ) ) GLOBAL_UNIT_ASSIGNED_CONTEXT ( ( #311, #340, #8 ) ) REPRESENTATION_CONTEXT ( 'NONE', 'WORKASPACE' ) );
#24 = EDGE_LOOP ( 'NONE', ( #272, #84, #121, #68 ) ) ;
#25 = DIRECTION ( 'NONE',  ( -0.000000000000000000, -1.000000000000000000, -0.000000000000000000 ) ) ;
#26 = VERTEX_POINT ( 'NONE', #294 ) ;
#27 = ADVANCED_FACE ( 'NONE', ( #92 ), #331, .T. ) ;
#28 = ORIENTED_EDGE ( 'NONE', *, *, #20, .F. ) ;
#29 = AXIS2_PLACEMENT_3D ( 'NONE', #219, #48, #198 ) ;
#30 = SURFACE_STYLE_FILL_AREA ( #93 ) ;
#31 = DIRECTION ( 'NONE',  ( -0.000000000000000000, -1.000000000000000000, -0.000000000000000000 ) ) ;
#32 = CARTESIAN_POINT ( 'NONE',  ( -1.500000000000000000, 0.5000000000000000000, 0.000000000000000000 ) ) ;
#33 = ORIENTED_EDGE ( 'NONE', *, *, #343, .F. ) ;
#34 = ADVANCED_FACE ( 'NONE', ( #268 ), #101, .T. ) ;
#35 = SHAPE_DEFINITION_REPRESENTATION ( #389, #55 ) ;
#36 = FILL_AREA_STYLE_COLOUR ( '', #278 ) ;
#37 = CLOSED_SHELL ( 'NONE', ( #351, #238, #145, #338, #14, #74 ) ) ;
#38 = AXIS2_PLACEMENT_3D ( 'NONE', #7, #313, #374 ) ;
#39 = DIRECTION ( 'NONE',  ( -0.000000000000000000, -0.000000000000000000, 1.000000000000000000 ) ) ;
#40 = CARTESIAN_POINT ( 'NONE',  ( -1.500000000000000000, 0.5000000000000000000, -1.125000000000000000 ) ) ;
#41 = EDGE_CURVE ( 'NONE', #175, #350, #139, .T. ) ;
#42 = CARTESIAN_POINT ( 'NONE',  ( -1.500000000000000000, 2.899999999999999911, 0.000000000000000000 ) ) ;
#43 = VECTOR ( 'NONE', #138, 1000.000000000000000 ) ;
#44 = DIRECTION ( 'NONE',  ( 0.000000000000000000, 1.000000000000000000, 0.000000000000000000 ) ) ;
#45 = CARTESIAN_POINT ( 'NONE',  ( 9.199999999999995737, 0.5000000000000000000, -5.000000000000002665 ) ) ;
#46 = EDGE_LOOP ( 'NONE', ( #299, #49, #211, #117 ) ) ;
#47 = EDGE_CURVE ( 'NONE', #143, #155, #243, .T. ) ;
#48 = DIRECTION ( 'NONE',  ( 0.000000000000000000, 1.000000000000000000, 0.000000000000000000 ) ) ;
#49 = ORIENTED_EDGE ( 'NONE', *, *, #255, .T. ) ;
#50 = PLANE ( 'NONE',  #274 ) ;
#51 = VECTOR ( 'NONE', #19, 1000.000000000000000 ) ;
#52 = ORIENTED_EDGE ( 'NONE', *, *, #280, .F. ) ;
#53 = CARTESIAN_POINT ( 'NONE',  ( -9.200000000000002842, -0.5000000000000000000, -5.000000000000002665 ) ) ;
#54 = DIRECTION ( 'NONE',  ( -0.000000000000000000, -1.000000000000000000, -0.000000000000000000 ) ) ;
#55 = ADVANCED_BREP_SHAPE_REPRESENTATION ( 'INGUN_33524', ( #375, #388, #131, #83 ), #135 ) ;
#56 = DIRECTION ( 'NONE',  ( 0.000000000000000000, 0.000000000000000000, 1.000000000000000000 ) ) ;
#57 = VERTEX_POINT ( 'NONE', #249 ) ;
#58 = VECTOR ( 'NONE', #298, 1000.000000000000000 ) ;
#59 = DIRECTION ( 'NONE',  ( 0.000000000000000000, 1.000000000000000000, 0.000000000000000000 ) ) ;
#60 = DIRECTION ( 'NONE',  ( 0.000000000000000000, 1.000000000000000000, 0.000000000000000000 ) ) ;
#61 = EDGE_CURVE ( 'NONE', #154, #87, #12, .T. ) ;
#62 = FILL_AREA_STYLE_COLOUR ( '', #91 ) ;
#63 = CARTESIAN_POINT ( 'NONE',  ( -1.500000000000000000, 2.899999999999999911, 0.000000000000000000 ) ) ;
#64 =( NAMED_UNIT ( * ) PLANE_ANGLE_UNIT ( ) SI_UNIT ( $, .RADIAN. ) );
#65 = ORIENTED_EDGE ( 'NONE', *, *, #201, .F. ) ;
#66 = AXIS2_PLACEMENT_3D ( 'NONE', #103, #371, #185 ) ;
#67 = CARTESIAN_POINT ( 'NONE',  ( 1.500000000000000000, 2.899999999999999911, 0.000000000000000000 ) ) ;
#68 = ORIENTED_EDGE ( 'NONE', *, *, #194, .F. ) ;
#69 = DIRECTION ( 'NONE',  ( 1.000000000000000000, 0.000000000000000000, 0.000000000000000000 ) ) ;
#70 = CARTESIAN_POINT ( 'NONE',  ( -9.200000000000002842, -0.5000000000000000000, 4.999999999999999112 ) ) ;
#71 = SURFACE_STYLE_FILL_AREA ( #372 ) ;
#72 = VECTOR ( 'NONE', #354, 1000.000000000000000 ) ;
#73 = CARTESIAN_POINT ( 'NONE',  ( -1.499999999999999778, 2.899999999999999911, 1.125000000000000000 ) ) ;
#74 = ADVANCED_FACE ( 'NONE', ( #158 ), #213, .T. ) ;
#75 = DIRECTION ( 'NONE',  ( -0.000000000000000000, -1.000000000000000000, -0.000000000000000000 ) ) ;
#76 = AXIS2_PLACEMENT_3D ( 'NONE', #200, #196, #284 ) ;
#77 = DIRECTION ( 'NONE',  ( 0.000000000000000000, 1.000000000000000000, 0.000000000000000000 ) ) ;
#78 = CARTESIAN_POINT ( 'NONE',  ( -9.200000000000002842, -0.5000000000000000000, 4.999999999999999112 ) ) ;
#79 = ORIENTED_EDGE ( 'NONE', *, *, #393, .F. ) ;
#80 = CARTESIAN_POINT ( 'NONE',  ( -1.500000000000000000, 2.899999999999999911, 0.000000000000000000 ) ) ;
#81 = UNCERTAINTY_MEASURE_WITH_UNIT (LENGTH_MEASURE( 1.000000000000000082E-05 ), #342, 'distance_accuracy_value', 'NONE');
#82 = DIRECTION ( 'NONE',  ( 0.000000000000000000, 0.000000000000000000, 1.000000000000000000 ) ) ;
#83 = AXIS2_PLACEMENT_3D ( 'NONE', #186, #6, #69 ) ;
#84 = ORIENTED_EDGE ( 'NONE', *, *, #180, .F. ) ;
#85 = LINE ( 'NONE', #318, #17 ) ;
#86 = PLANE ( 'NONE',  #314 ) ;
#87 = VERTEX_POINT ( 'NONE', #337 ) ;
#88 = STYLED_ITEM ( 'NONE', ( #156 ), #131 ) ;
#89 = DIRECTION ( 'NONE',  ( 0.000000000000000000, -1.000000000000000000, 0.000000000000000000 ) ) ;
#90 = EDGE_CURVE ( 'NONE', #208, #87, #242, .T. ) ;
#91 = COLOUR_RGB ( '',0.7921568627450980005, 0.8196078431372548767, 0.9333333333333333481 ) ;
#92 = FACE_OUTER_BOUND ( 'NONE', #150, .T. ) ;
#93 = FILL_AREA_STYLE ('',( #295 ) ) ;
#94 = EDGE_LOOP ( 'NONE', ( #172, #379 ) ) ;
#95 = ADVANCED_FACE ( 'NONE', ( #302 ), #244, .T. ) ;
#96 = CARTESIAN_POINT ( 'NONE',  ( -9.200000000000002842, 0.5000000000000000000, 4.999999999999999112 ) ) ;
#97 = EDGE_LOOP ( 'NONE', ( #225, #237, #113, #109 ) ) ;
#98 = VECTOR ( 'NONE', #115, 1000.000000000000000 ) ;
#99 = CARTESIAN_POINT ( 'NONE',  ( -1.499999999999999778, 2.899999999999999911, 1.125000000000000000 ) ) ;
#100 =( NAMED_UNIT ( * ) PLANE_ANGLE_UNIT ( ) SI_UNIT ( $, .RADIAN. ) );
#101 = CYLINDRICAL_SURFACE ( 'NONE', #273, 1.125000000000000000 ) ;
#102 = DIRECTION ( 'NONE',  ( 0.000000000000000000, 0.000000000000000000, 1.000000000000000000 ) ) ;
#103 = CARTESIAN_POINT ( 'NONE',  ( 9.199999999999995737, -0.5000000000000000000, -5.000000000000002665 ) ) ;
#104 = DIRECTION ( 'NONE',  ( -0.000000000000000000, -0.000000000000000000, 1.000000000000000000 ) ) ;
#105 = CARTESIAN_POINT ( 'NONE',  ( -9.200000000000002842, 0.5000000000000000000, 4.999999999999999112 ) ) ;
#106 = DIRECTION ( 'NONE',  ( -1.000000000000000000, -0.000000000000000000, -0.000000000000000000 ) ) ;
#107 = AXIS2_PLACEMENT_3D ( 'NONE', #152, #261, #207 ) ;
#108 = LINE ( 'NONE', #21, #258 ) ;
#109 = ORIENTED_EDGE ( 'NONE', *, *, #201, .T. ) ;
#110 = CARTESIAN_POINT ( 'NONE',  ( 9.199999999999995737, -0.5000000000000000000, 4.999999999999999112 ) ) ;
#111 = ORIENTED_EDGE ( 'NONE', *, *, #90, .T. ) ;
#112 = LINE ( 'NONE', #322, #266 ) ;
#113 = ORIENTED_EDGE ( 'NONE', *, *, #327, .F. ) ;
#114 = PRODUCT_DEFINITION ( 'UNKNOWN', '', #181, #127 ) ;
#115 = DIRECTION ( 'NONE',  ( 0.000000000000000000, 0.000000000000000000, -1.000000000000000000 ) ) ;
#116 = ORIENTED_EDGE ( 'NONE', *, *, #287, .F. ) ;
#117 = ORIENTED_EDGE ( 'NONE', *, *, #381, .T. ) ;
#118 = CARTESIAN_POINT ( 'NONE',  ( 9.199999999999995737, 0.5000000000000000000, -5.000000000000002665 ) ) ;
#119 = PRESENTATION_STYLE_ASSIGNMENT (( #176 ) ) ;
#120 = CIRCLE ( 'NONE', #38, 1.125000000000000888 ) ;
#121 = ORIENTED_EDGE ( 'NONE', *, *, #90, .F. ) ;
#122 = CARTESIAN_POINT ( 'NONE',  ( 1.500000000000000000, 0.5000000000000000000, -1.125000000000000888 ) ) ;
#123 = ORIENTED_EDGE ( 'NONE', *, *, #369, .T. ) ;
#124 = FACE_OUTER_BOUND ( 'NONE', #97, .T. ) ;
#125 = ORIENTED_EDGE ( 'NONE', *, *, #220, .T. ) ;
#126 = CARTESIAN_POINT ( 'NONE',  ( -9.200000000000002842, 0.5000000000000000000, 4.999999999999999112 ) ) ;
#127 = PRODUCT_DEFINITION_CONTEXT ( 'detailed design', #166, 'design' ) ;
#128 = ORIENTED_EDGE ( 'NONE', *, *, #41, .F. ) ;
#129 = AXIS2_PLACEMENT_3D ( 'NONE', #234, #31, #204 ) ;
#130 = CIRCLE ( 'NONE', #291, 1.125000000000000000 ) ;
#131 = MANIFOLD_SOLID_BREP ( 'Aufsatz-Linear austragen1[2]', #290 ) ;
#132 = EDGE_CURVE ( 'NONE', #57, #230, #297, .T. ) ;
#133 = FACE_OUTER_BOUND ( 'NONE', #182, .T. ) ;
#134 = DIRECTION ( 'NONE',  ( -0.000000000000000000, -1.000000000000000000, -0.000000000000000000 ) ) ;
#135 =( GEOMETRIC_REPRESENTATION_CONTEXT ( 3 ) GLOBAL_UNCERTAINTY_ASSIGNED_CONTEXT ( ( #164 ) ) GLOBAL_UNIT_ASSIGNED_CONTEXT ( ( #368, #100, #312 ) ) REPRESENTATION_CONTEXT ( 'NONE', 'WORKASPACE' ) );
#136 = DIRECTION ( 'NONE',  ( 0.000000000000000000, 1.000000000000000000, 0.000000000000000000 ) ) ;
#137 = EDGE_CURVE ( 'NONE', #230, #57, #120, .T. ) ;
#138 = DIRECTION ( 'NONE',  ( -0.000000000000000000, -1.000000000000000000, -0.000000000000000000 ) ) ;
#139 = CIRCLE ( 'NONE', #245, 1.125000000000000888 ) ;
#140 = COLOUR_RGB ( '',0.7921568627450980005, 0.8196078431372548767, 0.9333333333333333481 ) ;
#141 = VECTOR ( 'NONE', #281, 1000.000000000000000 ) ;
#142 = LINE ( 'NONE', #253, #149 ) ;
#143 = VERTEX_POINT ( 'NONE', #73 ) ;
#144 = CARTESIAN_POINT ( 'NONE',  ( 1.500000000000000000, 2.899999999999999911, 0.000000000000000000 ) ) ;
#145 = ADVANCED_FACE ( 'NONE', ( #133 ), #190, .F. ) ;
#146 = VERTEX_POINT ( 'NONE', #40 ) ;
#147 = DIRECTION ( 'NONE',  ( 0.000000000000000000, 0.000000000000000000, -1.000000000000000000 ) ) ;
#148 = FACE_OUTER_BOUND ( 'NONE', #1, .T. ) ;
#149 = VECTOR ( 'NONE', #222, 1000.000000000000000 ) ;
#150 = EDGE_LOOP ( 'NONE', ( #391, #282, #169, #221 ) ) ;
#151 = ORIENTED_EDGE ( 'NONE', *, *, #137, .F. ) ;
#152 = CARTESIAN_POINT ( 'NONE',  ( 1.500000000000000000, 0.5000000000000000000, 0.000000000000000000 ) ) ;
#153 = DIRECTION ( 'NONE',  ( 0.000000000000000000, 0.000000000000000000, -1.000000000000000000 ) ) ;
#154 = VERTEX_POINT ( 'NONE', #217 ) ;
#155 = VERTEX_POINT ( 'NONE', #279 ) ;
#156 = PRESENTATION_STYLE_ASSIGNMENT (( #216 ) ) ;
#157 = AXIS2_PLACEMENT_3D ( 'NONE', #80, #77, #82 ) ;
#158 = FACE_OUTER_BOUND ( 'NONE', #24, .T. ) ;
#159 = CARTESIAN_POINT ( 'NONE',  ( 1.500000000000000222, 0.5000000000000000000, 1.125000000000000888 ) ) ;
#160 = CARTESIAN_POINT ( 'NONE',  ( -1.500000000000000000, 2.899999999999999911, 0.000000000000000000 ) ) ;
#161 = CARTESIAN_POINT ( 'NONE',  ( -9.200000000000002842, 0.5000000000000000000, 4.999999999999999112 ) ) ;
#162 = CARTESIAN_POINT ( 'NONE',  ( 9.199999999999995737, 0.5000000000000000000, 4.999999999999999112 ) ) ;
#163 = EDGE_LOOP ( 'NONE', ( #151, #326, #262, #116 ) ) ;
#164 = UNCERTAINTY_MEASURE_WITH_UNIT (LENGTH_MEASURE( 1.000000000000000082E-05 ), #368, 'distance_accuracy_value', 'NONE');
#165 = LINE ( 'NONE', #283, #98 ) ;
#166 = APPLICATION_CONTEXT ( 'automotive_design' ) ;
#167 = MECHANICAL_DESIGN_GEOMETRIC_PRESENTATION_REPRESENTATION (  '', ( #339 ), #320 ) ;
#168 = FACE_OUTER_BOUND ( 'NONE', #356, .T. ) ;
#169 = ORIENTED_EDGE ( 'NONE', *, *, #247, .T. ) ;
#170 = CARTESIAN_POINT ( 'NONE',  ( -1.500000000000000000, 0.5000000000000000000, 0.000000000000000000 ) ) ;
#171 = LINE ( 'NONE', #53, #252 ) ;
#172 = ORIENTED_EDGE ( 'NONE', *, *, #132, .T. ) ;
#173 = LINE ( 'NONE', #205, #58 ) ;
#174 = STYLED_ITEM ( 'NONE', ( #119 ), #375 ) ;
#175 = VERTEX_POINT ( 'NONE', #159 ) ;
#176 = SURFACE_STYLE_USAGE ( .BOTH. , #390 ) ;
#177 = DIRECTION ( 'NONE',  ( 0.000000000000000000, 0.000000000000000000, 1.000000000000000000 ) ) ;
#178 = ORIENTED_EDGE ( 'NONE', *, *, #343, .T. ) ;
#179 =( NAMED_UNIT ( * ) SI_UNIT ( $, .STERADIAN. ) SOLID_ANGLE_UNIT ( ) );
#180 = EDGE_CURVE ( 'NONE', #87, #26, #348, .T. ) ;
#181 = PRODUCT_DEFINITION_FORMATION_WITH_SPECIFIED_SOURCE ( 'ANY', '', #195, .NOT_KNOWN. ) ;
#182 = EDGE_LOOP ( 'NONE', ( #111, #203, #79, #206 ) ) ;
#183 = DIRECTION ( 'NONE',  ( 0.000000000000000000, 0.000000000000000000, 1.000000000000000000 ) ) ;
#184 = VERTEX_POINT ( 'NONE', #13 ) ;
#185 = DIRECTION ( 'NONE',  ( 0.000000000000000000, -0.000000000000000000, -1.000000000000000000 ) ) ;
#186 = CARTESIAN_POINT ( 'NONE',  ( 0.000000000000000000, 0.000000000000000000, 0.000000000000000000 ) ) ;
#187 = SURFACE_SIDE_STYLE ('',( #71 ) ) ;
#188 = MECHANICAL_DESIGN_GEOMETRIC_PRESENTATION_REPRESENTATION (  '', ( #88 ), #23 ) ;
#189 = CIRCLE ( 'NONE', #107, 1.125000000000000888 ) ;
#190 = PLANE ( 'NONE',  #191 ) ;
#191 = AXIS2_PLACEMENT_3D ( 'NONE', #105, #275, #309 ) ;
#192 = FACE_OUTER_BOUND ( 'NONE', #353, .T. ) ;
#193 = DIRECTION ( 'NONE',  ( 0.000000000000000000, 1.000000000000000000, 0.000000000000000000 ) ) ;
#194 = EDGE_CURVE ( 'NONE', #184, #208, #171, .T. ) ;
#195 = PRODUCT ( 'INGUN_33524', 'INGUN_33524', '', ( #276 ) ) ;
#196 = DIRECTION ( 'NONE',  ( 0.000000000000000000, 0.000000000000000000, 1.000000000000000000 ) ) ;
#197 = ORIENTED_EDGE ( 'NONE', *, *, #47, .T. ) ;
#198 = DIRECTION ( 'NONE',  ( 0.000000000000000000, -0.000000000000000000, 1.000000000000000000 ) ) ;
#199 = ORIENTED_EDGE ( 'NONE', *, *, #373, .T. ) ;
#200 = CARTESIAN_POINT ( 'NONE',  ( -9.200000000000002842, 0.5000000000000000000, -5.000000000000002665 ) ) ;
#201 = EDGE_CURVE ( 'NONE', #270, #26, #385, .T. ) ;
#202 = FACE_OUTER_BOUND ( 'NONE', #334, .T. ) ;
#203 = ORIENTED_EDGE ( 'NONE', *, *, #61, .F. ) ;
#204 = DIRECTION ( 'NONE',  ( 0.000000000000000000, 0.000000000000000000, -1.000000000000000000 ) ) ;
#205 = CARTESIAN_POINT ( 'NONE',  ( -9.200000000000002842, 0.5000000000000000000, 4.999999999999999112 ) ) ;
#206 = ORIENTED_EDGE ( 'NONE', *, *, #280, .T. ) ;
#207 = DIRECTION ( 'NONE',  ( 0.000000000000000000, 0.000000000000000000, 1.000000000000000000 ) ) ;
#208 = VERTEX_POINT ( 'NONE', #250 ) ;
#209 = DIRECTION ( 'NONE',  ( -1.000000000000000000, 0.000000000000000000, -0.000000000000000000 ) ) ;
#210 =( GEOMETRIC_REPRESENTATION_CONTEXT ( 3 ) GLOBAL_UNCERTAINTY_ASSIGNED_CONTEXT ( ( #256 ) ) GLOBAL_UNIT_ASSIGNED_CONTEXT ( ( #235, #64, #179 ) ) REPRESENTATION_CONTEXT ( 'NONE', 'WORKASPACE' ) );
#211 = ORIENTED_EDGE ( 'NONE', *, *, #393, .T. ) ;
#212 = ADVANCED_FACE ( 'NONE', ( #345 ), #218, .T. ) ;
#213 = PLANE ( 'NONE',  #66 ) ;
#214 = SURFACE_SIDE_STYLE ('',( #30 ) ) ;
#215 = AXIS2_PLACEMENT_3D ( 'NONE', #67, #25, #333 ) ;
#216 = SURFACE_STYLE_USAGE ( .BOTH. , #187 ) ;
#217 = CARTESIAN_POINT ( 'NONE',  ( -9.200000000000002842, 0.5000000000000000000, 4.999999999999999112 ) ) ;
#218 = PLANE ( 'NONE',  #358 ) ;
#219 = CARTESIAN_POINT ( 'NONE',  ( 1.500000000000000000, 0.5000000000000000000, 0.000000000000000000 ) ) ;
#220 = EDGE_CURVE ( 'NONE', #323, #143, #240, .T. ) ;
#221 = ORIENTED_EDGE ( 'NONE', *, *, #20, .T. ) ;
#222 = DIRECTION ( 'NONE',  ( -0.000000000000000000, -1.000000000000000000, -0.000000000000000000 ) ) ;
#223 = ORIENTED_EDGE ( 'NONE', *, *, #264, .T. ) ;
#224 = CARTESIAN_POINT ( 'NONE',  ( 9.199999999999995737, 0.5000000000000000000, 4.999999999999999112 ) ) ;
#225 = ORIENTED_EDGE ( 'NONE', *, *, #321, .T. ) ;
#226 = VECTOR ( 'NONE', #370, 1000.000000000000000 ) ;
#227 = PRESENTATION_LAYER_ASSIGNMENT (  '', '', ( #339 ) ) ;
#228 = CARTESIAN_POINT ( 'NONE',  ( 1.500000000000000222, 2.899999999999999911, 1.125000000000000888 ) ) ;
#229 = ORIENTED_EDGE ( 'NONE', *, *, #132, .F. ) ;
#230 = VERTEX_POINT ( 'NONE', #228 ) ;
#231 = ORIENTED_EDGE ( 'NONE', *, *, #369, .F. ) ;
#232 = MECHANICAL_DESIGN_GEOMETRIC_PRESENTATION_REPRESENTATION (  '', ( #174 ), #210 ) ;
#233 = SURFACE_STYLE_FILL_AREA ( #259 ) ;
#234 = CARTESIAN_POINT ( 'NONE',  ( 1.500000000000000000, 2.899999999999999911, 0.000000000000000000 ) ) ;
#235 =( LENGTH_UNIT ( ) NAMED_UNIT ( * ) SI_UNIT ( .MILLI., .METRE. ) );
#236 = ORIENTED_EDGE ( 'NONE', *, *, #180, .T. ) ;
#237 = ORIENTED_EDGE ( 'NONE', *, *, #264, .F. ) ;
#238 = ADVANCED_FACE ( 'NONE', ( #192 ), #376, .F. ) ;
#239 = SURFACE_STYLE_USAGE ( .BOTH. , #214 ) ;
#240 = CIRCLE ( 'NONE', #157, 1.125000000000000000 ) ;
#241 = FACE_OUTER_BOUND ( 'NONE', #163, .T. ) ;
#242 = LINE ( 'NONE', #70, #378 ) ;
#243 = LINE ( 'NONE', #99, #328 ) ;
#244 = PLANE ( 'NONE',  #251 ) ;
#245 = AXIS2_PLACEMENT_3D ( 'NONE', #307, #277, #102 ) ;
#246 = VECTOR ( 'NONE', #104, 1000.000000000000000 ) ;
#247 = EDGE_CURVE ( 'NONE', #323, #146, #324, .T. ) ;
#248 = DIRECTION ( 'NONE',  ( 0.000000000000000000, 0.000000000000000000, 1.000000000000000000 ) ) ;
#249 = CARTESIAN_POINT ( 'NONE',  ( 1.500000000000000000, 2.899999999999999911, -1.125000000000000888 ) ) ;
#250 = CARTESIAN_POINT ( 'NONE',  ( -9.200000000000002842, -0.5000000000000000000, -5.000000000000002665 ) ) ;
#251 = AXIS2_PLACEMENT_3D ( 'NONE', #160, #44, #341 ) ;
#252 = VECTOR ( 'NONE', #106, 1000.000000000000000 ) ;
#253 = CARTESIAN_POINT ( 'NONE',  ( 1.500000000000000222, 2.899999999999999911, 1.125000000000000888 ) ) ;
#254 = DIRECTION ( 'NONE',  ( -1.000000000000000000, -0.000000000000000000, -0.000000000000000000 ) ) ;
#255 = EDGE_CURVE ( 'NONE', #260, #2, #112, .T. ) ;
#256 = UNCERTAINTY_MEASURE_WITH_UNIT (LENGTH_MEASURE( 1.000000000000000082E-05 ), #235, 'distance_accuracy_value', 'NONE');
#257 = CARTESIAN_POINT ( 'NONE',  ( -1.500000000000000000, 2.899999999999999911, -1.125000000000000000 ) ) ;
#258 = VECTOR ( 'NONE', #383, 1000.000000000000000 ) ;
#259 = FILL_AREA_STYLE ('',( #62 ) ) ;
#260 = VERTEX_POINT ( 'NONE', #45 ) ;
#261 = DIRECTION ( 'NONE',  ( 0.000000000000000000, 1.000000000000000000, 0.000000000000000000 ) ) ;
#262 = ORIENTED_EDGE ( 'NONE', *, *, #41, .T. ) ;
#263 = DIRECTION ( 'NONE',  ( 0.000000000000000000, 1.000000000000000000, 0.000000000000000000 ) ) ;
#264 = EDGE_CURVE ( 'NONE', #260, #184, #85, .T. ) ;
#265 = ORIENTED_EDGE ( 'NONE', *, *, #287, .T. ) ;
#266 = VECTOR ( 'NONE', #254, 1000.000000000000000 ) ;
#267 = DIRECTION ( 'NONE',  ( -1.000000000000000000, 0.000000000000000000, 0.000000000000000000 ) ) ;
#268 = FACE_OUTER_BOUND ( 'NONE', #300, .T. ) ;
#269 = DIRECTION ( 'NONE',  ( 0.000000000000000000, 0.000000000000000000, -1.000000000000000000 ) ) ;
#270 = VERTEX_POINT ( 'NONE', #162 ) ;
#271 = ADVANCED_FACE ( 'NONE', ( #168 ), #377, .F. ) ;
#272 = ORIENTED_EDGE ( 'NONE', *, *, #321, .F. ) ;
#273 = AXIS2_PLACEMENT_3D ( 'NONE', #42, #75, #344 ) ;
#274 = AXIS2_PLACEMENT_3D ( 'NONE', #96, #269, #209 ) ;
#275 = DIRECTION ( 'NONE',  ( 1.000000000000000000, -0.000000000000000000, 0.000000000000000000 ) ) ;
#276 = PRODUCT_CONTEXT ( 'NONE', #364, 'mechanical' ) ;
#277 = DIRECTION ( 'NONE',  ( 0.000000000000000000, 1.000000000000000000, 0.000000000000000000 ) ) ;
#278 = COLOUR_RGB ( '',0.7921568627450980005, 0.8196078431372548767, 0.9333333333333333481 ) ;
#279 = CARTESIAN_POINT ( 'NONE',  ( -1.499999999999999778, 0.5000000000000000000, 1.125000000000000000 ) ) ;
#280 = EDGE_CURVE ( 'NONE', #2, #208, #380, .T. ) ;
#281 = DIRECTION ( 'NONE',  ( -0.000000000000000000, -1.000000000000000000, -0.000000000000000000 ) ) ;
#282 = ORIENTED_EDGE ( 'NONE', *, *, #220, .F. ) ;
#283 = CARTESIAN_POINT ( 'NONE',  ( 9.199999999999995737, 0.5000000000000000000, 4.999999999999999112 ) ) ;
#284 = DIRECTION ( 'NONE',  ( 1.000000000000000000, 0.000000000000000000, -0.000000000000000000 ) ) ;
#285 = ORIENTED_EDGE ( 'NONE', *, *, #194, .T. ) ;
#286 = LINE ( 'NONE', #110, #305 ) ;
#287 = EDGE_CURVE ( 'NONE', #57, #350, #108, .T. ) ;
#288 = DIRECTION ( 'NONE',  ( 0.000000000000000000, -0.000000000000000000, 1.000000000000000000 ) ) ;
#289 = EDGE_LOOP ( 'NONE', ( #125, #123 ) ) ;
#290 = CLOSED_SHELL ( 'NONE', ( #4, #362, #212, #293 ) ) ;
#291 = AXIS2_PLACEMENT_3D ( 'NONE', #329, #263, #56 ) ;
#292 = ORIENTED_EDGE ( 'NONE', *, *, #61, .T. ) ;
#293 = ADVANCED_FACE ( 'NONE', ( #148 ), #317, .F. ) ;
#294 = CARTESIAN_POINT ( 'NONE',  ( 9.199999999999995737, -0.5000000000000000000, 4.999999999999999112 ) ) ;
#295 = FILL_AREA_STYLE_COLOUR ( '', #140 ) ;
#296 = DIRECTION ( 'NONE',  ( -0.000000000000000000, -1.000000000000000000, -0.000000000000000000 ) ) ;
#297 = CIRCLE ( 'NONE', #306, 1.125000000000000888 ) ;
#298 = DIRECTION ( 'NONE',  ( 1.000000000000000000, 0.000000000000000000, 0.000000000000000000 ) ) ;
#299 = ORIENTED_EDGE ( 'NONE', *, *, #327, .T. ) ;
#300 = EDGE_LOOP ( 'NONE', ( #231, #197, #199, #22 ) ) ;
#301 = APPLICATION_PROTOCOL_DEFINITION ( 'draft international standard', 'automotive_design', 1998, #364 ) ;
#302 = FACE_OUTER_BOUND ( 'NONE', #289, .T. ) ;
#303 = AXIS2_PLACEMENT_3D ( 'NONE', #118, #89, #330 ) ;
#304 = PRESENTATION_STYLE_ASSIGNMENT (( #239 ) ) ;
#305 = VECTOR ( 'NONE', #147, 1000.000000000000000 ) ;
#306 = AXIS2_PLACEMENT_3D ( 'NONE', #11, #136, #248 ) ;
#307 = CARTESIAN_POINT ( 'NONE',  ( 1.500000000000000000, 0.5000000000000000000, 0.000000000000000000 ) ) ;
#308 = PRODUCT_RELATED_PRODUCT_CATEGORY ( 'part', '', ( #195 ) ) ;
#309 = DIRECTION ( 'NONE',  ( 0.000000000000000000, 0.000000000000000000, -1.000000000000000000 ) ) ;
#310 =( NAMED_UNIT ( * ) SI_UNIT ( $, .STERADIAN. ) SOLID_ANGLE_UNIT ( ) );
#311 =( LENGTH_UNIT ( ) NAMED_UNIT ( * ) SI_UNIT ( .MILLI., .METRE. ) );
#312 =( NAMED_UNIT ( * ) SI_UNIT ( $, .STERADIAN. ) SOLID_ANGLE_UNIT ( ) );
#313 = DIRECTION ( 'NONE',  ( 0.000000000000000000, 1.000000000000000000, 0.000000000000000000 ) ) ;
#314 = AXIS2_PLACEMENT_3D ( 'NONE', #355, #267, #335 ) ;
#315 = DIRECTION ( 'NONE',  ( 0.000000000000000000, -0.000000000000000000, 1.000000000000000000 ) ) ;
#316 = ORIENTED_EDGE ( 'NONE', *, *, #332, .F. ) ;
#317 = PLANE ( 'NONE',  #29 ) ;
#318 = CARTESIAN_POINT ( 'NONE',  ( 9.199999999999995737, 0.5000000000000000000, -5.000000000000002665 ) ) ;
#319 = ORIENTED_EDGE ( 'NONE', *, *, #381, .F. ) ;
#320 =( GEOMETRIC_REPRESENTATION_CONTEXT ( 3 ) GLOBAL_UNCERTAINTY_ASSIGNED_CONTEXT ( ( #81 ) ) GLOBAL_UNIT_ASSIGNED_CONTEXT ( ( #342, #366, #310 ) ) REPRESENTATION_CONTEXT ( 'NONE', 'WORKASPACE' ) );
#321 = EDGE_CURVE ( 'NONE', #26, #184, #286, .T. ) ;
#322 = CARTESIAN_POINT ( 'NONE',  ( -9.200000000000002842, 0.5000000000000000000, -5.000000000000002665 ) ) ;
#323 = VERTEX_POINT ( 'NONE', #257 ) ;
#324 = LINE ( 'NONE', #18, #51 ) ;
#325 = CYLINDRICAL_SURFACE ( 'NONE', #215, 1.125000000000000888 ) ;
#326 = ORIENTED_EDGE ( 'NONE', *, *, #332, .T. ) ;
#327 = EDGE_CURVE ( 'NONE', #270, #260, #165, .T. ) ;
#328 = VECTOR ( 'NONE', #134, 1000.000000000000000 ) ;
#329 = CARTESIAN_POINT ( 'NONE',  ( -1.500000000000000000, 2.899999999999999911, 0.000000000000000000 ) ) ;
#330 = DIRECTION ( 'NONE',  ( 0.000000000000000000, -0.000000000000000000, -1.000000000000000000 ) ) ;
#331 = CYLINDRICAL_SURFACE ( 'NONE', #9, 1.125000000000000000 ) ;
#332 = EDGE_CURVE ( 'NONE', #230, #175, #142, .T. ) ;
#333 = DIRECTION ( 'NONE',  ( 0.000000000000000000, 0.000000000000000000, -1.000000000000000000 ) ) ;
#334 = EDGE_LOOP ( 'NONE', ( #316, #229, #265, #178 ) ) ;
#335 = DIRECTION ( 'NONE',  ( 0.000000000000000000, 0.000000000000000000, 1.000000000000000000 ) ) ;
#336 = CYLINDRICAL_SURFACE ( 'NONE', #129, 1.125000000000000888 ) ;
#337 = CARTESIAN_POINT ( 'NONE',  ( -9.200000000000002842, -0.5000000000000000000, 4.999999999999999112 ) ) ;
#338 = ADVANCED_FACE ( 'NONE', ( #349 ), #50, .F. ) ;
#339 = STYLED_ITEM ( 'NONE', ( #304 ), #388 ) ;
#340 =( NAMED_UNIT ( * ) PLANE_ANGLE_UNIT ( ) SI_UNIT ( $, .RADIAN. ) );
#341 = DIRECTION ( 'NONE',  ( 0.000000000000000000, -0.000000000000000000, 1.000000000000000000 ) ) ;
#342 =( LENGTH_UNIT ( ) NAMED_UNIT ( * ) SI_UNIT ( .MILLI., .METRE. ) );
#343 = EDGE_CURVE ( 'NONE', #350, #175, #189, .T. ) ;
#344 = DIRECTION ( 'NONE',  ( 0.000000000000000000, 0.000000000000000000, -1.000000000000000000 ) ) ;
#345 = FACE_OUTER_BOUND ( 'NONE', #94, .T. ) ;
#346 = CIRCLE ( 'NONE', #3, 1.125000000000000000 ) ;
#347 = CIRCLE ( 'NONE', #392, 1.125000000000000000 ) ;
#348 = LINE ( 'NONE', #78, #72 ) ;
#349 = FACE_OUTER_BOUND ( 'NONE', #361, .T. ) ;
#350 = VERTEX_POINT ( 'NONE', #122 ) ;
#351 = ADVANCED_FACE ( 'NONE', ( #124 ), #86, .F. ) ;
#352 = DIRECTION ( 'NONE',  ( 0.000000000000000000, 1.000000000000000000, 0.000000000000000000 ) ) ;
#353 = EDGE_LOOP ( 'NONE', ( #285, #52, #382, #223 ) ) ;
#354 = DIRECTION ( 'NONE',  ( 1.000000000000000000, 0.000000000000000000, 0.000000000000000000 ) ) ;
#355 = CARTESIAN_POINT ( 'NONE',  ( 9.199999999999995737, 0.5000000000000000000, 4.999999999999999112 ) ) ;
#356 = EDGE_LOOP ( 'NONE', ( #28, #384 ) ) ;
#357 = PRESENTATION_LAYER_ASSIGNMENT (  '', '', ( #88 ) ) ;
#358 = AXIS2_PLACEMENT_3D ( 'NONE', #144, #193, #315 ) ;
#359 = CARTESIAN_POINT ( 'NONE',  ( -1.500000000000000000, 0.5000000000000000000, 0.000000000000000000 ) ) ;
#360 = LINE ( 'NONE', #126, #246 ) ;
#361 = EDGE_LOOP ( 'NONE', ( #236, #65, #319, #292 ) ) ;
#362 = ADVANCED_FACE ( 'NONE', ( #202 ), #325, .T. ) ;
#363 = FACE_OUTER_BOUND ( 'NONE', #46, .T. ) ;
#364 = APPLICATION_CONTEXT ( 'automotive_design' ) ;
#365 = AXIS2_PLACEMENT_3D ( 'NONE', #170, #352, #288 ) ;
#366 =( NAMED_UNIT ( * ) PLANE_ANGLE_UNIT ( ) SI_UNIT ( $, .RADIAN. ) );
#367 = PLANE ( 'NONE',  #303 ) ;
#368 =( LENGTH_UNIT ( ) NAMED_UNIT ( * ) SI_UNIT ( .MILLI., .METRE. ) );
#369 = EDGE_CURVE ( 'NONE', #143, #323, #130, .T. ) ;
#370 = DIRECTION ( 'NONE',  ( -0.000000000000000000, -1.000000000000000000, -0.000000000000000000 ) ) ;
#371 = DIRECTION ( 'NONE',  ( 0.000000000000000000, -1.000000000000000000, 0.000000000000000000 ) ) ;
#372 = FILL_AREA_STYLE ('',( #36 ) ) ;
#373 = EDGE_CURVE ( 'NONE', #155, #146, #347, .T. ) ;
#374 = DIRECTION ( 'NONE',  ( 0.000000000000000000, 0.000000000000000000, 1.000000000000000000 ) ) ;
#375 = MANIFOLD_SOLID_BREP ( 'Linear austragen1', #37 ) ;
#376 = PLANE ( 'NONE',  #76 ) ;
#377 = PLANE ( 'NONE',  #365 ) ;
#378 = VECTOR ( 'NONE', #39, 1000.000000000000000 ) ;
#379 = ORIENTED_EDGE ( 'NONE', *, *, #137, .T. ) ;
#380 = LINE ( 'NONE', #16, #43 ) ;
#381 = EDGE_CURVE ( 'NONE', #154, #270, #173, .T. ) ;
#382 = ORIENTED_EDGE ( 'NONE', *, *, #255, .F. ) ;
#383 = DIRECTION ( 'NONE',  ( -0.000000000000000000, -1.000000000000000000, -0.000000000000000000 ) ) ;
#384 = ORIENTED_EDGE ( 'NONE', *, *, #373, .F. ) ;
#385 = LINE ( 'NONE', #224, #141 ) ;
#386 = CLOSED_SHELL ( 'NONE', ( #34, #27, #95, #271 ) ) ;
#387 = CARTESIAN_POINT ( 'NONE',  ( -9.200000000000002842, 0.5000000000000000000, -5.000000000000002665 ) ) ;
#388 = MANIFOLD_SOLID_BREP ( 'Aufsatz-Linear austragen1[1]', #386 ) ;
#389 = PRODUCT_DEFINITION_SHAPE ( 'NONE', 'NONE',  #114 ) ;
#390 = SURFACE_SIDE_STYLE ('',( #233 ) ) ;
#391 = ORIENTED_EDGE ( 'NONE', *, *, #47, .F. ) ;
#392 = AXIS2_PLACEMENT_3D ( 'NONE', #32, #59, #183 ) ;
#393 = EDGE_CURVE ( 'NONE', #2, #154, #360, .T. ) ;
ENDSEC;
END-ISO-10303-21;
