ISO-10303-21;
HEADER;
FILE_DESCRIPTION (( 'STEP AP214' ),
    '1' );
FILE_NAME ('INGUN_33523.STEP',
    '2024-11-25T08:19:48',
    ( '' ),
    ( '' ),
    'SwSTEP 2.0',
    'SolidWorks 2023',
    '' );
FILE_SCHEMA (( 'AUTOMOTIVE_DESIGN' ));
ENDSEC;

DATA;
#1 = ORIENTED_EDGE ( 'NONE', *, *, #229, .F. ) ;
#2 = ORIENTED_EDGE ( 'NONE', *, *, #323, .F. ) ;
#3 = AXIS2_PLACEMENT_3D ( 'NONE', #90, #335, #307 ) ;
#4 = ADVANCED_FACE ( 'NONE', ( #113 ), #357, .F. ) ;
#5 = EDGE_LOOP ( 'NONE', ( #200, #216 ) ) ;
#6 = DIRECTION ( 'NONE',  ( -0.000000000000000000, -1.000000000000000000, -0.000000000000000000 ) ) ;
#7 = CARTESIAN_POINT ( 'NONE',  ( 1.500000000000000000, 2.899999999999999911, 0.000000000000000000 ) ) ;
#8 = CARTESIAN_POINT ( 'NONE',  ( -10.49999999999999822, 0.5000000000000000000, 4.999999999999999112 ) ) ;
#9 = EDGE_CURVE ( 'NONE', #350, #392, #173, .T. ) ;
#10 = COLOUR_RGB ( '',0.7921568627450980005, 0.8196078431372548767, 0.9333333333333333481 ) ;
#11 = CARTESIAN_POINT ( 'NONE',  ( -1.500000000000000000, 2.899999999999999911, 0.000000000000000000 ) ) ;
#12 = FACE_OUTER_BOUND ( 'NONE', #291, .T. ) ;
#13 = DIRECTION ( 'NONE',  ( 0.000000000000000000, 1.000000000000000000, 0.000000000000000000 ) ) ;
#14 = EDGE_CURVE ( 'NONE', #77, #146, #86, .T. ) ;
#15 = FILL_AREA_STYLE ('',( #313 ) ) ;
#16 = EDGE_LOOP ( 'NONE', ( #265, #208, #21, #148 ) ) ;
#17 = CARTESIAN_POINT ( 'NONE',  ( 10.50000000000000178, 0.5000000000000000000, 4.999999999999999112 ) ) ;
#18 = ADVANCED_FACE ( 'NONE', ( #174 ), #299, .T. ) ;
#19 = CARTESIAN_POINT ( 'NONE',  ( -10.49999999999999822, -0.5000000000000000000, 4.999999999999999112 ) ) ;
#20 = CARTESIAN_POINT ( 'NONE',  ( 1.500000000000000000, 2.899999999999999911, -1.125000000000000888 ) ) ;
#21 = ORIENTED_EDGE ( 'NONE', *, *, #270, .F. ) ;
#22 = ADVANCED_FACE ( 'NONE', ( #375 ), #228, .T. ) ;
#23 =( NAMED_UNIT ( * ) SI_UNIT ( $, .STERADIAN. ) SOLID_ANGLE_UNIT ( ) );
#24 = ORIENTED_EDGE ( 'NONE', *, *, #52, .T. ) ;
#25 = CARTESIAN_POINT ( 'NONE',  ( 1.500000000000000000, 2.899999999999999911, 0.000000000000000000 ) ) ;
#26 = ORIENTED_EDGE ( 'NONE', *, *, #91, .F. ) ;
#27 = MECHANICAL_DESIGN_GEOMETRIC_PRESENTATION_REPRESENTATION (  '', ( #281 ), #108 ) ;
#28 = AXIS2_PLACEMENT_3D ( 'NONE', #251, #154, #125 ) ;
#29 = EDGE_LOOP ( 'NONE', ( #302, #72, #26, #240 ) ) ;
#30 = CARTESIAN_POINT ( 'NONE',  ( 1.500000000000000000, 2.899999999999999911, 0.000000000000000000 ) ) ;
#31 = FACE_OUTER_BOUND ( 'NONE', #322, .T. ) ;
#32 = PRODUCT_CONTEXT ( 'NONE', #358, 'mechanical' ) ;
#33 = DIRECTION ( 'NONE',  ( 0.000000000000000000, 1.000000000000000000, 0.000000000000000000 ) ) ;
#34 = PLANE ( 'NONE',  #43 ) ;
#35 = UNCERTAINTY_MEASURE_WITH_UNIT (LENGTH_MEASURE( 1.000000000000000082E-05 ), #178, 'distance_accuracy_value', 'NONE');
#36 = EDGE_CURVE ( 'NONE', #392, #77, #38, .T. ) ;
#37 = DIRECTION ( 'NONE',  ( 1.000000000000000000, 0.000000000000000000, -0.000000000000000000 ) ) ;
#38 = LINE ( 'NONE', #256, #245 ) ;
#39 = DIRECTION ( 'NONE',  ( 0.000000000000000000, 1.000000000000000000, 0.000000000000000000 ) ) ;
#40 = DIRECTION ( 'NONE',  ( -0.000000000000000000, -1.000000000000000000, -0.000000000000000000 ) ) ;
#41 = ADVANCED_FACE ( 'NONE', ( #366 ), #249, .F. ) ;
#42 = CARTESIAN_POINT ( 'NONE',  ( -10.49999999999999822, -0.5000000000000000000, 4.999999999999999112 ) ) ;
#43 = AXIS2_PLACEMENT_3D ( 'NONE', #386, #70, #263 ) ;
#44 = AXIS2_PLACEMENT_3D ( 'NONE', #311, #235, #199 ) ;
#45 = FACE_OUTER_BOUND ( 'NONE', #327, .T. ) ;
#46 = EDGE_CURVE ( 'NONE', #84, #215, #103, .T. ) ;
#47 =( NAMED_UNIT ( * ) SI_UNIT ( $, .STERADIAN. ) SOLID_ANGLE_UNIT ( ) );
#48 = ORIENTED_EDGE ( 'NONE', *, *, #14, .T. ) ;
#49 = DIRECTION ( 'NONE',  ( -1.000000000000000000, 0.000000000000000000, 0.000000000000000000 ) ) ;
#50 = AXIS2_PLACEMENT_3D ( 'NONE', #227, #122, #338 ) ;
#51 = EDGE_LOOP ( 'NONE', ( #390, #79, #353, #321 ) ) ;
#52 = EDGE_CURVE ( 'NONE', #179, #58, #288, .T. ) ;
#53 = EDGE_LOOP ( 'NONE', ( #294, #1, #83, #24 ) ) ;
#54 = DIRECTION ( 'NONE',  ( 0.000000000000000000, -0.000000000000000000, 1.000000000000000000 ) ) ;
#55 = COLOUR_RGB ( '',0.7921568627450980005, 0.8196078431372548767, 0.9333333333333333481 ) ;
#56 = DIRECTION ( 'NONE',  ( -1.000000000000000000, -0.000000000000000000, -0.000000000000000000 ) ) ;
#57 = EDGE_CURVE ( 'NONE', #107, #58, #63, .T. ) ;
#58 = VERTEX_POINT ( 'NONE', #98 ) ;
#59 = VERTEX_POINT ( 'NONE', #193 ) ;
#60 = CARTESIAN_POINT ( 'NONE',  ( 10.50000000000000178, 0.5000000000000000000, -5.000000000000002665 ) ) ;
#61 = FACE_OUTER_BOUND ( 'NONE', #16, .T. ) ;
#62 = ADVANCED_FACE ( 'NONE', ( #12 ), #151, .T. ) ;
#63 = LINE ( 'NONE', #129, #118 ) ;
#64 = CARTESIAN_POINT ( 'NONE',  ( -10.49999999999999822, 0.5000000000000000000, -5.000000000000002665 ) ) ;
#65 =( LENGTH_UNIT ( ) NAMED_UNIT ( * ) SI_UNIT ( .MILLI., .METRE. ) );
#66 = CYLINDRICAL_SURFACE ( 'NONE', #234, 1.125000000000000000 ) ;
#67 = DIRECTION ( 'NONE',  ( 0.000000000000000000, 0.000000000000000000, -1.000000000000000000 ) ) ;
#68 = CARTESIAN_POINT ( 'NONE',  ( -1.500000000000000000, 2.899999999999999911, -1.125000000000000000 ) ) ;
#69 = DIRECTION ( 'NONE',  ( 0.000000000000000000, 0.000000000000000000, -1.000000000000000000 ) ) ;
#70 = DIRECTION ( 'NONE',  ( 0.000000000000000000, -1.000000000000000000, 0.000000000000000000 ) ) ;
#71 = LINE ( 'NONE', #165, #362 ) ;
#72 = ORIENTED_EDGE ( 'NONE', *, *, #262, .F. ) ;
#73 = CLOSED_SHELL ( 'NONE', ( #111, #22, #18, #85 ) ) ;
#74 = UNCERTAINTY_MEASURE_WITH_UNIT (LENGTH_MEASURE( 1.000000000000000082E-05 ), #168, 'distance_accuracy_value', 'NONE');
#75 = AXIS2_PLACEMENT_3D ( 'NONE', #7, #128, #152 ) ;
#76 =( NAMED_UNIT ( * ) PLANE_ANGLE_UNIT ( ) SI_UNIT ( $, .RADIAN. ) );
#77 = VERTEX_POINT ( 'NONE', #370 ) ;
#78 = PLANE ( 'NONE',  #92 ) ;
#79 = ORIENTED_EDGE ( 'NONE', *, *, #99, .F. ) ;
#80 = CARTESIAN_POINT ( 'NONE',  ( 10.50000000000000178, 0.5000000000000000000, 4.999999999999999112 ) ) ;
#81 = PRESENTATION_LAYER_ASSIGNMENT (  '', '', ( #281 ) ) ;
#82 = EDGE_LOOP ( 'NONE', ( #116, #276 ) ) ;
#83 = ORIENTED_EDGE ( 'NONE', *, *, #379, .T. ) ;
#84 = VERTEX_POINT ( 'NONE', #304 ) ;
#85 = ADVANCED_FACE ( 'NONE', ( #31 ), #187, .F. ) ;
#86 = LINE ( 'NONE', #326, #361 ) ;
#87 = STYLED_ITEM ( 'NONE', ( #142 ), #388 ) ;
#88 = ORIENTED_EDGE ( 'NONE', *, *, #114, .T. ) ;
#89 = ORIENTED_EDGE ( 'NONE', *, *, #46, .T. ) ;
#90 = CARTESIAN_POINT ( 'NONE',  ( -10.49999999999999822, 0.5000000000000000000, 4.999999999999999112 ) ) ;
#91 = EDGE_CURVE ( 'NONE', #231, #364, #158, .T. ) ;
#92 = AXIS2_PLACEMENT_3D ( 'NONE', #202, #49, #382 ) ;
#93 = DIRECTION ( 'NONE',  ( -0.000000000000000000, -1.000000000000000000, -0.000000000000000000 ) ) ;
#94 = DIRECTION ( 'NONE',  ( 0.000000000000000000, -0.000000000000000000, 1.000000000000000000 ) ) ;
#95 = CARTESIAN_POINT ( 'NONE',  ( 10.50000000000000178, 0.5000000000000000000, -5.000000000000002665 ) ) ;
#96 = FILL_AREA_STYLE ('',( #183 ) ) ;
#97 = DIRECTION ( 'NONE',  ( 1.000000000000000000, 0.000000000000000000, 0.000000000000000000 ) ) ;
#98 = CARTESIAN_POINT ( 'NONE',  ( 1.500000000000000222, 0.5000000000000000000, 1.125000000000000888 ) ) ;
#99 = EDGE_CURVE ( 'NONE', #149, #84, #296, .T. ) ;
#100 = CLOSED_SHELL ( 'NONE', ( #62, #210, #279, #4 ) ) ;
#101 = DIRECTION ( 'NONE',  ( -0.000000000000000000, -1.000000000000000000, -0.000000000000000000 ) ) ;
#102 =( GEOMETRIC_REPRESENTATION_CONTEXT ( 3 ) GLOBAL_UNCERTAINTY_ASSIGNED_CONTEXT ( ( #191 ) ) GLOBAL_UNIT_ASSIGNED_CONTEXT ( ( #356, #241, #23 ) ) REPRESENTATION_CONTEXT ( 'NONE', 'WORKASPACE' ) );
#103 = LINE ( 'NONE', #190, #156 ) ;
#104 = DIRECTION ( 'NONE',  ( 0.000000000000000000, 0.000000000000000000, 1.000000000000000000 ) ) ;
#105 = ORIENTED_EDGE ( 'NONE', *, *, #359, .F. ) ;
#106 = FACE_OUTER_BOUND ( 'NONE', #244, .T. ) ;
#107 = VERTEX_POINT ( 'NONE', #284 ) ;
#108 =( GEOMETRIC_REPRESENTATION_CONTEXT ( 3 ) GLOBAL_UNCERTAINTY_ASSIGNED_CONTEXT ( ( #117 ) ) GLOBAL_UNIT_ASSIGNED_CONTEXT ( ( #65, #195, #141 ) ) REPRESENTATION_CONTEXT ( 'NONE', 'WORKASPACE' ) );
#109 = AXIS2_PLACEMENT_3D ( 'NONE', #283, #220, #126 ) ;
#110 = DIRECTION ( 'NONE',  ( 0.000000000000000000, 0.000000000000000000, 1.000000000000000000 ) ) ;
#111 = ADVANCED_FACE ( 'NONE', ( #121 ), #259, .T. ) ;
#112 = ORIENTED_EDGE ( 'NONE', *, *, #342, .T. ) ;
#113 = FACE_OUTER_BOUND ( 'NONE', #341, .T. ) ;
#114 = EDGE_CURVE ( 'NONE', #213, #77, #224, .T. ) ;
#115 = DIRECTION ( 'NONE',  ( -0.000000000000000000, -1.000000000000000000, -0.000000000000000000 ) ) ;
#116 = ORIENTED_EDGE ( 'NONE', *, *, #99, .T. ) ;
#117 = UNCERTAINTY_MEASURE_WITH_UNIT (LENGTH_MEASURE( 1.000000000000000082E-05 ), #65, 'distance_accuracy_value', 'NONE');
#118 = VECTOR ( 'NONE', #280, 1000.000000000000000 ) ;
#119 = MANIFOLD_SOLID_BREP ( 'Aufsatz-Linear austragen1[2]', #73 ) ;
#120 = ORIENTED_EDGE ( 'NONE', *, *, #164, .F. ) ;
#121 = FACE_OUTER_BOUND ( 'NONE', #233, .T. ) ;
#122 = DIRECTION ( 'NONE',  ( 0.000000000000000000, 1.000000000000000000, 0.000000000000000000 ) ) ;
#123 = DIRECTION ( 'NONE',  ( 0.000000000000000000, 1.000000000000000000, 0.000000000000000000 ) ) ;
#124 = VECTOR ( 'NONE', #286, 1000.000000000000000 ) ;
#125 = DIRECTION ( 'NONE',  ( 0.000000000000000000, 0.000000000000000000, 1.000000000000000000 ) ) ;
#126 = DIRECTION ( 'NONE',  ( 1.000000000000000000, 0.000000000000000000, 0.000000000000000000 ) ) ;
#127 = SURFACE_STYLE_FILL_AREA ( #96 ) ;
#128 = DIRECTION ( 'NONE',  ( 0.000000000000000000, 1.000000000000000000, 0.000000000000000000 ) ) ;
#129 = CARTESIAN_POINT ( 'NONE',  ( 1.500000000000000222, 2.899999999999999911, 1.125000000000000888 ) ) ;
#130 = VECTOR ( 'NONE', #217, 1000.000000000000000 ) ;
#131 = FACE_OUTER_BOUND ( 'NONE', #51, .T. ) ;
#132 = SURFACE_STYLE_USAGE ( .BOTH. , #293 ) ;
#133 = APPLICATION_CONTEXT ( 'automotive_design' ) ;
#134 = APPLICATION_PROTOCOL_DEFINITION ( 'draft international standard', 'automotive_design', 1998, #133 ) ;
#135 = PRODUCT_DEFINITION_CONTEXT ( 'detailed design', #133, 'design' ) ;
#136 = ORIENTED_EDGE ( 'NONE', *, *, #185, .F. ) ;
#137 = EDGE_CURVE ( 'NONE', #84, #149, #218, .T. ) ;
#138 = CARTESIAN_POINT ( 'NONE',  ( 10.49999999999999467, -0.5000000000000000000, -5.000000000000002665 ) ) ;
#139 =( GEOMETRIC_REPRESENTATION_CONTEXT ( 3 ) GLOBAL_UNCERTAINTY_ASSIGNED_CONTEXT ( ( #74 ) ) GLOBAL_UNIT_ASSIGNED_CONTEXT ( ( #168, #76, #47 ) ) REPRESENTATION_CONTEXT ( 'NONE', 'WORKASPACE' ) );
#140 = LINE ( 'NONE', #387, #247 ) ;
#141 =( NAMED_UNIT ( * ) SI_UNIT ( $, .STERADIAN. ) SOLID_ANGLE_UNIT ( ) );
#142 = PRESENTATION_STYLE_ASSIGNMENT (( #207 ) ) ;
#143 = AXIS2_PLACEMENT_3D ( 'NONE', #211, #324, #54 ) ;
#144 = ORIENTED_EDGE ( 'NONE', *, *, #342, .F. ) ;
#145 = PRESENTATION_LAYER_ASSIGNMENT (  '', '', ( #87 ) ) ;
#146 = VERTEX_POINT ( 'NONE', #184 ) ;
#147 =( NAMED_UNIT ( * ) SI_UNIT ( $, .STERADIAN. ) SOLID_ANGLE_UNIT ( ) );
#148 = ORIENTED_EDGE ( 'NONE', *, *, #262, .T. ) ;
#149 = VERTEX_POINT ( 'NONE', #180 ) ;
#150 = AXIS2_PLACEMENT_3D ( 'NONE', #25, #123, #94 ) ;
#151 = CYLINDRICAL_SURFACE ( 'NONE', #212, 1.125000000000000000 ) ;
#152 = DIRECTION ( 'NONE',  ( 0.000000000000000000, 0.000000000000000000, 1.000000000000000000 ) ) ;
#153 = DIRECTION ( 'NONE',  ( -0.000000000000000000, -1.000000000000000000, -0.000000000000000000 ) ) ;
#154 = DIRECTION ( 'NONE',  ( 0.000000000000000000, 1.000000000000000000, 0.000000000000000000 ) ) ;
#155 = ADVANCED_FACE ( 'NONE', ( #225 ), #34, .F. ) ;
#156 = VECTOR ( 'NONE', #221, 1000.000000000000000 ) ;
#157 = CIRCLE ( 'NONE', #162, 1.125000000000000888 ) ;
#158 = LINE ( 'NONE', #8, #130 ) ;
#159 = LINE ( 'NONE', #369, #345 ) ;
#160 = CARTESIAN_POINT ( 'NONE',  ( 1.500000000000000000, 2.899999999999999911, 0.000000000000000000 ) ) ;
#161 = DIRECTION ( 'NONE',  ( 0.000000000000000000, 0.000000000000000000, -1.000000000000000000 ) ) ;
#162 = AXIS2_PLACEMENT_3D ( 'NONE', #182, #39, #255 ) ;
#163 = DIRECTION ( 'NONE',  ( -1.000000000000000000, -0.000000000000000000, -0.000000000000000000 ) ) ;
#164 = EDGE_CURVE ( 'NONE', #146, #166, #320, .T. ) ;
#165 = CARTESIAN_POINT ( 'NONE',  ( -10.49999999999999822, 0.5000000000000000000, -5.000000000000002665 ) ) ;
#166 = VERTEX_POINT ( 'NONE', #42 ) ;
#167 = PRODUCT_DEFINITION ( 'UNKNOWN', '', #277, #135 ) ;
#168 =( LENGTH_UNIT ( ) NAMED_UNIT ( * ) SI_UNIT ( .MILLI., .METRE. ) );
#169 = CIRCLE ( 'NONE', #75, 1.125000000000000888 ) ;
#170 = ADVANCED_BREP_SHAPE_REPRESENTATION ( 'INGUN_33523', ( #388, #376, #119, #109 ), #282 ) ;
#171 = ORIENTED_EDGE ( 'NONE', *, *, #9, .T. ) ;
#172 = ORIENTED_EDGE ( 'NONE', *, *, #285, .T. ) ;
#173 = LINE ( 'NONE', #274, #319 ) ;
#174 = FACE_OUTER_BOUND ( 'NONE', #5, .T. ) ;
#175 = SURFACE_STYLE_FILL_AREA ( #289 ) ;
#176 = ORIENTED_EDGE ( 'NONE', *, *, #36, .T. ) ;
#177 = EDGE_CURVE ( 'NONE', #58, #179, #157, .T. ) ;
#178 =( LENGTH_UNIT ( ) NAMED_UNIT ( * ) SI_UNIT ( .MILLI., .METRE. ) );
#179 = VERTEX_POINT ( 'NONE', #374 ) ;
#180 = CARTESIAN_POINT ( 'NONE',  ( -1.500000000000000000, 2.899999999999999911, -1.125000000000000000 ) ) ;
#181 = DIRECTION ( 'NONE',  ( 0.000000000000000000, 0.000000000000000000, 1.000000000000000000 ) ) ;
#182 = CARTESIAN_POINT ( 'NONE',  ( 1.500000000000000000, 0.5000000000000000000, 0.000000000000000000 ) ) ;
#183 = FILL_AREA_STYLE_COLOUR ( '', #344 ) ;
#184 = CARTESIAN_POINT ( 'NONE',  ( -10.49999999999999822, -0.5000000000000000000, -5.000000000000002665 ) ) ;
#185 = EDGE_CURVE ( 'NONE', #107, #355, #253, .T. ) ;
#186 = CARTESIAN_POINT ( 'NONE',  ( -10.49999999999999822, 0.5000000000000000000, 4.999999999999999112 ) ) ;
#187 = PLANE ( 'NONE',  #368 ) ;
#188 = AXIS2_PLACEMENT_3D ( 'NONE', #138, #232, #343 ) ;
#189 = CARTESIAN_POINT ( 'NONE',  ( -1.499999999999999778, 0.5000000000000000000, 1.125000000000000000 ) ) ;
#190 = CARTESIAN_POINT ( 'NONE',  ( -1.499999999999999778, 2.899999999999999911, 1.125000000000000000 ) ) ;
#191 = UNCERTAINTY_MEASURE_WITH_UNIT (LENGTH_MEASURE( 1.000000000000000082E-05 ), #356, 'distance_accuracy_value', 'NONE');
#192 = PLANE ( 'NONE',  #44 ) ;
#193 = CARTESIAN_POINT ( 'NONE',  ( -1.500000000000000000, 0.5000000000000000000, -1.125000000000000000 ) ) ;
#194 = DIRECTION ( 'NONE',  ( -0.000000000000000000, -1.000000000000000000, -0.000000000000000000 ) ) ;
#195 =( NAMED_UNIT ( * ) PLANE_ANGLE_UNIT ( ) SI_UNIT ( $, .RADIAN. ) );
#196 = PRODUCT ( 'INGUN_33523', 'INGUN_33523', '', ( #32 ) ) ;
#197 = ORIENTED_EDGE ( 'NONE', *, *, #137, .F. ) ;
#198 = CIRCLE ( 'NONE', #266, 1.125000000000000000 ) ;
#199 = DIRECTION ( 'NONE',  ( -1.000000000000000000, 0.000000000000000000, -0.000000000000000000 ) ) ;
#200 = ORIENTED_EDGE ( 'NONE', *, *, #229, .T. ) ;
#201 = ORIENTED_EDGE ( 'NONE', *, *, #52, .F. ) ;
#202 = CARTESIAN_POINT ( 'NONE',  ( 10.50000000000000178, 0.5000000000000000000, 4.999999999999999112 ) ) ;
#203 = FILL_AREA_STYLE_COLOUR ( '', #10 ) ;
#204 = AXIS2_PLACEMENT_3D ( 'NONE', #329, #6, #378 ) ;
#205 = AXIS2_PLACEMENT_3D ( 'NONE', #160, #40, #69 ) ;
#206 = MECHANICAL_DESIGN_GEOMETRIC_PRESENTATION_REPRESENTATION (  '', ( #87 ), #102 ) ;
#207 = SURFACE_STYLE_USAGE ( .BOTH. , #301 ) ;
#208 = ORIENTED_EDGE ( 'NONE', *, *, #9, .F. ) ;
#209 =( NAMED_UNIT ( * ) PLANE_ANGLE_UNIT ( ) SI_UNIT ( $, .RADIAN. ) );
#210 = ADVANCED_FACE ( 'NONE', ( #131 ), #66, .T. ) ;
#211 = CARTESIAN_POINT ( 'NONE',  ( -1.500000000000000000, 0.5000000000000000000, 0.000000000000000000 ) ) ;
#212 = AXIS2_PLACEMENT_3D ( 'NONE', #331, #153, #339 ) ;
#213 = VERTEX_POINT ( 'NONE', #95 ) ;
#214 = PRESENTATION_LAYER_ASSIGNMENT (  '', '', ( #219 ) ) ;
#215 = VERTEX_POINT ( 'NONE', #189 ) ;
#216 = ORIENTED_EDGE ( 'NONE', *, *, #185, .T. ) ;
#217 = DIRECTION ( 'NONE',  ( -0.000000000000000000, -0.000000000000000000, 1.000000000000000000 ) ) ;
#218 = CIRCLE ( 'NONE', #354, 1.125000000000000000 ) ;
#219 = STYLED_ITEM ( 'NONE', ( #318 ), #376 ) ;
#220 = DIRECTION ( 'NONE',  ( 0.000000000000000000, 0.000000000000000000, 1.000000000000000000 ) ) ;
#221 = DIRECTION ( 'NONE',  ( -0.000000000000000000, -1.000000000000000000, -0.000000000000000000 ) ) ;
#222 = SURFACE_STYLE_USAGE ( .BOTH. , #306 ) ;
#223 = LINE ( 'NONE', #186, #226 ) ;
#224 = LINE ( 'NONE', #60, #124 ) ;
#225 = FACE_OUTER_BOUND ( 'NONE', #317, .T. ) ;
#226 = VECTOR ( 'NONE', #97, 1000.000000000000000 ) ;
#227 = CARTESIAN_POINT ( 'NONE',  ( -1.500000000000000000, 2.899999999999999911, 0.000000000000000000 ) ) ;
#228 = CYLINDRICAL_SURFACE ( 'NONE', #205, 1.125000000000000888 ) ;
#229 = EDGE_CURVE ( 'NONE', #355, #107, #169, .T. ) ;
#230 = DIRECTION ( 'NONE',  ( -0.000000000000000000, -1.000000000000000000, -0.000000000000000000 ) ) ;
#231 = VERTEX_POINT ( 'NONE', #64 ) ;
#232 = DIRECTION ( 'NONE',  ( 0.000000000000000000, -1.000000000000000000, 0.000000000000000000 ) ) ;
#233 = EDGE_LOOP ( 'NONE', ( #136, #328, #275, #242 ) ) ;
#234 = AXIS2_PLACEMENT_3D ( 'NONE', #260, #101, #161 ) ;
#235 = DIRECTION ( 'NONE',  ( 0.000000000000000000, 0.000000000000000000, -1.000000000000000000 ) ) ;
#236 = ADVANCED_FACE ( 'NONE', ( #330 ), #287, .F. ) ;
#237 = LINE ( 'NONE', #80, #308 ) ;
#238 = CARTESIAN_POINT ( 'NONE',  ( -1.500000000000000000, 0.5000000000000000000, 0.000000000000000000 ) ) ;
#239 = AXIS2_PLACEMENT_3D ( 'NONE', #250, #309, #37 ) ;
#240 = ORIENTED_EDGE ( 'NONE', *, *, #333, .T. ) ;
#241 =( NAMED_UNIT ( * ) PLANE_ANGLE_UNIT ( ) SI_UNIT ( $, .RADIAN. ) );
#242 = ORIENTED_EDGE ( 'NONE', *, *, #379, .F. ) ;
#243 = CARTESIAN_POINT ( 'NONE',  ( 10.50000000000000178, -0.5000000000000000000, 4.999999999999999112 ) ) ;
#244 = EDGE_LOOP ( 'NONE', ( #300, #360, #120, #363 ) ) ;
#245 = VECTOR ( 'NONE', #67, 1000.000000000000000 ) ;
#246 = ORIENTED_EDGE ( 'NONE', *, *, #270, .T. ) ;
#247 = VECTOR ( 'NONE', #352, 1000.000000000000000 ) ;
#248 = ORIENTED_EDGE ( 'NONE', *, *, #359, .T. ) ;
#249 = PLANE ( 'NONE',  #3 ) ;
#250 = CARTESIAN_POINT ( 'NONE',  ( -10.49999999999999822, 0.5000000000000000000, -5.000000000000002665 ) ) ;
#251 = CARTESIAN_POINT ( 'NONE',  ( 1.500000000000000000, 0.5000000000000000000, 0.000000000000000000 ) ) ;
#252 = CLOSED_SHELL ( 'NONE', ( #371, #236, #41, #316, #155, #365 ) ) ;
#253 = CIRCLE ( 'NONE', #337, 1.125000000000000888 ) ;
#254 = PRODUCT_RELATED_PRODUCT_CATEGORY ( 'part', '', ( #196 ) ) ;
#255 = DIRECTION ( 'NONE',  ( 0.000000000000000000, 0.000000000000000000, 1.000000000000000000 ) ) ;
#256 = CARTESIAN_POINT ( 'NONE',  ( 10.50000000000000178, -0.5000000000000000000, 4.999999999999999112 ) ) ;
#257 = SHAPE_DEFINITION_REPRESENTATION ( #389, #170 ) ;
#258 = PRESENTATION_STYLE_ASSIGNMENT (( #222 ) ) ;
#259 = CYLINDRICAL_SURFACE ( 'NONE', #204, 1.125000000000000888 ) ;
#260 = CARTESIAN_POINT ( 'NONE',  ( -1.500000000000000000, 2.899999999999999911, 0.000000000000000000 ) ) ;
#261 = LINE ( 'NONE', #290, #272 ) ;
#262 = EDGE_CURVE ( 'NONE', #364, #166, #159, .T. ) ;
#263 = DIRECTION ( 'NONE',  ( 0.000000000000000000, -0.000000000000000000, -1.000000000000000000 ) ) ;
#264 = CARTESIAN_POINT ( 'NONE',  ( -10.49999999999999822, 0.5000000000000000000, 4.999999999999999112 ) ) ;
#265 = ORIENTED_EDGE ( 'NONE', *, *, #351, .T. ) ;
#266 = AXIS2_PLACEMENT_3D ( 'NONE', #238, #385, #110 ) ;
#267 = CARTESIAN_POINT ( 'NONE',  ( -10.49999999999999822, -0.5000000000000000000, 4.999999999999999112 ) ) ;
#268 = SURFACE_STYLE_FILL_AREA ( #15 ) ;
#269 = EDGE_LOOP ( 'NONE', ( #48, #298, #144, #88 ) ) ;
#270 = EDGE_CURVE ( 'NONE', #364, #350, #223, .T. ) ;
#271 = VECTOR ( 'NONE', #348, 1000.000000000000000 ) ;
#272 = VECTOR ( 'NONE', #194, 1000.000000000000000 ) ;
#273 = ORIENTED_EDGE ( 'NONE', *, *, #285, .F. ) ;
#274 = CARTESIAN_POINT ( 'NONE',  ( 10.50000000000000178, 0.5000000000000000000, 4.999999999999999112 ) ) ;
#275 = ORIENTED_EDGE ( 'NONE', *, *, #177, .T. ) ;
#276 = ORIENTED_EDGE ( 'NONE', *, *, #137, .T. ) ;
#277 = PRODUCT_DEFINITION_FORMATION_WITH_SPECIFIED_SOURCE ( 'ANY', '', #196, .NOT_KNOWN. ) ;
#278 = DIRECTION ( 'NONE',  ( 0.000000000000000000, 0.000000000000000000, 1.000000000000000000 ) ) ;
#279 = ADVANCED_FACE ( 'NONE', ( #340 ), #303, .T. ) ;
#280 = DIRECTION ( 'NONE',  ( -0.000000000000000000, -1.000000000000000000, -0.000000000000000000 ) ) ;
#281 = STYLED_ITEM ( 'NONE', ( #258 ), #119 ) ;
#282 =( GEOMETRIC_REPRESENTATION_CONTEXT ( 3 ) GLOBAL_UNCERTAINTY_ASSIGNED_CONTEXT ( ( #35 ) ) GLOBAL_UNIT_ASSIGNED_CONTEXT ( ( #178, #209, #147 ) ) REPRESENTATION_CONTEXT ( 'NONE', 'WORKASPACE' ) );
#283 = CARTESIAN_POINT ( 'NONE',  ( 0.000000000000000000, 0.000000000000000000, 0.000000000000000000 ) ) ;
#284 = CARTESIAN_POINT ( 'NONE',  ( 1.500000000000000222, 2.899999999999999911, 1.125000000000000888 ) ) ;
#285 = EDGE_CURVE ( 'NONE', #215, #59, #384, .T. ) ;
#286 = DIRECTION ( 'NONE',  ( -0.000000000000000000, -1.000000000000000000, -0.000000000000000000 ) ) ;
#287 = PLANE ( 'NONE',  #239 ) ;
#288 = CIRCLE ( 'NONE', #28, 1.125000000000000888 ) ;
#289 = FILL_AREA_STYLE ('',( #203 ) ) ;
#290 = CARTESIAN_POINT ( 'NONE',  ( -10.49999999999999822, 0.5000000000000000000, -5.000000000000002665 ) ) ;
#291 = EDGE_LOOP ( 'NONE', ( #197, #89, #172, #381 ) ) ;
#292 = EDGE_CURVE ( 'NONE', #149, #59, #377, .T. ) ;
#293 = SURFACE_SIDE_STYLE ('',( #268 ) ) ;
#294 = ORIENTED_EDGE ( 'NONE', *, *, #57, .F. ) ;
#295 = ORIENTED_EDGE ( 'NONE', *, *, #91, .T. ) ;
#296 = CIRCLE ( 'NONE', #336, 1.125000000000000000 ) ;
#297 = VECTOR ( 'NONE', #346, 1000.000000000000000 ) ;
#298 = ORIENTED_EDGE ( 'NONE', *, *, #333, .F. ) ;
#299 = PLANE ( 'NONE',  #150 ) ;
#300 = ORIENTED_EDGE ( 'NONE', *, *, #36, .F. ) ;
#301 = SURFACE_SIDE_STYLE ('',( #175 ) ) ;
#302 = ORIENTED_EDGE ( 'NONE', *, *, #164, .T. ) ;
#303 = PLANE ( 'NONE',  #50 ) ;
#304 = CARTESIAN_POINT ( 'NONE',  ( -1.499999999999999778, 2.899999999999999911, 1.125000000000000000 ) ) ;
#305 = CARTESIAN_POINT ( 'NONE',  ( -1.500000000000000000, 0.5000000000000000000, 0.000000000000000000 ) ) ;
#306 = SURFACE_SIDE_STYLE ('',( #127 ) ) ;
#307 = DIRECTION ( 'NONE',  ( 0.000000000000000000, 0.000000000000000000, -1.000000000000000000 ) ) ;
#308 = VECTOR ( 'NONE', #315, 1000.000000000000000 ) ;
#309 = DIRECTION ( 'NONE',  ( 0.000000000000000000, 0.000000000000000000, 1.000000000000000000 ) ) ;
#310 = CARTESIAN_POINT ( 'NONE',  ( -1.500000000000000000, 2.899999999999999911, 0.000000000000000000 ) ) ;
#311 = CARTESIAN_POINT ( 'NONE',  ( -10.49999999999999822, 0.5000000000000000000, 4.999999999999999112 ) ) ;
#312 = DIRECTION ( 'NONE',  ( 0.000000000000000000, -0.000000000000000000, 1.000000000000000000 ) ) ;
#313 = FILL_AREA_STYLE_COLOUR ( '', #55 ) ;
#314 = MECHANICAL_DESIGN_GEOMETRIC_PRESENTATION_REPRESENTATION (  '', ( #219 ), #139 ) ;
#315 = DIRECTION ( 'NONE',  ( 0.000000000000000000, 0.000000000000000000, -1.000000000000000000 ) ) ;
#316 = ADVANCED_FACE ( 'NONE', ( #61 ), #192, .F. ) ;
#317 = EDGE_LOOP ( 'NONE', ( #248, #112, #295, #246 ) ) ;
#318 = PRESENTATION_STYLE_ASSIGNMENT (( #132 ) ) ;
#319 = VECTOR ( 'NONE', #115, 1000.000000000000000 ) ;
#320 = LINE ( 'NONE', #19, #271 ) ;
#321 = ORIENTED_EDGE ( 'NONE', *, *, #323, .T. ) ;
#322 = EDGE_LOOP ( 'NONE', ( #201, #347 ) ) ;
#323 = EDGE_CURVE ( 'NONE', #59, #215, #198, .T. ) ;
#324 = DIRECTION ( 'NONE',  ( 0.000000000000000000, 1.000000000000000000, 0.000000000000000000 ) ) ;
#325 = VECTOR ( 'NONE', #93, 1000.000000000000000 ) ;
#326 = CARTESIAN_POINT ( 'NONE',  ( -10.49999999999999822, -0.5000000000000000000, -5.000000000000002665 ) ) ;
#327 = EDGE_LOOP ( 'NONE', ( #176, #383, #105, #171 ) ) ;
#328 = ORIENTED_EDGE ( 'NONE', *, *, #57, .T. ) ;
#329 = CARTESIAN_POINT ( 'NONE',  ( 1.500000000000000000, 2.899999999999999911, 0.000000000000000000 ) ) ;
#330 = FACE_OUTER_BOUND ( 'NONE', #269, .T. ) ;
#331 = CARTESIAN_POINT ( 'NONE',  ( -1.500000000000000000, 2.899999999999999911, 0.000000000000000000 ) ) ;
#332 = DIRECTION ( 'NONE',  ( 0.000000000000000000, 1.000000000000000000, 0.000000000000000000 ) ) ;
#333 = EDGE_CURVE ( 'NONE', #231, #146, #261, .T. ) ;
#334 = DIRECTION ( 'NONE',  ( 0.000000000000000000, 0.000000000000000000, 1.000000000000000000 ) ) ;
#335 = DIRECTION ( 'NONE',  ( 1.000000000000000000, -0.000000000000000000, 0.000000000000000000 ) ) ;
#336 = AXIS2_PLACEMENT_3D ( 'NONE', #310, #332, #278 ) ;
#337 = AXIS2_PLACEMENT_3D ( 'NONE', #30, #372, #104 ) ;
#338 = DIRECTION ( 'NONE',  ( 0.000000000000000000, -0.000000000000000000, 1.000000000000000000 ) ) ;
#339 = DIRECTION ( 'NONE',  ( 0.000000000000000000, 0.000000000000000000, -1.000000000000000000 ) ) ;
#340 = FACE_OUTER_BOUND ( 'NONE', #82, .T. ) ;
#341 = EDGE_LOOP ( 'NONE', ( #2, #273 ) ) ;
#342 = EDGE_CURVE ( 'NONE', #213, #231, #71, .T. ) ;
#343 = DIRECTION ( 'NONE',  ( 0.000000000000000000, -0.000000000000000000, -1.000000000000000000 ) ) ;
#344 = COLOUR_RGB ( '',0.7921568627450980005, 0.8196078431372548767, 0.9333333333333333481 ) ;
#345 = VECTOR ( 'NONE', #230, 1000.000000000000000 ) ;
#346 = DIRECTION ( 'NONE',  ( 1.000000000000000000, 0.000000000000000000, 0.000000000000000000 ) ) ;
#347 = ORIENTED_EDGE ( 'NONE', *, *, #177, .F. ) ;
#348 = DIRECTION ( 'NONE',  ( -0.000000000000000000, -0.000000000000000000, 1.000000000000000000 ) ) ;
#349 = PLANE ( 'NONE',  #188 ) ;
#350 = VERTEX_POINT ( 'NONE', #17 ) ;
#351 = EDGE_CURVE ( 'NONE', #166, #392, #380, .T. ) ;
#352 = DIRECTION ( 'NONE',  ( -0.000000000000000000, -1.000000000000000000, -0.000000000000000000 ) ) ;
#353 = ORIENTED_EDGE ( 'NONE', *, *, #292, .T. ) ;
#354 = AXIS2_PLACEMENT_3D ( 'NONE', #11, #367, #181 ) ;
#355 = VERTEX_POINT ( 'NONE', #20 ) ;
#356 =( LENGTH_UNIT ( ) NAMED_UNIT ( * ) SI_UNIT ( .MILLI., .METRE. ) );
#357 = PLANE ( 'NONE',  #143 ) ;
#358 = APPLICATION_CONTEXT ( 'automotive_design' ) ;
#359 = EDGE_CURVE ( 'NONE', #350, #213, #237, .T. ) ;
#360 = ORIENTED_EDGE ( 'NONE', *, *, #351, .F. ) ;
#361 = VECTOR ( 'NONE', #56, 1000.000000000000000 ) ;
#362 = VECTOR ( 'NONE', #163, 1000.000000000000000 ) ;
#363 = ORIENTED_EDGE ( 'NONE', *, *, #14, .F. ) ;
#364 = VERTEX_POINT ( 'NONE', #264 ) ;
#365 = ADVANCED_FACE ( 'NONE', ( #106 ), #349, .T. ) ;
#366 = FACE_OUTER_BOUND ( 'NONE', #29, .T. ) ;
#367 = DIRECTION ( 'NONE',  ( 0.000000000000000000, 1.000000000000000000, 0.000000000000000000 ) ) ;
#368 = AXIS2_PLACEMENT_3D ( 'NONE', #373, #33, #312 ) ;
#369 = CARTESIAN_POINT ( 'NONE',  ( -10.49999999999999822, 0.5000000000000000000, 4.999999999999999112 ) ) ;
#370 = CARTESIAN_POINT ( 'NONE',  ( 10.50000000000000178, -0.5000000000000000000, -5.000000000000002665 ) ) ;
#371 = ADVANCED_FACE ( 'NONE', ( #45 ), #78, .F. ) ;
#372 = DIRECTION ( 'NONE',  ( 0.000000000000000000, 1.000000000000000000, 0.000000000000000000 ) ) ;
#373 = CARTESIAN_POINT ( 'NONE',  ( 1.500000000000000000, 0.5000000000000000000, 0.000000000000000000 ) ) ;
#374 = CARTESIAN_POINT ( 'NONE',  ( 1.500000000000000000, 0.5000000000000000000, -1.125000000000000888 ) ) ;
#375 = FACE_OUTER_BOUND ( 'NONE', #53, .T. ) ;
#376 = MANIFOLD_SOLID_BREP ( 'Aufsatz-Linear austragen1[1]', #100 ) ;
#377 = LINE ( 'NONE', #68, #325 ) ;
#378 = DIRECTION ( 'NONE',  ( 0.000000000000000000, 0.000000000000000000, -1.000000000000000000 ) ) ;
#379 = EDGE_CURVE ( 'NONE', #355, #179, #140, .T. ) ;
#380 = LINE ( 'NONE', #267, #297 ) ;
#381 = ORIENTED_EDGE ( 'NONE', *, *, #292, .F. ) ;
#382 = DIRECTION ( 'NONE',  ( 0.000000000000000000, 0.000000000000000000, 1.000000000000000000 ) ) ;
#383 = ORIENTED_EDGE ( 'NONE', *, *, #114, .F. ) ;
#384 = CIRCLE ( 'NONE', #391, 1.125000000000000000 ) ;
#385 = DIRECTION ( 'NONE',  ( 0.000000000000000000, 1.000000000000000000, 0.000000000000000000 ) ) ;
#386 = CARTESIAN_POINT ( 'NONE',  ( 10.49999999999999467, 0.5000000000000000000, -5.000000000000002665 ) ) ;
#387 = CARTESIAN_POINT ( 'NONE',  ( 1.500000000000000000, 2.899999999999999911, -1.125000000000000888 ) ) ;
#388 = MANIFOLD_SOLID_BREP ( 'Linear austragen1', #252 ) ;
#389 = PRODUCT_DEFINITION_SHAPE ( 'NONE', 'NONE',  #167 ) ;
#390 = ORIENTED_EDGE ( 'NONE', *, *, #46, .F. ) ;
#391 = AXIS2_PLACEMENT_3D ( 'NONE', #305, #13, #334 ) ;
#392 = VERTEX_POINT ( 'NONE', #243 ) ;
#393 = APPLICATION_PROTOCOL_DEFINITION ( 'draft international standard', 'automotive_design', 1998, #358 ) ;
ENDSEC;
END-ISO-10303-21;
