ISO-10303-21;
HEADER;
FILE_DESCRIPTION (( 'STEP AP214' ),
    '1' );
FILE_NAME ('INGUN_33522.STEP',
    '2024-11-25T08:19:37',
    ( '' ),
    ( '' ),
    'SwSTEP 2.0',
    'SolidWorks 2023',
    '' );
FILE_SCHEMA (( 'AUTOMOTIVE_DESIGN' ));
ENDSEC;

DATA;
#1 = FILL_AREA_STYLE ('',( #301 ) ) ;
#2 =( NAMED_UNIT ( * ) PLANE_ANGLE_UNIT ( ) SI_UNIT ( $, .RADIAN. ) );
#3 = VECTOR ( 'NONE', #316, 1000.000000000000000 ) ;
#4 = COLOUR_RGB ( '',0.7921568627450980005, 0.8196078431372548767, 0.9333333333333333481 ) ;
#5 = EDGE_CURVE ( 'NONE', #48, #193, #28, .T. ) ;
#6 = DIRECTION ( 'NONE',  ( 0.000000000000000000, -0.000000000000000000, 1.000000000000000000 ) ) ;
#7 = PRODUCT_DEFINITION_CONTEXT ( 'detailed design', #263, 'design' ) ;
#8 = DIRECTION ( 'NONE',  ( 0.000000000000000000, 0.000000000000000000, -1.000000000000000000 ) ) ;
#9 = ORIENTED_EDGE ( 'NONE', *, *, #368, .F. ) ;
#10 = DIRECTION ( 'NONE',  ( 1.000000000000000000, 0.000000000000000000, 0.000000000000000000 ) ) ;
#11 = EDGE_CURVE ( 'NONE', #249, #294, #327, .T. ) ;
#12 = EDGE_LOOP ( 'NONE', ( #314, #169, #219, #72 ) ) ;
#13 =( NAMED_UNIT ( * ) PLANE_ANGLE_UNIT ( ) SI_UNIT ( $, .RADIAN. ) );
#14 = LINE ( 'NONE', #223, #177 ) ;
#15 = CARTESIAN_POINT ( 'NONE',  ( -1.500000000000000000, 2.899999999999999911, 0.000000000000000000 ) ) ;
#16 = ORIENTED_EDGE ( 'NONE', *, *, #243, .T. ) ;
#17 = VECTOR ( 'NONE', #66, 1000.000000000000000 ) ;
#18 = EDGE_CURVE ( 'NONE', #48, #221, #115, .T. ) ;
#19 = UNCERTAINTY_MEASURE_WITH_UNIT (LENGTH_MEASURE( 1.000000000000000082E-05 ), #344, 'distance_accuracy_value', 'NONE');
#20 = SURFACE_SIDE_STYLE ('',( #71 ) ) ;
#21 = ORIENTED_EDGE ( 'NONE', *, *, #202, .F. ) ;
#22 = CARTESIAN_POINT ( 'NONE',  ( -1.500000000000000000, 2.899999999999999911, -1.125000000000000000 ) ) ;
#23 = VERTEX_POINT ( 'NONE', #355 ) ;
#24 = DIRECTION ( 'NONE',  ( 0.000000000000000000, -0.000000000000000000, 1.000000000000000000 ) ) ;
#25 = VERTEX_POINT ( 'NONE', #353 ) ;
#26 = EDGE_CURVE ( 'NONE', #294, #190, #83, .T. ) ;
#27 = CARTESIAN_POINT ( 'NONE',  ( 1.500000000000000222, 0.5000000000000000000, 1.125000000000000888 ) ) ;
#28 = CIRCLE ( 'NONE', #349, 1.125000000000000888 ) ;
#29 = MECHANICAL_DESIGN_GEOMETRIC_PRESENTATION_REPRESENTATION (  '', ( #92 ), #42 ) ;
#30 = DIRECTION ( 'NONE',  ( 1.000000000000000000, 0.000000000000000000, 0.000000000000000000 ) ) ;
#31 = CARTESIAN_POINT ( 'NONE',  ( 6.450000000000002842, 0.5000000000000000000, -3.750000000000001776 ) ) ;
#32 = CARTESIAN_POINT ( 'NONE',  ( -6.449999999999995737, -0.5000000000000000000, -3.750000000000001776 ) ) ;
#33 = AXIS2_PLACEMENT_3D ( 'NONE', #382, #86, #260 ) ;
#34 = FACE_OUTER_BOUND ( 'NONE', #75, .T. ) ;
#35 = CYLINDRICAL_SURFACE ( 'NONE', #121, 1.125000000000000888 ) ;
#36 = EDGE_CURVE ( 'NONE', #141, #205, #283, .T. ) ;
#37 = DIRECTION ( 'NONE',  ( 0.000000000000000000, 1.000000000000000000, 0.000000000000000000 ) ) ;
#38 = ORIENTED_EDGE ( 'NONE', *, *, #333, .F. ) ;
#39 = DIRECTION ( 'NONE',  ( 0.000000000000000000, 1.000000000000000000, 0.000000000000000000 ) ) ;
#40 = ORIENTED_EDGE ( 'NONE', *, *, #330, .F. ) ;
#41 = LINE ( 'NONE', #346, #99 ) ;
#42 =( GEOMETRIC_REPRESENTATION_CONTEXT ( 3 ) GLOBAL_UNCERTAINTY_ASSIGNED_CONTEXT ( ( #371 ) ) GLOBAL_UNIT_ASSIGNED_CONTEXT ( ( #155, #2, #244 ) ) REPRESENTATION_CONTEXT ( 'NONE', 'WORKASPACE' ) );
#43 = CARTESIAN_POINT ( 'NONE',  ( 6.450000000000002842, 0.5000000000000000000, 3.749999999999998224 ) ) ;
#44 =( NAMED_UNIT ( * ) PLANE_ANGLE_UNIT ( ) SI_UNIT ( $, .RADIAN. ) );
#45 = ORIENTED_EDGE ( 'NONE', *, *, #78, .T. ) ;
#46 =( NAMED_UNIT ( * ) SI_UNIT ( $, .STERADIAN. ) SOLID_ANGLE_UNIT ( ) );
#47 = CARTESIAN_POINT ( 'NONE',  ( -1.500000000000000000, 2.899999999999999911, 0.000000000000000000 ) ) ;
#48 = VERTEX_POINT ( 'NONE', #198 ) ;
#49 = AXIS2_PLACEMENT_3D ( 'NONE', #15, #379, #132 ) ;
#50 = CARTESIAN_POINT ( 'NONE',  ( -1.499999999999999778, 2.899999999999999911, 1.125000000000000000 ) ) ;
#51 = ORIENTED_EDGE ( 'NONE', *, *, #95, .T. ) ;
#52 = CARTESIAN_POINT ( 'NONE',  ( -1.500000000000000000, 0.5000000000000000000, 0.000000000000000000 ) ) ;
#53 = EDGE_CURVE ( 'NONE', #172, #249, #104, .T. ) ;
#54 = ORIENTED_EDGE ( 'NONE', *, *, #186, .F. ) ;
#55 = FACE_OUTER_BOUND ( 'NONE', #347, .T. ) ;
#56 = PLANE ( 'NONE',  #90 ) ;
#57 = AXIS2_PLACEMENT_3D ( 'NONE', #235, #329, #236 ) ;
#58 = CARTESIAN_POINT ( 'NONE',  ( 1.500000000000000000, 2.899999999999999911, 0.000000000000000000 ) ) ;
#59 = ADVANCED_FACE ( 'NONE', ( #287 ), #136, .T. ) ;
#60 = SURFACE_STYLE_FILL_AREA ( #184 ) ;
#61 = DIRECTION ( 'NONE',  ( 0.000000000000000000, -0.000000000000000000, 1.000000000000000000 ) ) ;
#62 = MECHANICAL_DESIGN_GEOMETRIC_PRESENTATION_REPRESENTATION (  '', ( #268 ), #336 ) ;
#63 = FACE_OUTER_BOUND ( 'NONE', #228, .T. ) ;
#64 = ADVANCED_FACE ( 'NONE', ( #138 ), #159, .F. ) ;
#65 = LINE ( 'NONE', #32, #17 ) ;
#66 = DIRECTION ( 'NONE',  ( -1.000000000000000000, -0.000000000000000000, -0.000000000000000000 ) ) ;
#67 = CLOSED_SHELL ( 'NONE', ( #131, #59, #101, #380 ) ) ;
#68 = ORIENTED_EDGE ( 'NONE', *, *, #302, .T. ) ;
#69 = ORIENTED_EDGE ( 'NONE', *, *, #309, .F. ) ;
#70 = EDGE_CURVE ( 'NONE', #139, #141, #14, .T. ) ;
#71 = SURFACE_STYLE_FILL_AREA ( #342 ) ;
#72 = ORIENTED_EDGE ( 'NONE', *, *, #125, .T. ) ;
#73 = PRODUCT_CONTEXT ( 'NONE', #304, 'mechanical' ) ;
#74 = PLANE ( 'NONE',  #49 ) ;
#75 = EDGE_LOOP ( 'NONE', ( #21, #277, #352, #370 ) ) ;
#76 = MECHANICAL_DESIGN_GEOMETRIC_PRESENTATION_REPRESENTATION (  '', ( #392 ), #117 ) ;
#77 = AXIS2_PLACEMENT_3D ( 'NONE', #245, #185, #61 ) ;
#78 = EDGE_CURVE ( 'NONE', #142, #23, #285, .T. ) ;
#79 = ORIENTED_EDGE ( 'NONE', *, *, #70, .F. ) ;
#80 =( NAMED_UNIT ( * ) SI_UNIT ( $, .STERADIAN. ) SOLID_ANGLE_UNIT ( ) );
#81 = EDGE_LOOP ( 'NONE', ( #111, #45, #16, #343 ) ) ;
#82 = DIRECTION ( 'NONE',  ( -0.000000000000000000, -1.000000000000000000, -0.000000000000000000 ) ) ;
#83 = LINE ( 'NONE', #112, #206 ) ;
#84 = CLOSED_SHELL ( 'NONE', ( #64, #176, #345, #270, #163, #106 ) ) ;
#85 = UNCERTAINTY_MEASURE_WITH_UNIT (LENGTH_MEASURE( 1.000000000000000082E-05 ), #350, 'distance_accuracy_value', 'NONE');
#86 = DIRECTION ( 'NONE',  ( -0.000000000000000000, -1.000000000000000000, -0.000000000000000000 ) ) ;
#87 = ORIENTED_EDGE ( 'NONE', *, *, #239, .T. ) ;
#88 = DIRECTION ( 'NONE',  ( 0.000000000000000000, 0.000000000000000000, 1.000000000000000000 ) ) ;
#89 = DIRECTION ( 'NONE',  ( 0.000000000000000000, -0.000000000000000000, -1.000000000000000000 ) ) ;
#90 = AXIS2_PLACEMENT_3D ( 'NONE', #209, #231, #89 ) ;
#91 = DIRECTION ( 'NONE',  ( 0.000000000000000000, 0.000000000000000000, -1.000000000000000000 ) ) ;
#92 = STYLED_ITEM ( 'NONE', ( #366 ), #374 ) ;
#93 = DIRECTION ( 'NONE',  ( 0.000000000000000000, 1.000000000000000000, 0.000000000000000000 ) ) ;
#94 = LINE ( 'NONE', #215, #339 ) ;
#95 = EDGE_CURVE ( 'NONE', #172, #141, #41, .T. ) ;
#96 = CARTESIAN_POINT ( 'NONE',  ( 1.500000000000000000, 2.899999999999999911, 0.000000000000000000 ) ) ;
#97 = AXIS2_PLACEMENT_3D ( 'NONE', #58, #264, #178 ) ;
#98 = PRESENTATION_STYLE_ASSIGNMENT (( #364 ) ) ;
#99 = VECTOR ( 'NONE', #102, 1000.000000000000000 ) ;
#100 = EDGE_LOOP ( 'NONE', ( #105, #224 ) ) ;
#101 = ADVANCED_FACE ( 'NONE', ( #168 ), #74, .T. ) ;
#102 = DIRECTION ( 'NONE',  ( -0.000000000000000000, -1.000000000000000000, -0.000000000000000000 ) ) ;
#103 = EDGE_LOOP ( 'NONE', ( #170, #108, #319, #147 ) ) ;
#104 = LINE ( 'NONE', #378, #299 ) ;
#105 = ORIENTED_EDGE ( 'NONE', *, *, #333, .T. ) ;
#106 = ADVANCED_FACE ( 'NONE', ( #248 ), #313, .T. ) ;
#107 = DIRECTION ( 'NONE',  ( 0.000000000000000000, 0.000000000000000000, 1.000000000000000000 ) ) ;
#108 = ORIENTED_EDGE ( 'NONE', *, *, #26, .F. ) ;
#109 = CLOSED_SHELL ( 'NONE', ( #318, #210, #386, #233 ) ) ;
#110 = DIRECTION ( 'NONE',  ( 0.000000000000000000, 0.000000000000000000, -1.000000000000000000 ) ) ;
#111 = ORIENTED_EDGE ( 'NONE', *, *, #183, .F. ) ;
#112 = CARTESIAN_POINT ( 'NONE',  ( -6.449999999999995737, 0.5000000000000000000, -3.750000000000001776 ) ) ;
#113 = DIRECTION ( 'NONE',  ( 0.000000000000000000, 0.000000000000000000, 1.000000000000000000 ) ) ;
#114 = PLANE ( 'NONE',  #181 ) ;
#115 = LINE ( 'NONE', #232, #196 ) ;
#116 = EDGE_CURVE ( 'NONE', #190, #139, #200, .T. ) ;
#117 =( GEOMETRIC_REPRESENTATION_CONTEXT ( 3 ) GLOBAL_UNCERTAINTY_ASSIGNED_CONTEXT ( ( #85 ) ) GLOBAL_UNIT_ASSIGNED_CONTEXT ( ( #350, #44, #80 ) ) REPRESENTATION_CONTEXT ( 'NONE', 'WORKASPACE' ) );
#118 = LINE ( 'NONE', #22, #188 ) ;
#119 = CYLINDRICAL_SURFACE ( 'NONE', #361, 1.125000000000000888 ) ;
#120 = CARTESIAN_POINT ( 'NONE',  ( 1.500000000000000000, 0.5000000000000000000, 0.000000000000000000 ) ) ;
#121 = AXIS2_PLACEMENT_3D ( 'NONE', #96, #303, #273 ) ;
#122 = DIRECTION ( 'NONE',  ( 1.000000000000000000, 0.000000000000000000, -0.000000000000000000 ) ) ;
#123 = AXIS2_PLACEMENT_3D ( 'NONE', #305, #37, #6 ) ;
#124 = SURFACE_SIDE_STYLE ('',( #60 ) ) ;
#125 = EDGE_CURVE ( 'NONE', #221, #226, #237, .T. ) ;
#126 = LINE ( 'NONE', #127, #218 ) ;
#127 = CARTESIAN_POINT ( 'NONE',  ( -6.449999999999995737, 0.5000000000000000000, 3.749999999999998224 ) ) ;
#128 = AXIS2_PLACEMENT_3D ( 'NONE', #120, #359, #291 ) ;
#129 = MANIFOLD_SOLID_BREP ( 'Aufsatz-Linear austragen1[1]', #67 ) ;
#130 = FACE_OUTER_BOUND ( 'NONE', #289, .T. ) ;
#131 = ADVANCED_FACE ( 'NONE', ( #255 ), #250, .T. ) ;
#132 = DIRECTION ( 'NONE',  ( 0.000000000000000000, -0.000000000000000000, 1.000000000000000000 ) ) ;
#133 = PRESENTATION_LAYER_ASSIGNMENT (  '', '', ( #392 ) ) ;
#134 = ORIENTED_EDGE ( 'NONE', *, *, #53, .T. ) ;
#135 = PRESENTATION_LAYER_ASSIGNMENT (  '', '', ( #268 ) ) ;
#136 = CYLINDRICAL_SURFACE ( 'NONE', #214, 1.125000000000000000 ) ;
#137 = ORIENTED_EDGE ( 'NONE', *, *, #144, .F. ) ;
#138 = FACE_OUTER_BOUND ( 'NONE', #230, .T. ) ;
#139 = VERTEX_POINT ( 'NONE', #328 ) ;
#140 = DIRECTION ( 'NONE',  ( 0.000000000000000000, 0.000000000000000000, 1.000000000000000000 ) ) ;
#141 = VERTEX_POINT ( 'NONE', #152 ) ;
#142 = VERTEX_POINT ( 'NONE', #50 ) ;
#143 = DIRECTION ( 'NONE',  ( -0.000000000000000000, -1.000000000000000000, -0.000000000000000000 ) ) ;
#144 = EDGE_CURVE ( 'NONE', #249, #205, #358, .T. ) ;
#145 = ORIENTED_EDGE ( 'NONE', *, *, #95, .F. ) ;
#146 = DIRECTION ( 'NONE',  ( 0.000000000000000000, 0.000000000000000000, -1.000000000000000000 ) ) ;
#147 = ORIENTED_EDGE ( 'NONE', *, *, #144, .T. ) ;
#148 = AXIS2_PLACEMENT_3D ( 'NONE', #390, #146, #322 ) ;
#149 = PLANE ( 'NONE',  #156 ) ;
#150 = PRODUCT_RELATED_PRODUCT_CATEGORY ( 'part', '', ( #204 ) ) ;
#151 = CARTESIAN_POINT ( 'NONE',  ( -6.449999999999995737, 0.5000000000000000000, -3.750000000000001776 ) ) ;
#152 = CARTESIAN_POINT ( 'NONE',  ( 6.450000000000002842, -0.5000000000000000000, 3.749999999999998224 ) ) ;
#153 = COLOUR_RGB ( '',0.7921568627450980005, 0.8196078431372548767, 0.9333333333333333481 ) ;
#154 = CARTESIAN_POINT ( 'NONE',  ( -6.449999999999995737, 0.5000000000000000000, 3.749999999999998224 ) ) ;
#155 =( LENGTH_UNIT ( ) NAMED_UNIT ( * ) SI_UNIT ( .MILLI., .METRE. ) );
#156 = AXIS2_PLACEMENT_3D ( 'NONE', #326, #384, #24 ) ;
#157 = DIRECTION ( 'NONE',  ( -0.000000000000000000, -1.000000000000000000, -0.000000000000000000 ) ) ;
#158 = EDGE_LOOP ( 'NONE', ( #251, #54 ) ) ;
#159 = PLANE ( 'NONE',  #288 ) ;
#160 = ORIENTED_EDGE ( 'NONE', *, *, #116, .T. ) ;
#161 = DIRECTION ( 'NONE',  ( -0.000000000000000000, -1.000000000000000000, -0.000000000000000000 ) ) ;
#162 = CIRCLE ( 'NONE', #128, 1.125000000000000888 ) ;
#163 = ADVANCED_FACE ( 'NONE', ( #55 ), #56, .F. ) ;
#164 = ORIENTED_EDGE ( 'NONE', *, *, #53, .F. ) ;
#165 = PRODUCT_DEFINITION_FORMATION_WITH_SPECIFIED_SOURCE ( 'ANY', '', #204, .NOT_KNOWN. ) ;
#166 = SURFACE_STYLE_USAGE ( .BOTH. , #20 ) ;
#167 = EDGE_LOOP ( 'NONE', ( #383, #38, #68, #87 ) ) ;
#168 = FACE_OUTER_BOUND ( 'NONE', #100, .T. ) ;
#169 = ORIENTED_EDGE ( 'NONE', *, *, #5, .F. ) ;
#170 = ORIENTED_EDGE ( 'NONE', *, *, #330, .T. ) ;
#171 = CARTESIAN_POINT ( 'NONE',  ( 6.450000000000002842, 0.5000000000000000000, -3.750000000000001776 ) ) ;
#172 = VERTEX_POINT ( 'NONE', #356 ) ;
#173 = FACE_OUTER_BOUND ( 'NONE', #158, .T. ) ;
#174 = VERTEX_POINT ( 'NONE', #207 ) ;
#175 = DIRECTION ( 'NONE',  ( 0.000000000000000000, 0.000000000000000000, 1.000000000000000000 ) ) ;
#176 = ADVANCED_FACE ( 'NONE', ( #211 ), #114, .F. ) ;
#177 = VECTOR ( 'NONE', #10, 1000.000000000000000 ) ;
#178 = DIRECTION ( 'NONE',  ( 0.000000000000000000, 0.000000000000000000, 1.000000000000000000 ) ) ;
#179 = DIRECTION ( 'NONE',  ( -0.000000000000000000, -1.000000000000000000, -0.000000000000000000 ) ) ;
#180 = ADVANCED_BREP_SHAPE_REPRESENTATION ( 'INGUN_33522', ( #389, #129, #374, #340 ), #317 ) ;
#181 = AXIS2_PLACEMENT_3D ( 'NONE', #238, #175, #122 ) ;
#182 = PLANE ( 'NONE',  #123 ) ;
#183 = EDGE_CURVE ( 'NONE', #142, #25, #335, .T. ) ;
#184 = FILL_AREA_STYLE ('',( #332 ) ) ;
#185 = DIRECTION ( 'NONE',  ( 0.000000000000000000, 1.000000000000000000, 0.000000000000000000 ) ) ;
#186 = EDGE_CURVE ( 'NONE', #226, #221, #162, .T. ) ;
#187 = PLANE ( 'NONE',  #77 ) ;
#188 = VECTOR ( 'NONE', #143, 1000.000000000000000 ) ;
#189 = CIRCLE ( 'NONE', #280, 1.125000000000000000 ) ;
#190 = VERTEX_POINT ( 'NONE', #362 ) ;
#191 = CARTESIAN_POINT ( 'NONE',  ( 0.000000000000000000, 0.000000000000000000, 0.000000000000000000 ) ) ;
#192 = DIRECTION ( 'NONE',  ( -1.000000000000000000, 0.000000000000000000, 0.000000000000000000 ) ) ;
#193 = VERTEX_POINT ( 'NONE', #234 ) ;
#194 = SHAPE_DEFINITION_REPRESENTATION ( #391, #180 ) ;
#195 = DIRECTION ( 'NONE',  ( 0.000000000000000000, -0.000000000000000000, -1.000000000000000000 ) ) ;
#196 = VECTOR ( 'NONE', #357, 1000.000000000000000 ) ;
#197 = ORIENTED_EDGE ( 'NONE', *, *, #36, .F. ) ;
#198 = CARTESIAN_POINT ( 'NONE',  ( 1.500000000000000000, 2.899999999999999911, -1.125000000000000888 ) ) ;
#199 = ORIENTED_EDGE ( 'NONE', *, *, #26, .T. ) ;
#200 = LINE ( 'NONE', #253, #3 ) ;
#201 = CARTESIAN_POINT ( 'NONE',  ( 1.500000000000000000, 2.899999999999999911, 0.000000000000000000 ) ) ;
#202 = EDGE_CURVE ( 'NONE', #193, #48, #262, .T. ) ;
#203 = FACE_OUTER_BOUND ( 'NONE', #324, .T. ) ;
#204 = PRODUCT ( 'INGUN_33522', 'INGUN_33522', '', ( #73 ) ) ;
#205 = VERTEX_POINT ( 'NONE', #387 ) ;
#206 = VECTOR ( 'NONE', #161, 1000.000000000000000 ) ;
#207 = CARTESIAN_POINT ( 'NONE',  ( -1.500000000000000000, 0.5000000000000000000, -1.125000000000000000 ) ) ;
#208 = ORIENTED_EDGE ( 'NONE', *, *, #259, .T. ) ;
#209 = CARTESIAN_POINT ( 'NONE',  ( 6.450000000000002842, 0.5000000000000000000, -3.750000000000001776 ) ) ;
#210 = ADVANCED_FACE ( 'NONE', ( #212 ), #119, .T. ) ;
#211 = FACE_OUTER_BOUND ( 'NONE', #103, .T. ) ;
#212 = FACE_OUTER_BOUND ( 'NONE', #12, .T. ) ;
#213 = DIRECTION ( 'NONE',  ( 1.000000000000000000, -0.000000000000000000, 0.000000000000000000 ) ) ;
#214 = AXIS2_PLACEMENT_3D ( 'NONE', #47, #82, #229 ) ;
#215 = CARTESIAN_POINT ( 'NONE',  ( 1.500000000000000222, 2.899999999999999911, 1.125000000000000888 ) ) ;
#216 = PRESENTATION_LAYER_ASSIGNMENT (  '', '', ( #92 ) ) ;
#217 = VECTOR ( 'NONE', #369, 1000.000000000000000 ) ;
#218 = VECTOR ( 'NONE', #298, 1000.000000000000000 ) ;
#219 = ORIENTED_EDGE ( 'NONE', *, *, #18, .T. ) ;
#220 = FILL_AREA_STYLE_COLOUR ( '', #153 ) ;
#221 = VERTEX_POINT ( 'NONE', #265 ) ;
#222 = DIRECTION ( 'NONE',  ( 1.000000000000000000, 0.000000000000000000, 0.000000000000000000 ) ) ;
#223 = CARTESIAN_POINT ( 'NONE',  ( -6.449999999999995737, -0.5000000000000000000, 3.749999999999998224 ) ) ;
#224 = ORIENTED_EDGE ( 'NONE', *, *, #183, .T. ) ;
#225 = CARTESIAN_POINT ( 'NONE',  ( 6.450000000000002842, -0.5000000000000000000, -3.750000000000001776 ) ) ;
#226 = VERTEX_POINT ( 'NONE', #27 ) ;
#227 = DIRECTION ( 'NONE',  ( -0.000000000000000000, -1.000000000000000000, -0.000000000000000000 ) ) ;
#228 = EDGE_LOOP ( 'NONE', ( #373, #254 ) ) ;
#229 = DIRECTION ( 'NONE',  ( 0.000000000000000000, 0.000000000000000000, -1.000000000000000000 ) ) ;
#230 = EDGE_LOOP ( 'NONE', ( #292, #137, #164, #51 ) ) ;
#231 = DIRECTION ( 'NONE',  ( 0.000000000000000000, -1.000000000000000000, 0.000000000000000000 ) ) ;
#232 = CARTESIAN_POINT ( 'NONE',  ( 1.500000000000000000, 2.899999999999999911, -1.125000000000000888 ) ) ;
#233 = ADVANCED_FACE ( 'NONE', ( #173 ), #149, .F. ) ;
#234 = CARTESIAN_POINT ( 'NONE',  ( 1.500000000000000222, 2.899999999999999911, 1.125000000000000888 ) ) ;
#235 = CARTESIAN_POINT ( 'NONE',  ( -1.500000000000000000, 0.5000000000000000000, 0.000000000000000000 ) ) ;
#236 = DIRECTION ( 'NONE',  ( 0.000000000000000000, 0.000000000000000000, 1.000000000000000000 ) ) ;
#237 = CIRCLE ( 'NONE', #267, 1.125000000000000888 ) ;
#238 = CARTESIAN_POINT ( 'NONE',  ( -6.449999999999995737, 0.5000000000000000000, -3.750000000000001776 ) ) ;
#239 = EDGE_CURVE ( 'NONE', #174, #23, #306, .T. ) ;
#240 = CARTESIAN_POINT ( 'NONE',  ( -6.449999999999995737, 0.5000000000000000000, 3.749999999999998224 ) ) ;
#241 = SURFACE_SIDE_STYLE ('',( #367 ) ) ;
#242 = VECTOR ( 'NONE', #227, 1000.000000000000000 ) ;
#243 = EDGE_CURVE ( 'NONE', #23, #174, #385, .T. ) ;
#244 =( NAMED_UNIT ( * ) SI_UNIT ( $, .STERADIAN. ) SOLID_ANGLE_UNIT ( ) );
#245 = CARTESIAN_POINT ( 'NONE',  ( -1.500000000000000000, 0.5000000000000000000, 0.000000000000000000 ) ) ;
#246 = DIRECTION ( 'NONE',  ( -0.000000000000000000, -0.000000000000000000, 1.000000000000000000 ) ) ;
#247 =( NAMED_UNIT ( * ) SI_UNIT ( $, .STERADIAN. ) SOLID_ANGLE_UNIT ( ) );
#248 = FACE_OUTER_BOUND ( 'NONE', #375, .T. ) ;
#249 = VERTEX_POINT ( 'NONE', #31 ) ;
#250 = CYLINDRICAL_SURFACE ( 'NONE', #33, 1.125000000000000000 ) ;
#251 = ORIENTED_EDGE ( 'NONE', *, *, #125, .F. ) ;
#252 = APPLICATION_PROTOCOL_DEFINITION ( 'draft international standard', 'automotive_design', 1998, #263 ) ;
#253 = CARTESIAN_POINT ( 'NONE',  ( -6.449999999999995737, -0.5000000000000000000, 3.749999999999998224 ) ) ;
#254 = ORIENTED_EDGE ( 'NONE', *, *, #202, .T. ) ;
#255 = FACE_OUTER_BOUND ( 'NONE', #81, .T. ) ;
#256 = ORIENTED_EDGE ( 'NONE', *, *, #11, .T. ) ;
#257 = DIRECTION ( 'NONE',  ( 0.000000000000000000, 1.000000000000000000, 0.000000000000000000 ) ) ;
#258 = CARTESIAN_POINT ( 'NONE',  ( -6.449999999999995737, 0.5000000000000000000, -3.750000000000001776 ) ) ;
#259 = EDGE_CURVE ( 'NONE', #308, #172, #388, .T. ) ;
#260 = DIRECTION ( 'NONE',  ( 0.000000000000000000, 0.000000000000000000, -1.000000000000000000 ) ) ;
#261 = DIRECTION ( 'NONE',  ( -1.000000000000000000, -0.000000000000000000, -0.000000000000000000 ) ) ;
#262 = CIRCLE ( 'NONE', #97, 1.125000000000000888 ) ;
#263 = APPLICATION_CONTEXT ( 'automotive_design' ) ;
#264 = DIRECTION ( 'NONE',  ( 0.000000000000000000, 1.000000000000000000, 0.000000000000000000 ) ) ;
#265 = CARTESIAN_POINT ( 'NONE',  ( 1.500000000000000000, 0.5000000000000000000, -1.125000000000000888 ) ) ;
#266 = CARTESIAN_POINT ( 'NONE',  ( -1.500000000000000000, 2.899999999999999911, 0.000000000000000000 ) ) ;
#267 = AXIS2_PLACEMENT_3D ( 'NONE', #310, #39, #140 ) ;
#268 = STYLED_ITEM ( 'NONE', ( #98 ), #389 ) ;
#269 = CARTESIAN_POINT ( 'NONE',  ( -1.500000000000000000, 2.899999999999999911, 0.000000000000000000 ) ) ;
#270 = ADVANCED_FACE ( 'NONE', ( #203 ), #293, .F. ) ;
#271 = LINE ( 'NONE', #338, #365 ) ;
#272 = AXIS2_PLACEMENT_3D ( 'NONE', #225, #354, #195 ) ;
#273 = DIRECTION ( 'NONE',  ( 0.000000000000000000, 0.000000000000000000, -1.000000000000000000 ) ) ;
#274 = PLANE ( 'NONE',  #351 ) ;
#275 = ORIENTED_EDGE ( 'NONE', *, *, #368, .T. ) ;
#276 = CARTESIAN_POINT ( 'NONE',  ( -1.499999999999999778, 2.899999999999999911, 1.125000000000000000 ) ) ;
#277 = ORIENTED_EDGE ( 'NONE', *, *, #325, .T. ) ;
#278 = VECTOR ( 'NONE', #261, 1000.000000000000000 ) ;
#279 = PRESENTATION_STYLE_ASSIGNMENT (( #166 ) ) ;
#280 = AXIS2_PLACEMENT_3D ( 'NONE', #269, #93, #337 ) ;
#281 = ORIENTED_EDGE ( 'NONE', *, *, #239, .F. ) ;
#282 =( NAMED_UNIT ( * ) PLANE_ANGLE_UNIT ( ) SI_UNIT ( $, .RADIAN. ) );
#283 = LINE ( 'NONE', #372, #217 ) ;
#284 = ORIENTED_EDGE ( 'NONE', *, *, #70, .T. ) ;
#285 = LINE ( 'NONE', #276, #242 ) ;
#286 = EDGE_LOOP ( 'NONE', ( #281, #320 ) ) ;
#287 = FACE_OUTER_BOUND ( 'NONE', #167, .T. ) ;
#288 = AXIS2_PLACEMENT_3D ( 'NONE', #43, #192, #107 ) ;
#289 = EDGE_LOOP ( 'NONE', ( #160, #9, #69, #199 ) ) ;
#290 = UNCERTAINTY_MEASURE_WITH_UNIT (LENGTH_MEASURE( 1.000000000000000082E-05 ), #307, 'distance_accuracy_value', 'NONE');
#291 = DIRECTION ( 'NONE',  ( 0.000000000000000000, 0.000000000000000000, 1.000000000000000000 ) ) ;
#292 = ORIENTED_EDGE ( 'NONE', *, *, #36, .T. ) ;
#293 = PLANE ( 'NONE',  #148 ) ;
#294 = VERTEX_POINT ( 'NONE', #151 ) ;
#295 = CARTESIAN_POINT ( 'NONE',  ( 1.500000000000000000, 2.899999999999999911, 0.000000000000000000 ) ) ;
#296 = DIRECTION ( 'NONE',  ( 0.000000000000000000, 1.000000000000000000, 0.000000000000000000 ) ) ;
#297 = DIRECTION ( 'NONE',  ( 0.000000000000000000, 0.000000000000000000, 1.000000000000000000 ) ) ;
#298 = DIRECTION ( 'NONE',  ( -0.000000000000000000, -1.000000000000000000, -0.000000000000000000 ) ) ;
#299 = VECTOR ( 'NONE', #110, 1000.000000000000000 ) ;
#300 = COLOUR_RGB ( '',0.7921568627450980005, 0.8196078431372548767, 0.9333333333333333481 ) ;
#301 = FILL_AREA_STYLE_COLOUR ( '', #300 ) ;
#302 = EDGE_CURVE ( 'NONE', #25, #174, #118, .T. ) ;
#303 = DIRECTION ( 'NONE',  ( -0.000000000000000000, -1.000000000000000000, -0.000000000000000000 ) ) ;
#304 = APPLICATION_CONTEXT ( 'automotive_design' ) ;
#305 = CARTESIAN_POINT ( 'NONE',  ( 1.500000000000000000, 2.899999999999999911, 0.000000000000000000 ) ) ;
#306 = CIRCLE ( 'NONE', #57, 1.125000000000000000 ) ;
#307 =( LENGTH_UNIT ( ) NAMED_UNIT ( * ) SI_UNIT ( .MILLI., .METRE. ) );
#308 = VERTEX_POINT ( 'NONE', #154 ) ;
#309 = EDGE_CURVE ( 'NONE', #294, #308, #271, .T. ) ;
#310 = CARTESIAN_POINT ( 'NONE',  ( 1.500000000000000000, 0.5000000000000000000, 0.000000000000000000 ) ) ;
#311 = ORIENTED_EDGE ( 'NONE', *, *, #309, .T. ) ;
#312 = DIRECTION ( 'NONE',  ( 0.000000000000000000, 0.000000000000000000, 1.000000000000000000 ) ) ;
#313 = PLANE ( 'NONE',  #272 ) ;
#314 = ORIENTED_EDGE ( 'NONE', *, *, #325, .F. ) ;
#315 = AXIS2_PLACEMENT_3D ( 'NONE', #52, #296, #297 ) ;
#316 = DIRECTION ( 'NONE',  ( -0.000000000000000000, -0.000000000000000000, 1.000000000000000000 ) ) ;
#317 =( GEOMETRIC_REPRESENTATION_CONTEXT ( 3 ) GLOBAL_UNCERTAINTY_ASSIGNED_CONTEXT ( ( #19 ) ) GLOBAL_UNIT_ASSIGNED_CONTEXT ( ( #344, #13, #46 ) ) REPRESENTATION_CONTEXT ( 'NONE', 'WORKASPACE' ) );
#318 = ADVANCED_FACE ( 'NONE', ( #34 ), #35, .T. ) ;
#319 = ORIENTED_EDGE ( 'NONE', *, *, #11, .F. ) ;
#320 = ORIENTED_EDGE ( 'NONE', *, *, #243, .F. ) ;
#321 = ORIENTED_EDGE ( 'NONE', *, *, #116, .F. ) ;
#322 = DIRECTION ( 'NONE',  ( -1.000000000000000000, 0.000000000000000000, -0.000000000000000000 ) ) ;
#323 = AXIS2_PLACEMENT_3D ( 'NONE', #266, #257, #88 ) ;
#324 = EDGE_LOOP ( 'NONE', ( #284, #145, #341, #275 ) ) ;
#325 = EDGE_CURVE ( 'NONE', #193, #226, #94, .T. ) ;
#326 = CARTESIAN_POINT ( 'NONE',  ( 1.500000000000000000, 0.5000000000000000000, 0.000000000000000000 ) ) ;
#327 = LINE ( 'NONE', #258, #278 ) ;
#328 = CARTESIAN_POINT ( 'NONE',  ( -6.449999999999995737, -0.5000000000000000000, 3.749999999999998224 ) ) ;
#329 = DIRECTION ( 'NONE',  ( 0.000000000000000000, 1.000000000000000000, 0.000000000000000000 ) ) ;
#330 = EDGE_CURVE ( 'NONE', #205, #190, #65, .T. ) ;
#331 = CARTESIAN_POINT ( 'NONE',  ( -6.449999999999995737, 0.5000000000000000000, 3.749999999999998224 ) ) ;
#332 = FILL_AREA_STYLE_COLOUR ( '', #4 ) ;
#333 = EDGE_CURVE ( 'NONE', #25, #142, #189, .T. ) ;
#334 = FACE_OUTER_BOUND ( 'NONE', #286, .T. ) ;
#335 = CIRCLE ( 'NONE', #323, 1.125000000000000000 ) ;
#336 =( GEOMETRIC_REPRESENTATION_CONTEXT ( 3 ) GLOBAL_UNCERTAINTY_ASSIGNED_CONTEXT ( ( #290 ) ) GLOBAL_UNIT_ASSIGNED_CONTEXT ( ( #307, #282, #247 ) ) REPRESENTATION_CONTEXT ( 'NONE', 'WORKASPACE' ) );
#337 = DIRECTION ( 'NONE',  ( 0.000000000000000000, 0.000000000000000000, 1.000000000000000000 ) ) ;
#338 = CARTESIAN_POINT ( 'NONE',  ( -6.449999999999995737, 0.5000000000000000000, 3.749999999999998224 ) ) ;
#339 = VECTOR ( 'NONE', #157, 1000.000000000000000 ) ;
#340 = AXIS2_PLACEMENT_3D ( 'NONE', #191, #312, #222 ) ;
#341 = ORIENTED_EDGE ( 'NONE', *, *, #259, .F. ) ;
#342 = FILL_AREA_STYLE ('',( #220 ) ) ;
#343 = ORIENTED_EDGE ( 'NONE', *, *, #302, .F. ) ;
#344 =( LENGTH_UNIT ( ) NAMED_UNIT ( * ) SI_UNIT ( .MILLI., .METRE. ) );
#345 = ADVANCED_FACE ( 'NONE', ( #130 ), #274, .F. ) ;
#346 = CARTESIAN_POINT ( 'NONE',  ( 6.450000000000002842, 0.5000000000000000000, 3.749999999999998224 ) ) ;
#347 = EDGE_LOOP ( 'NONE', ( #134, #256, #311, #208 ) ) ;
#348 = APPLICATION_PROTOCOL_DEFINITION ( 'draft international standard', 'automotive_design', 1998, #304 ) ;
#349 = AXIS2_PLACEMENT_3D ( 'NONE', #201, #381, #113 ) ;
#350 =( LENGTH_UNIT ( ) NAMED_UNIT ( * ) SI_UNIT ( .MILLI., .METRE. ) );
#351 = AXIS2_PLACEMENT_3D ( 'NONE', #240, #213, #8 ) ;
#352 = ORIENTED_EDGE ( 'NONE', *, *, #186, .T. ) ;
#353 = CARTESIAN_POINT ( 'NONE',  ( -1.500000000000000000, 2.899999999999999911, -1.125000000000000000 ) ) ;
#354 = DIRECTION ( 'NONE',  ( 0.000000000000000000, -1.000000000000000000, 0.000000000000000000 ) ) ;
#355 = CARTESIAN_POINT ( 'NONE',  ( -1.499999999999999778, 0.5000000000000000000, 1.125000000000000000 ) ) ;
#356 = CARTESIAN_POINT ( 'NONE',  ( 6.450000000000002842, 0.5000000000000000000, 3.749999999999998224 ) ) ;
#357 = DIRECTION ( 'NONE',  ( -0.000000000000000000, -1.000000000000000000, -0.000000000000000000 ) ) ;
#358 = LINE ( 'NONE', #171, #376 ) ;
#359 = DIRECTION ( 'NONE',  ( 0.000000000000000000, 1.000000000000000000, 0.000000000000000000 ) ) ;
#360 = DIRECTION ( 'NONE',  ( -0.000000000000000000, -1.000000000000000000, -0.000000000000000000 ) ) ;
#361 = AXIS2_PLACEMENT_3D ( 'NONE', #295, #179, #91 ) ;
#362 = CARTESIAN_POINT ( 'NONE',  ( -6.449999999999995737, -0.5000000000000000000, -3.750000000000001776 ) ) ;
#363 = SURFACE_STYLE_USAGE ( .BOTH. , #124 ) ;
#364 = SURFACE_STYLE_USAGE ( .BOTH. , #241 ) ;
#365 = VECTOR ( 'NONE', #246, 1000.000000000000000 ) ;
#366 = PRESENTATION_STYLE_ASSIGNMENT (( #363 ) ) ;
#367 = SURFACE_STYLE_FILL_AREA ( #1 ) ;
#368 = EDGE_CURVE ( 'NONE', #308, #139, #126, .T. ) ;
#369 = DIRECTION ( 'NONE',  ( 0.000000000000000000, 0.000000000000000000, -1.000000000000000000 ) ) ;
#370 = ORIENTED_EDGE ( 'NONE', *, *, #18, .F. ) ;
#371 = UNCERTAINTY_MEASURE_WITH_UNIT (LENGTH_MEASURE( 1.000000000000000082E-05 ), #155, 'distance_accuracy_value', 'NONE');
#372 = CARTESIAN_POINT ( 'NONE',  ( 6.450000000000002842, -0.5000000000000000000, 3.749999999999998224 ) ) ;
#373 = ORIENTED_EDGE ( 'NONE', *, *, #5, .T. ) ;
#374 = MANIFOLD_SOLID_BREP ( 'Aufsatz-Linear austragen1[2]', #109 ) ;
#375 = EDGE_LOOP ( 'NONE', ( #197, #79, #321, #40 ) ) ;
#376 = VECTOR ( 'NONE', #360, 1000.000000000000000 ) ;
#377 = VECTOR ( 'NONE', #30, 1000.000000000000000 ) ;
#378 = CARTESIAN_POINT ( 'NONE',  ( 6.450000000000002842, 0.5000000000000000000, 3.749999999999998224 ) ) ;
#379 = DIRECTION ( 'NONE',  ( 0.000000000000000000, 1.000000000000000000, 0.000000000000000000 ) ) ;
#380 = ADVANCED_FACE ( 'NONE', ( #334 ), #187, .F. ) ;
#381 = DIRECTION ( 'NONE',  ( 0.000000000000000000, 1.000000000000000000, 0.000000000000000000 ) ) ;
#382 = CARTESIAN_POINT ( 'NONE',  ( -1.500000000000000000, 2.899999999999999911, 0.000000000000000000 ) ) ;
#383 = ORIENTED_EDGE ( 'NONE', *, *, #78, .F. ) ;
#384 = DIRECTION ( 'NONE',  ( 0.000000000000000000, 1.000000000000000000, 0.000000000000000000 ) ) ;
#385 = CIRCLE ( 'NONE', #315, 1.125000000000000000 ) ;
#386 = ADVANCED_FACE ( 'NONE', ( #63 ), #182, .T. ) ;
#387 = CARTESIAN_POINT ( 'NONE',  ( 6.450000000000002842, -0.5000000000000000000, -3.750000000000001776 ) ) ;
#388 = LINE ( 'NONE', #331, #377 ) ;
#389 = MANIFOLD_SOLID_BREP ( 'Linear austragen1', #84 ) ;
#390 = CARTESIAN_POINT ( 'NONE',  ( -6.449999999999995737, 0.5000000000000000000, 3.749999999999998224 ) ) ;
#391 = PRODUCT_DEFINITION_SHAPE ( 'NONE', 'NONE',  #393 ) ;
#392 = STYLED_ITEM ( 'NONE', ( #279 ), #129 ) ;
#393 = PRODUCT_DEFINITION ( 'UNKNOWN', '', #165, #7 ) ;
ENDSEC;
END-ISO-10303-21;
