ISO-10303-21;
HEADER;
FILE_DESCRIPTION (( 'STEP AP214' ),
    '1' );
FILE_NAME ('INGUN_33521.STEP',
    '2024-11-25T08:19:30',
    ( '' ),
    ( '' ),
    'SwSTEP 2.0',
    'SolidWorks 2023',
    '' );
FILE_SCHEMA (( 'AUTOMOTIVE_DESIGN' ));
ENDSEC;

DATA;
#1 = SURFACE_SIDE_STYLE ('',( #174 ) ) ;
#2 =( NAMED_UNIT ( * ) PLANE_ANGLE_UNIT ( ) SI_UNIT ( $, .RADIAN. ) );
#3 = PRESENTATION_LAYER_ASSIGNMENT (  '', '', ( #113 ) ) ;
#4 = EDGE_CURVE ( 'NONE', #178, #90, #121, .T. ) ;
#5 = DIRECTION ( 'NONE',  ( 0.000000000000000000, 1.000000000000000000, 0.000000000000000000 ) ) ;
#6 = LINE ( 'NONE', #141, #274 ) ;
#7 = ORIENTED_EDGE ( 'NONE', *, *, #253, .F. ) ;
#8 = APPLICATION_PROTOCOL_DEFINITION ( 'draft international standard', 'automotive_design', 1998, #27 ) ;
#9 = EDGE_CURVE ( 'NONE', #93, #127, #252, .T. ) ;
#10 = ORIENTED_EDGE ( 'NONE', *, *, #154, .T. ) ;
#11 = AXIS2_PLACEMENT_3D ( 'NONE', #60, #145, #392 ) ;
#12 = DIRECTION ( 'NONE',  ( 1.000000000000000000, 0.000000000000000000, 0.000000000000000000 ) ) ;
#13 = UNCERTAINTY_MEASURE_WITH_UNIT (LENGTH_MEASURE( 1.000000000000000082E-05 ), #337, 'distance_accuracy_value', 'NONE');
#14 = LINE ( 'NONE', #98, #310 ) ;
#15 = ORIENTED_EDGE ( 'NONE', *, *, #272, .T. ) ;
#16 = MECHANICAL_DESIGN_GEOMETRIC_PRESENTATION_REPRESENTATION (  '', ( #356 ), #349 ) ;
#17 = DIRECTION ( 'NONE',  ( -0.000000000000000000, -0.000000000000000000, 1.000000000000000000 ) ) ;
#18 = LINE ( 'NONE', #36, #68 ) ;
#19 = DIRECTION ( 'NONE',  ( -0.000000000000000000, -1.000000000000000000, -0.000000000000000000 ) ) ;
#20 = ORIENTED_EDGE ( 'NONE', *, *, #313, .F. ) ;
#21 = FACE_OUTER_BOUND ( 'NONE', #159, .T. ) ;
#22 = CARTESIAN_POINT ( 'NONE',  ( 7.050000000000000711, 0.5000000000000000000, -3.000000000000000888 ) ) ;
#23 = ADVANCED_FACE ( 'NONE', ( #317 ), #46, .F. ) ;
#24 = CARTESIAN_POINT ( 'NONE',  ( 7.050000000000000711, -0.5000000000000000000, 2.999999999999997335 ) ) ;
#25 = AXIS2_PLACEMENT_3D ( 'NONE', #22, #135, #284 ) ;
#26 = DIRECTION ( 'NONE',  ( -0.000000000000000000, -1.000000000000000000, -0.000000000000000000 ) ) ;
#27 = APPLICATION_CONTEXT ( 'automotive_design' ) ;
#28 = DIRECTION ( 'NONE',  ( 0.000000000000000000, 0.000000000000000000, -1.000000000000000000 ) ) ;
#29 = LINE ( 'NONE', #84, #301 ) ;
#30 = AXIS2_PLACEMENT_3D ( 'NONE', #353, #290, #137 ) ;
#31 = FACE_OUTER_BOUND ( 'NONE', #345, .T. ) ;
#32 = EDGE_CURVE ( 'NONE', #157, #177, #18, .T. ) ;
#33 = CIRCLE ( 'NONE', #203, 1.125000000000000888 ) ;
#34 = ORIENTED_EDGE ( 'NONE', *, *, #9, .T. ) ;
#35 = ORIENTED_EDGE ( 'NONE', *, *, #32, .F. ) ;
#36 = CARTESIAN_POINT ( 'NONE',  ( -7.049999999999997158, 0.5000000000000000000, 2.999999999999997335 ) ) ;
#37 = ADVANCED_FACE ( 'NONE', ( #283 ), #185, .T. ) ;
#38 = ORIENTED_EDGE ( 'NONE', *, *, #354, .F. ) ;
#39 = PRESENTATION_LAYER_ASSIGNMENT (  '', '', ( #331 ) ) ;
#40 = DIRECTION ( 'NONE',  ( -1.000000000000000000, -0.000000000000000000, -0.000000000000000000 ) ) ;
#41 = CARTESIAN_POINT ( 'NONE',  ( 7.050000000000000711, -0.5000000000000000000, -3.000000000000000888 ) ) ;
#42 = PLANE ( 'NONE',  #262 ) ;
#43 = EDGE_LOOP ( 'NONE', ( #97, #217 ) ) ;
#44 = EDGE_CURVE ( 'NONE', #127, #250, #375, .T. ) ;
#45 = CARTESIAN_POINT ( 'NONE',  ( -7.049999999999997158, 0.5000000000000000000, 2.999999999999997335 ) ) ;
#46 = PLANE ( 'NONE',  #25 ) ;
#47 = AXIS2_PLACEMENT_3D ( 'NONE', #254, #350, #131 ) ;
#48 = DIRECTION ( 'NONE',  ( 0.000000000000000000, 0.000000000000000000, -1.000000000000000000 ) ) ;
#49 = ORIENTED_EDGE ( 'NONE', *, *, #379, .F. ) ;
#50 = FACE_OUTER_BOUND ( 'NONE', #369, .T. ) ;
#51 = DIRECTION ( 'NONE',  ( -0.000000000000000000, -1.000000000000000000, -0.000000000000000000 ) ) ;
#52 = DIRECTION ( 'NONE',  ( -0.000000000000000000, -1.000000000000000000, -0.000000000000000000 ) ) ;
#53 = AXIS2_PLACEMENT_3D ( 'NONE', #80, #259, #381 ) ;
#54 = LINE ( 'NONE', #386, #96 ) ;
#55 = PLANE ( 'NONE',  #47 ) ;
#56 = EDGE_CURVE ( 'NONE', #347, #372, #161, .T. ) ;
#57 =( LENGTH_UNIT ( ) NAMED_UNIT ( * ) SI_UNIT ( .MILLI., .METRE. ) );
#58 = SURFACE_STYLE_USAGE ( .BOTH. , #110 ) ;
#59 = AXIS2_PLACEMENT_3D ( 'NONE', #275, #339, #122 ) ;
#60 = CARTESIAN_POINT ( 'NONE',  ( -1.500000000000000000, 0.5000000000000000000, 0.000000000000000000 ) ) ;
#61 = FILL_AREA_STYLE ('',( #146 ) ) ;
#62 = VECTOR ( 'NONE', #52, 1000.000000000000000 ) ;
#63 = ORIENTED_EDGE ( 'NONE', *, *, #393, .F. ) ;
#64 = ORIENTED_EDGE ( 'NONE', *, *, #240, .T. ) ;
#65 = CARTESIAN_POINT ( 'NONE',  ( -7.049999999999997158, -0.5000000000000000000, -3.000000000000000888 ) ) ;
#66 = PRESENTATION_STYLE_ASSIGNMENT (( #342 ) ) ;
#67 = ORIENTED_EDGE ( 'NONE', *, *, #124, .T. ) ;
#68 = VECTOR ( 'NONE', #12, 1000.000000000000000 ) ;
#69 = CARTESIAN_POINT ( 'NONE',  ( -1.500000000000000000, 0.5000000000000000000, 0.000000000000000000 ) ) ;
#70 = ORIENTED_EDGE ( 'NONE', *, *, #379, .T. ) ;
#71 = LINE ( 'NONE', #73, #361 ) ;
#72 = DIRECTION ( 'NONE',  ( 0.000000000000000000, 1.000000000000000000, 0.000000000000000000 ) ) ;
#73 = CARTESIAN_POINT ( 'NONE',  ( -7.049999999999997158, 0.5000000000000000000, 2.999999999999997335 ) ) ;
#74 = VERTEX_POINT ( 'NONE', #92 ) ;
#75 = VECTOR ( 'NONE', #19, 1000.000000000000000 ) ;
#76 = UNCERTAINTY_MEASURE_WITH_UNIT (LENGTH_MEASURE( 1.000000000000000082E-05 ), #148, 'distance_accuracy_value', 'NONE');
#77 = DIRECTION ( 'NONE',  ( 0.000000000000000000, 1.000000000000000000, 0.000000000000000000 ) ) ;
#78 = ORIENTED_EDGE ( 'NONE', *, *, #348, .F. ) ;
#79 = CARTESIAN_POINT ( 'NONE',  ( 1.500000000000000000, 2.899999999999999911, -1.125000000000000888 ) ) ;
#80 = CARTESIAN_POINT ( 'NONE',  ( -1.500000000000000000, 2.899999999999999911, 0.000000000000000000 ) ) ;
#81 = CIRCLE ( 'NONE', #169, 1.125000000000000000 ) ;
#82 = CARTESIAN_POINT ( 'NONE',  ( -1.500000000000000000, 2.899999999999999911, 0.000000000000000000 ) ) ;
#83 = CARTESIAN_POINT ( 'NONE',  ( 7.050000000000000711, -0.5000000000000000000, -3.000000000000000888 ) ) ;
#84 = CARTESIAN_POINT ( 'NONE',  ( -7.049999999999997158, 0.5000000000000000000, -3.000000000000000888 ) ) ;
#85 = ADVANCED_FACE ( 'NONE', ( #314 ), #368, .F. ) ;
#86 = DIRECTION ( 'NONE',  ( 0.000000000000000000, -0.000000000000000000, -1.000000000000000000 ) ) ;
#87 = FILL_AREA_STYLE ('',( #269 ) ) ;
#88 = AXIS2_PLACEMENT_3D ( 'NONE', #198, #171, #170 ) ;
#89 = ORIENTED_EDGE ( 'NONE', *, *, #272, .F. ) ;
#90 = VERTEX_POINT ( 'NONE', #129 ) ;
#91 =( NAMED_UNIT ( * ) PLANE_ANGLE_UNIT ( ) SI_UNIT ( $, .RADIAN. ) );
#92 = CARTESIAN_POINT ( 'NONE',  ( 1.500000000000000000, 0.5000000000000000000, -1.125000000000000888 ) ) ;
#93 = VERTEX_POINT ( 'NONE', #249 ) ;
#94 = EDGE_CURVE ( 'NONE', #93, #157, #14, .T. ) ;
#95 = CARTESIAN_POINT ( 'NONE',  ( 1.500000000000000000, 0.5000000000000000000, 0.000000000000000000 ) ) ;
#96 = VECTOR ( 'NONE', #107, 1000.000000000000000 ) ;
#97 = ORIENTED_EDGE ( 'NONE', *, *, #4, .T. ) ;
#98 = CARTESIAN_POINT ( 'NONE',  ( -7.049999999999997158, 0.5000000000000000000, 2.999999999999997335 ) ) ;
#99 = ORIENTED_EDGE ( 'NONE', *, *, #321, .T. ) ;
#100 = DIRECTION ( 'NONE',  ( -1.000000000000000000, 0.000000000000000000, -0.000000000000000000 ) ) ;
#101 = ORIENTED_EDGE ( 'NONE', *, *, #32, .T. ) ;
#102 = FACE_OUTER_BOUND ( 'NONE', #147, .T. ) ;
#103 = ORIENTED_EDGE ( 'NONE', *, *, #304, .F. ) ;
#104 = VECTOR ( 'NONE', #329, 1000.000000000000000 ) ;
#105 = ADVANCED_FACE ( 'NONE', ( #346 ), #158, .F. ) ;
#106 = CARTESIAN_POINT ( 'NONE',  ( -1.499999999999999778, 0.5000000000000000000, 1.125000000000000000 ) ) ;
#107 = DIRECTION ( 'NONE',  ( -0.000000000000000000, -1.000000000000000000, -0.000000000000000000 ) ) ;
#108 = CARTESIAN_POINT ( 'NONE',  ( -7.049999999999997158, -0.5000000000000000000, 2.999999999999997335 ) ) ;
#109 = LINE ( 'NONE', #108, #266 ) ;
#110 = SURFACE_SIDE_STYLE ('',( #295 ) ) ;
#111 =( LENGTH_UNIT ( ) NAMED_UNIT ( * ) SI_UNIT ( .MILLI., .METRE. ) );
#112 = DIRECTION ( 'NONE',  ( 1.000000000000000000, -0.000000000000000000, 0.000000000000000000 ) ) ;
#113 = STYLED_ITEM ( 'NONE', ( #66 ), #115 ) ;
#114 = UNCERTAINTY_MEASURE_WITH_UNIT (LENGTH_MEASURE( 1.000000000000000082E-05 ), #111, 'distance_accuracy_value', 'NONE');
#115 = MANIFOLD_SOLID_BREP ( 'Linear austragen1', #238 ) ;
#116 = CYLINDRICAL_SURFACE ( 'NONE', #173, 1.125000000000000000 ) ;
#117 = CARTESIAN_POINT ( 'NONE',  ( 7.050000000000000711, 0.5000000000000000000, -3.000000000000000888 ) ) ;
#118 = ORIENTED_EDGE ( 'NONE', *, *, #304, .T. ) ;
#119 =( NAMED_UNIT ( * ) SI_UNIT ( $, .STERADIAN. ) SOLID_ANGLE_UNIT ( ) );
#120 = VERTEX_POINT ( 'NONE', #41 ) ;
#121 = CIRCLE ( 'NONE', #312, 1.125000000000000888 ) ;
#122 = DIRECTION ( 'NONE',  ( 0.000000000000000000, -0.000000000000000000, 1.000000000000000000 ) ) ;
#123 = EDGE_LOOP ( 'NONE', ( #15, #99, #366, #101 ) ) ;
#124 = EDGE_CURVE ( 'NONE', #167, #372, #81, .T. ) ;
#125 = DIRECTION ( 'NONE',  ( 0.000000000000000000, 0.000000000000000000, 1.000000000000000000 ) ) ;
#126 = DIRECTION ( 'NONE',  ( -0.000000000000000000, -0.000000000000000000, 1.000000000000000000 ) ) ;
#127 = VERTEX_POINT ( 'NONE', #65 ) ;
#128 = COLOUR_RGB ( '',0.7921568627450980005, 0.8196078431372548767, 0.9333333333333333481 ) ;
#129 = CARTESIAN_POINT ( 'NONE',  ( 1.500000000000000222, 2.899999999999999911, 1.125000000000000888 ) ) ;
#130 = ORIENTED_EDGE ( 'NONE', *, *, #94, .F. ) ;
#131 = DIRECTION ( 'NONE',  ( 0.000000000000000000, -0.000000000000000000, 1.000000000000000000 ) ) ;
#132 = EDGE_CURVE ( 'NONE', #157, #250, #71, .T. ) ;
#133 = CARTESIAN_POINT ( 'NONE',  ( 1.500000000000000000, 2.899999999999999911, 0.000000000000000000 ) ) ;
#134 = CARTESIAN_POINT ( 'NONE',  ( -1.500000000000000000, 2.899999999999999911, 0.000000000000000000 ) ) ;
#135 = DIRECTION ( 'NONE',  ( 0.000000000000000000, -1.000000000000000000, 0.000000000000000000 ) ) ;
#136 = VECTOR ( 'NONE', #335, 1000.000000000000000 ) ;
#137 = DIRECTION ( 'NONE',  ( 0.000000000000000000, 0.000000000000000000, -1.000000000000000000 ) ) ;
#138 = CYLINDRICAL_SURFACE ( 'NONE', #206, 1.125000000000000000 ) ;
#139 = FACE_OUTER_BOUND ( 'NONE', #182, .T. ) ;
#140 = MECHANICAL_DESIGN_GEOMETRIC_PRESENTATION_REPRESENTATION (  '', ( #113 ), #291 ) ;
#141 = CARTESIAN_POINT ( 'NONE',  ( 7.050000000000000711, 0.5000000000000000000, -3.000000000000000888 ) ) ;
#142 = PRESENTATION_STYLE_ASSIGNMENT (( #58 ) ) ;
#143 = DIRECTION ( 'NONE',  ( 0.000000000000000000, 0.000000000000000000, 1.000000000000000000 ) ) ;
#144 = VECTOR ( 'NONE', #48, 1000.000000000000000 ) ;
#145 = DIRECTION ( 'NONE',  ( 0.000000000000000000, 1.000000000000000000, 0.000000000000000000 ) ) ;
#146 = FILL_AREA_STYLE_COLOUR ( '', #220 ) ;
#147 = EDGE_LOOP ( 'NONE', ( #7, #336, #186, #70 ) ) ;
#148 =( LENGTH_UNIT ( ) NAMED_UNIT ( * ) SI_UNIT ( .MILLI., .METRE. ) );
#149 = EDGE_LOOP ( 'NONE', ( #315, #78 ) ) ;
#150 = CARTESIAN_POINT ( 'NONE',  ( 0.000000000000000000, 0.000000000000000000, 0.000000000000000000 ) ) ;
#151 = FACE_OUTER_BOUND ( 'NONE', #351, .T. ) ;
#152 = CIRCLE ( 'NONE', #53, 1.125000000000000000 ) ;
#153 =( GEOMETRIC_REPRESENTATION_CONTEXT ( 3 ) GLOBAL_UNCERTAINTY_ASSIGNED_CONTEXT ( ( #114 ) ) GLOBAL_UNIT_ASSIGNED_CONTEXT ( ( #111, #2, #280 ) ) REPRESENTATION_CONTEXT ( 'NONE', 'WORKASPACE' ) );
#154 = EDGE_CURVE ( 'NONE', #74, #303, #226, .T. ) ;
#155 = ORIENTED_EDGE ( 'NONE', *, *, #44, .F. ) ;
#156 = FILL_AREA_STYLE_COLOUR ( '', #391 ) ;
#157 = VERTEX_POINT ( 'NONE', #187 ) ;
#158 = PLANE ( 'NONE',  #282 ) ;
#159 = EDGE_LOOP ( 'NONE', ( #162, #309 ) ) ;
#160 = UNCERTAINTY_MEASURE_WITH_UNIT (LENGTH_MEASURE( 1.000000000000000082E-05 ), #57, 'distance_accuracy_value', 'NONE');
#161 = LINE ( 'NONE', #241, #136 ) ;
#162 = ORIENTED_EDGE ( 'NONE', *, *, #246, .T. ) ;
#163 = ADVANCED_FACE ( 'NONE', ( #151 ), #42, .F. ) ;
#164 = LINE ( 'NONE', #285, #75 ) ;
#165 = ORIENTED_EDGE ( 'NONE', *, *, #202, .T. ) ;
#166 = PLANE ( 'NONE',  #88 ) ;
#167 = VERTEX_POINT ( 'NONE', #106 ) ;
#168 = CARTESIAN_POINT ( 'NONE',  ( -7.049999999999997158, -0.5000000000000000000, 2.999999999999997335 ) ) ;
#169 = AXIS2_PLACEMENT_3D ( 'NONE', #69, #181, #370 ) ;
#170 = DIRECTION ( 'NONE',  ( 1.000000000000000000, 0.000000000000000000, -0.000000000000000000 ) ) ;
#171 = DIRECTION ( 'NONE',  ( 0.000000000000000000, 0.000000000000000000, 1.000000000000000000 ) ) ;
#172 = DIRECTION ( 'NONE',  ( 0.000000000000000000, 0.000000000000000000, -1.000000000000000000 ) ) ;
#173 = AXIS2_PLACEMENT_3D ( 'NONE', #332, #234, #333 ) ;
#174 = SURFACE_STYLE_FILL_AREA ( #87 ) ;
#175 = ADVANCED_FACE ( 'NONE', ( #102 ), #138, .T. ) ;
#176 = PRESENTATION_LAYER_ASSIGNMENT (  '', '', ( #356 ) ) ;
#177 = VERTEX_POINT ( 'NONE', #352 ) ;
#178 = VERTEX_POINT ( 'NONE', #79 ) ;
#179 = SHAPE_DEFINITION_REPRESENTATION ( #390, #308 ) ;
#180 = DIRECTION ( 'NONE',  ( 0.000000000000000000, 1.000000000000000000, 0.000000000000000000 ) ) ;
#181 = DIRECTION ( 'NONE',  ( 0.000000000000000000, 1.000000000000000000, 0.000000000000000000 ) ) ;
#182 = EDGE_LOOP ( 'NONE', ( #38, #289, #382, #380 ) ) ;
#183 = VECTOR ( 'NONE', #51, 1000.000000000000000 ) ;
#184 = PRODUCT_DEFINITION_CONTEXT ( 'detailed design', #27, 'design' ) ;
#185 = PLANE ( 'NONE',  #233 ) ;
#186 = ORIENTED_EDGE ( 'NONE', *, *, #56, .T. ) ;
#187 = CARTESIAN_POINT ( 'NONE',  ( -7.049999999999997158, 0.5000000000000000000, 2.999999999999997335 ) ) ;
#188 = DIRECTION ( 'NONE',  ( 0.000000000000000000, 0.000000000000000000, 1.000000000000000000 ) ) ;
#189 = CARTESIAN_POINT ( 'NONE',  ( -1.499999999999999778, 2.899999999999999911, 1.125000000000000000 ) ) ;
#190 = PRODUCT ( 'INGUN_33521', 'INGUN_33521', '', ( #271 ) ) ;
#191 = CIRCLE ( 'NONE', #215, 1.125000000000000000 ) ;
#192 = VERTEX_POINT ( 'NONE', #189 ) ;
#193 = PRODUCT_DEFINITION_FORMATION_WITH_SPECIFIED_SOURCE ( 'ANY', '', #190, .NOT_KNOWN. ) ;
#194 = CYLINDRICAL_SURFACE ( 'NONE', #30, 1.125000000000000888 ) ;
#195 = ORIENTED_EDGE ( 'NONE', *, *, #253, .T. ) ;
#196 = CARTESIAN_POINT ( 'NONE',  ( -1.499999999999999778, 2.899999999999999911, 1.125000000000000000 ) ) ;
#197 = PRODUCT_RELATED_PRODUCT_CATEGORY ( 'part', '', ( #190 ) ) ;
#198 = CARTESIAN_POINT ( 'NONE',  ( -7.049999999999997158, 0.5000000000000000000, -3.000000000000000888 ) ) ;
#199 = AXIS2_PLACEMENT_3D ( 'NONE', #302, #201, #232 ) ;
#200 = DIRECTION ( 'NONE',  ( 0.000000000000000000, -0.000000000000000000, 1.000000000000000000 ) ) ;
#201 = DIRECTION ( 'NONE',  ( 0.000000000000000000, 1.000000000000000000, 0.000000000000000000 ) ) ;
#202 = EDGE_CURVE ( 'NONE', #177, #270, #251, .T. ) ;
#203 = AXIS2_PLACEMENT_3D ( 'NONE', #268, #5, #143 ) ;
#204 = FACE_OUTER_BOUND ( 'NONE', #256, .T. ) ;
#205 =( NAMED_UNIT ( * ) SI_UNIT ( $, .STERADIAN. ) SOLID_ANGLE_UNIT ( ) );
#206 = AXIS2_PLACEMENT_3D ( 'NONE', #82, #219, #324 ) ;
#207 = AXIS2_PLACEMENT_3D ( 'NONE', #150, #125, #237 ) ;
#208 = EDGE_LOOP ( 'NONE', ( #118, #306, #35, #334 ) ) ;
#209 = DIRECTION ( 'NONE',  ( -0.000000000000000000, -1.000000000000000000, -0.000000000000000000 ) ) ;
#210 = ORIENTED_EDGE ( 'NONE', *, *, #44, .T. ) ;
#211 =( NAMED_UNIT ( * ) PLANE_ANGLE_UNIT ( ) SI_UNIT ( $, .RADIAN. ) );
#212 = ORIENTED_EDGE ( 'NONE', *, *, #265, .F. ) ;
#213 = CARTESIAN_POINT ( 'NONE',  ( -7.049999999999997158, -0.5000000000000000000, -3.000000000000000888 ) ) ;
#214 = DIRECTION ( 'NONE',  ( 0.000000000000000000, 1.000000000000000000, 0.000000000000000000 ) ) ;
#215 = AXIS2_PLACEMENT_3D ( 'NONE', #224, #77, #260 ) ;
#216 = ORIENTED_EDGE ( 'NONE', *, *, #279, .T. ) ;
#217 = ORIENTED_EDGE ( 'NONE', *, *, #354, .T. ) ;
#218 = ORIENTED_EDGE ( 'NONE', *, *, #279, .F. ) ;
#219 = DIRECTION ( 'NONE',  ( -0.000000000000000000, -1.000000000000000000, -0.000000000000000000 ) ) ;
#220 = COLOUR_RGB ( '',0.7921568627450980005, 0.8196078431372548767, 0.9333333333333333481 ) ;
#221 = EDGE_LOOP ( 'NONE', ( #49, #377 ) ) ;
#222 = ADVANCED_FACE ( 'NONE', ( #21 ), #223, .T. ) ;
#223 = PLANE ( 'NONE',  #364 ) ;
#224 = CARTESIAN_POINT ( 'NONE',  ( -1.500000000000000000, 2.899999999999999911, 0.000000000000000000 ) ) ;
#225 = CARTESIAN_POINT ( 'NONE',  ( 1.500000000000000000, 2.899999999999999911, 0.000000000000000000 ) ) ;
#226 = CIRCLE ( 'NONE', #326, 1.125000000000000888 ) ;
#227 = VECTOR ( 'NONE', #40, 1000.000000000000000 ) ;
#228 = CARTESIAN_POINT ( 'NONE',  ( 7.050000000000000711, 0.5000000000000000000, 2.999999999999997335 ) ) ;
#229 = ADVANCED_FACE ( 'NONE', ( #293 ), #55, .F. ) ;
#230 = DIRECTION ( 'NONE',  ( -1.000000000000000000, -0.000000000000000000, -0.000000000000000000 ) ) ;
#231 = CARTESIAN_POINT ( 'NONE',  ( -1.500000000000000000, 2.899999999999999911, -1.125000000000000000 ) ) ;
#232 = DIRECTION ( 'NONE',  ( 0.000000000000000000, 0.000000000000000000, 1.000000000000000000 ) ) ;
#233 = AXIS2_PLACEMENT_3D ( 'NONE', #311, #180, #365 ) ;
#234 = DIRECTION ( 'NONE',  ( -0.000000000000000000, -1.000000000000000000, -0.000000000000000000 ) ) ;
#235 = FACE_OUTER_BOUND ( 'NONE', #276, .T. ) ;
#236 = AXIS2_PLACEMENT_3D ( 'NONE', #225, #26, #28 ) ;
#237 = DIRECTION ( 'NONE',  ( 1.000000000000000000, 0.000000000000000000, 0.000000000000000000 ) ) ;
#238 = CLOSED_SHELL ( 'NONE', ( #163, #288, #328, #105, #23, #330 ) ) ;
#239 = ORIENTED_EDGE ( 'NONE', *, *, #132, .F. ) ;
#240 = EDGE_CURVE ( 'NONE', #178, #74, #54, .T. ) ;
#241 = CARTESIAN_POINT ( 'NONE',  ( -1.500000000000000000, 2.899999999999999911, -1.125000000000000000 ) ) ;
#242 = ORIENTED_EDGE ( 'NONE', *, *, #4, .F. ) ;
#243 = CARTESIAN_POINT ( 'NONE',  ( -7.049999999999997158, -0.5000000000000000000, 2.999999999999997335 ) ) ;
#244 = ORIENTED_EDGE ( 'NONE', *, *, #338, .T. ) ;
#245 = VECTOR ( 'NONE', #294, 1000.000000000000000 ) ;
#246 = EDGE_CURVE ( 'NONE', #347, #192, #191, .T. ) ;
#247 = DIRECTION ( 'NONE',  ( -1.000000000000000000, 0.000000000000000000, 0.000000000000000000 ) ) ;
#248 = ORIENTED_EDGE ( 'NONE', *, *, #393, .T. ) ;
#249 = CARTESIAN_POINT ( 'NONE',  ( -7.049999999999997158, 0.5000000000000000000, -3.000000000000000888 ) ) ;
#250 = VERTEX_POINT ( 'NONE', #168 ) ;
#251 = LINE ( 'NONE', #228, #62 ) ;
#252 = LINE ( 'NONE', #323, #183 ) ;
#253 = EDGE_CURVE ( 'NONE', #192, #167, #384, .T. ) ;
#254 = CARTESIAN_POINT ( 'NONE',  ( -1.500000000000000000, 0.5000000000000000000, 0.000000000000000000 ) ) ;
#255 = MECHANICAL_DESIGN_GEOMETRIC_PRESENTATION_REPRESENTATION (  '', ( #331 ), #153 ) ;
#256 = EDGE_LOOP ( 'NONE', ( #212, #195, #67, #286 ) ) ;
#257 = CLOSED_SHELL ( 'NONE', ( #261, #298, #37, #85 ) ) ;
#258 = LINE ( 'NONE', #357, #245 ) ;
#259 = DIRECTION ( 'NONE',  ( 0.000000000000000000, 1.000000000000000000, 0.000000000000000000 ) ) ;
#260 = DIRECTION ( 'NONE',  ( 0.000000000000000000, 0.000000000000000000, 1.000000000000000000 ) ) ;
#261 = ADVANCED_FACE ( 'NONE', ( #139 ), #194, .T. ) ;
#262 = AXIS2_PLACEMENT_3D ( 'NONE', #281, #247, #316 ) ;
#263 =( NAMED_UNIT ( * ) PLANE_ANGLE_UNIT ( ) SI_UNIT ( $, .RADIAN. ) );
#264 = CARTESIAN_POINT ( 'NONE',  ( -7.049999999999997158, 0.5000000000000000000, 2.999999999999997335 ) ) ;
#265 = EDGE_CURVE ( 'NONE', #192, #347, #152, .T. ) ;
#266 = VECTOR ( 'NONE', #355, 1000.000000000000000 ) ;
#267 =( GEOMETRIC_REPRESENTATION_CONTEXT ( 3 ) GLOBAL_UNCERTAINTY_ASSIGNED_CONTEXT ( ( #13 ) ) GLOBAL_UNIT_ASSIGNED_CONTEXT ( ( #337, #91, #341 ) ) REPRESENTATION_CONTEXT ( 'NONE', 'WORKASPACE' ) );
#268 = CARTESIAN_POINT ( 'NONE',  ( 1.500000000000000000, 2.899999999999999911, 0.000000000000000000 ) ) ;
#269 = FILL_AREA_STYLE_COLOUR ( '', #128 ) ;
#270 = VERTEX_POINT ( 'NONE', #24 ) ;
#271 = PRODUCT_CONTEXT ( 'NONE', #376, 'mechanical' ) ;
#272 = EDGE_CURVE ( 'NONE', #177, #320, #258, .T. ) ;
#273 = ORIENTED_EDGE ( 'NONE', *, *, #321, .F. ) ;
#274 = VECTOR ( 'NONE', #363, 1000.000000000000000 ) ;
#275 = CARTESIAN_POINT ( 'NONE',  ( 1.500000000000000000, 0.5000000000000000000, 0.000000000000000000 ) ) ;
#276 = EDGE_LOOP ( 'NONE', ( #218, #103, #155, #63 ) ) ;
#277 = FILL_AREA_STYLE ('',( #156 ) ) ;
#278 = EDGE_LOOP ( 'NONE', ( #20, #242, #64, #10 ) ) ;
#279 = EDGE_CURVE ( 'NONE', #270, #120, #322, .T. ) ;
#280 =( NAMED_UNIT ( * ) SI_UNIT ( $, .STERADIAN. ) SOLID_ANGLE_UNIT ( ) );
#281 = CARTESIAN_POINT ( 'NONE',  ( 7.050000000000000711, 0.5000000000000000000, 2.999999999999997335 ) ) ;
#282 = AXIS2_PLACEMENT_3D ( 'NONE', #45, #378, #100 ) ;
#283 = FACE_OUTER_BOUND ( 'NONE', #43, .T. ) ;
#284 = DIRECTION ( 'NONE',  ( 0.000000000000000000, -0.000000000000000000, -1.000000000000000000 ) ) ;
#285 = CARTESIAN_POINT ( 'NONE',  ( 1.500000000000000222, 2.899999999999999911, 1.125000000000000888 ) ) ;
#286 = ORIENTED_EDGE ( 'NONE', *, *, #56, .F. ) ;
#287 = FACE_OUTER_BOUND ( 'NONE', #278, .T. ) ;
#288 = ADVANCED_FACE ( 'NONE', ( #50 ), #166, .F. ) ;
#289 = ORIENTED_EDGE ( 'NONE', *, *, #313, .T. ) ;
#290 = DIRECTION ( 'NONE',  ( -0.000000000000000000, -1.000000000000000000, -0.000000000000000000 ) ) ;
#291 =( GEOMETRIC_REPRESENTATION_CONTEXT ( 3 ) GLOBAL_UNCERTAINTY_ASSIGNED_CONTEXT ( ( #76 ) ) GLOBAL_UNIT_ASSIGNED_CONTEXT ( ( #148, #211, #119 ) ) REPRESENTATION_CONTEXT ( 'NONE', 'WORKASPACE' ) );
#292 = VECTOR ( 'NONE', #17, 1000.000000000000000 ) ;
#293 = FACE_OUTER_BOUND ( 'NONE', #221, .T. ) ;
#294 = DIRECTION ( 'NONE',  ( 0.000000000000000000, 0.000000000000000000, -1.000000000000000000 ) ) ;
#295 = SURFACE_STYLE_FILL_AREA ( #61 ) ;
#296 = CLOSED_SHELL ( 'NONE', ( #359, #175, #222, #229 ) ) ;
#297 = PLANE ( 'NONE',  #318 ) ;
#298 = ADVANCED_FACE ( 'NONE', ( #287 ), #325, .T. ) ;
#299 = CARTESIAN_POINT ( 'NONE',  ( -1.500000000000000000, 0.5000000000000000000, -1.125000000000000000 ) ) ;
#300 = PLANE ( 'NONE',  #373 ) ;
#301 = VECTOR ( 'NONE', #230, 1000.000000000000000 ) ;
#302 = CARTESIAN_POINT ( 'NONE',  ( 1.500000000000000000, 0.5000000000000000000, 0.000000000000000000 ) ) ;
#303 = VERTEX_POINT ( 'NONE', #387 ) ;
#304 = EDGE_CURVE ( 'NONE', #250, #270, #109, .T. ) ;
#305 = SURFACE_SIDE_STYLE ('',( #344 ) ) ;
#306 = ORIENTED_EDGE ( 'NONE', *, *, #202, .F. ) ;
#307 = DIRECTION ( 'NONE',  ( 0.000000000000000000, 0.000000000000000000, 1.000000000000000000 ) ) ;
#308 = ADVANCED_BREP_SHAPE_REPRESENTATION ( 'INGUN_33521', ( #115, #371, #388, #207 ), #267 ) ;
#309 = ORIENTED_EDGE ( 'NONE', *, *, #265, .T. ) ;
#310 = VECTOR ( 'NONE', #126, 1000.000000000000000 ) ;
#311 = CARTESIAN_POINT ( 'NONE',  ( 1.500000000000000000, 2.899999999999999911, 0.000000000000000000 ) ) ;
#312 = AXIS2_PLACEMENT_3D ( 'NONE', #133, #72, #188 ) ;
#313 = EDGE_CURVE ( 'NONE', #90, #303, #164, .T. ) ;
#314 = FACE_OUTER_BOUND ( 'NONE', #149, .T. ) ;
#315 = ORIENTED_EDGE ( 'NONE', *, *, #154, .F. ) ;
#316 = DIRECTION ( 'NONE',  ( 0.000000000000000000, 0.000000000000000000, 1.000000000000000000 ) ) ;
#317 = FACE_OUTER_BOUND ( 'NONE', #123, .T. ) ;
#318 = AXIS2_PLACEMENT_3D ( 'NONE', #264, #112, #172 ) ;
#319 = CARTESIAN_POINT ( 'NONE',  ( 7.050000000000000711, -0.5000000000000000000, 2.999999999999997335 ) ) ;
#320 = VERTEX_POINT ( 'NONE', #117 ) ;
#321 = EDGE_CURVE ( 'NONE', #320, #93, #29, .T. ) ;
#322 = LINE ( 'NONE', #319, #144 ) ;
#323 = CARTESIAN_POINT ( 'NONE',  ( -7.049999999999997158, 0.5000000000000000000, -3.000000000000000888 ) ) ;
#324 = DIRECTION ( 'NONE',  ( 0.000000000000000000, 0.000000000000000000, -1.000000000000000000 ) ) ;
#325 = CYLINDRICAL_SURFACE ( 'NONE', #236, 1.125000000000000888 ) ;
#326 = AXIS2_PLACEMENT_3D ( 'NONE', #95, #214, #307 ) ;
#327 = CIRCLE ( 'NONE', #199, 1.125000000000000888 ) ;
#328 = ADVANCED_FACE ( 'NONE', ( #31 ), #297, .F. ) ;
#329 = DIRECTION ( 'NONE',  ( -0.000000000000000000, -1.000000000000000000, -0.000000000000000000 ) ) ;
#330 = ADVANCED_FACE ( 'NONE', ( #235 ), #300, .T. ) ;
#331 = STYLED_ITEM ( 'NONE', ( #142 ), #388 ) ;
#332 = CARTESIAN_POINT ( 'NONE',  ( -1.500000000000000000, 2.899999999999999911, 0.000000000000000000 ) ) ;
#333 = DIRECTION ( 'NONE',  ( 0.000000000000000000, 0.000000000000000000, -1.000000000000000000 ) ) ;
#334 = ORIENTED_EDGE ( 'NONE', *, *, #132, .T. ) ;
#335 = DIRECTION ( 'NONE',  ( -0.000000000000000000, -1.000000000000000000, -0.000000000000000000 ) ) ;
#336 = ORIENTED_EDGE ( 'NONE', *, *, #246, .F. ) ;
#337 =( LENGTH_UNIT ( ) NAMED_UNIT ( * ) SI_UNIT ( .MILLI., .METRE. ) );
#338 = EDGE_CURVE ( 'NONE', #320, #120, #6, .T. ) ;
#339 = DIRECTION ( 'NONE',  ( 0.000000000000000000, 1.000000000000000000, 0.000000000000000000 ) ) ;
#340 = ORIENTED_EDGE ( 'NONE', *, *, #9, .F. ) ;
#341 =( NAMED_UNIT ( * ) SI_UNIT ( $, .STERADIAN. ) SOLID_ANGLE_UNIT ( ) );
#342 = SURFACE_STYLE_USAGE ( .BOTH. , #305 ) ;
#343 = ORIENTED_EDGE ( 'NONE', *, *, #338, .F. ) ;
#344 = SURFACE_STYLE_FILL_AREA ( #277 ) ;
#345 = EDGE_LOOP ( 'NONE', ( #210, #239, #130, #34 ) ) ;
#346 = FACE_OUTER_BOUND ( 'NONE', #208, .T. ) ;
#347 = VERTEX_POINT ( 'NONE', #231 ) ;
#348 = EDGE_CURVE ( 'NONE', #303, #74, #327, .T. ) ;
#349 =( GEOMETRIC_REPRESENTATION_CONTEXT ( 3 ) GLOBAL_UNCERTAINTY_ASSIGNED_CONTEXT ( ( #160 ) ) GLOBAL_UNIT_ASSIGNED_CONTEXT ( ( #57, #263, #205 ) ) REPRESENTATION_CONTEXT ( 'NONE', 'WORKASPACE' ) );
#350 = DIRECTION ( 'NONE',  ( 0.000000000000000000, 1.000000000000000000, 0.000000000000000000 ) ) ;
#351 = EDGE_LOOP ( 'NONE', ( #216, #343, #89, #165 ) ) ;
#352 = CARTESIAN_POINT ( 'NONE',  ( 7.050000000000000711, 0.5000000000000000000, 2.999999999999997335 ) ) ;
#353 = CARTESIAN_POINT ( 'NONE',  ( 1.500000000000000000, 2.899999999999999911, 0.000000000000000000 ) ) ;
#354 = EDGE_CURVE ( 'NONE', #90, #178, #33, .T. ) ;
#355 = DIRECTION ( 'NONE',  ( 1.000000000000000000, 0.000000000000000000, 0.000000000000000000 ) ) ;
#356 = STYLED_ITEM ( 'NONE', ( #360 ), #371 ) ;
#357 = CARTESIAN_POINT ( 'NONE',  ( 7.050000000000000711, 0.5000000000000000000, 2.999999999999997335 ) ) ;
#358 = SURFACE_STYLE_USAGE ( .BOTH. , #1 ) ;
#359 = ADVANCED_FACE ( 'NONE', ( #204 ), #116, .T. ) ;
#360 = PRESENTATION_STYLE_ASSIGNMENT (( #358 ) ) ;
#361 = VECTOR ( 'NONE', #209, 1000.000000000000000 ) ;
#362 = DIRECTION ( 'NONE',  ( 0.000000000000000000, -1.000000000000000000, 0.000000000000000000 ) ) ;
#363 = DIRECTION ( 'NONE',  ( -0.000000000000000000, -1.000000000000000000, -0.000000000000000000 ) ) ;
#364 = AXIS2_PLACEMENT_3D ( 'NONE', #134, #389, #200 ) ;
#365 = DIRECTION ( 'NONE',  ( 0.000000000000000000, -0.000000000000000000, 1.000000000000000000 ) ) ;
#366 = ORIENTED_EDGE ( 'NONE', *, *, #94, .T. ) ;
#367 = LINE ( 'NONE', #213, #227 ) ;
#368 = PLANE ( 'NONE',  #59 ) ;
#369 = EDGE_LOOP ( 'NONE', ( #248, #340, #273, #244 ) ) ;
#370 = DIRECTION ( 'NONE',  ( 0.000000000000000000, 0.000000000000000000, 1.000000000000000000 ) ) ;
#371 = MANIFOLD_SOLID_BREP ( 'Aufsatz-Linear austragen1[1]', #296 ) ;
#372 = VERTEX_POINT ( 'NONE', #299 ) ;
#373 = AXIS2_PLACEMENT_3D ( 'NONE', #83, #362, #86 ) ;
#374 = APPLICATION_PROTOCOL_DEFINITION ( 'draft international standard', 'automotive_design', 1998, #376 ) ;
#375 = LINE ( 'NONE', #243, #292 ) ;
#376 = APPLICATION_CONTEXT ( 'automotive_design' ) ;
#377 = ORIENTED_EDGE ( 'NONE', *, *, #124, .F. ) ;
#378 = DIRECTION ( 'NONE',  ( 0.000000000000000000, 0.000000000000000000, -1.000000000000000000 ) ) ;
#379 = EDGE_CURVE ( 'NONE', #372, #167, #383, .T. ) ;
#380 = ORIENTED_EDGE ( 'NONE', *, *, #240, .F. ) ;
#381 = DIRECTION ( 'NONE',  ( 0.000000000000000000, 0.000000000000000000, 1.000000000000000000 ) ) ;
#382 = ORIENTED_EDGE ( 'NONE', *, *, #348, .T. ) ;
#383 = CIRCLE ( 'NONE', #11, 1.125000000000000000 ) ;
#384 = LINE ( 'NONE', #196, #104 ) ;
#385 = PRODUCT_DEFINITION ( 'UNKNOWN', '', #193, #184 ) ;
#386 = CARTESIAN_POINT ( 'NONE',  ( 1.500000000000000000, 2.899999999999999911, -1.125000000000000888 ) ) ;
#387 = CARTESIAN_POINT ( 'NONE',  ( 1.500000000000000222, 0.5000000000000000000, 1.125000000000000888 ) ) ;
#388 = MANIFOLD_SOLID_BREP ( 'Aufsatz-Linear austragen1[2]', #257 ) ;
#389 = DIRECTION ( 'NONE',  ( 0.000000000000000000, 1.000000000000000000, 0.000000000000000000 ) ) ;
#390 = PRODUCT_DEFINITION_SHAPE ( 'NONE', 'NONE',  #385 ) ;
#391 = COLOUR_RGB ( '',0.7921568627450980005, 0.8196078431372548767, 0.9333333333333333481 ) ;
#392 = DIRECTION ( 'NONE',  ( 0.000000000000000000, 0.000000000000000000, 1.000000000000000000 ) ) ;
#393 = EDGE_CURVE ( 'NONE', #120, #127, #367, .T. ) ;
ENDSEC;
END-ISO-10303-21;
