ISO-10303-21;
HEADER;
FILE_DESCRIPTION (( 'STEP AP214' ),
    '1' );
FILE_NAME ('INGUN_33519.STEP',
    '2024-11-25T08:19:11',
    ( '' ),
    ( '' ),
    'SwSTEP 2.0',
    'SolidWorks 2023',
    '' );
FILE_SCHEMA (( 'AUTOMOTIVE_DESIGN' ));
ENDSEC;

DATA;
#1 = EDGE_CURVE ( 'NONE', #171, #131, #147, .T. ) ;
#2 =( NAMED_UNIT ( * ) SI_UNIT ( $, .STERADIAN. ) SOLID_ANGLE_UNIT ( ) );
#3 = AXIS2_PLACEMENT_3D ( 'NONE', #256, #178, #291 ) ;
#4 = CIRCLE ( 'NONE', #260, 1.125000000000000000 ) ;
#5 = EDGE_CURVE ( 'NONE', #66, #81, #220, .T. ) ;
#6 = VERTEX_POINT ( 'NONE', #366 ) ;
#7 = DIRECTION ( 'NONE',  ( -0.000000000000000000, -0.000000000000000000, 1.000000000000000000 ) ) ;
#8 = PRESENTATION_LAYER_ASSIGNMENT (  '', '', ( #212 ) ) ;
#9 = DIRECTION ( 'NONE',  ( -0.000000000000000000, -1.000000000000000000, -0.000000000000000000 ) ) ;
#10 = ORIENTED_EDGE ( 'NONE', *, *, #334, .F. ) ;
#11 = UNCERTAINTY_MEASURE_WITH_UNIT (LENGTH_MEASURE( 1.000000000000000082E-05 ), #132, 'distance_accuracy_value', 'NONE');
#12 = CARTESIAN_POINT ( 'NONE',  ( 4.499999999999997335, 0.5000000000000000000, 2.499999999999995115 ) ) ;
#13 = EDGE_LOOP ( 'NONE', ( #17, #198, #255, #227 ) ) ;
#14 = AXIS2_PLACEMENT_3D ( 'NONE', #293, #149, #182 ) ;
#15 = ORIENTED_EDGE ( 'NONE', *, *, #205, .F. ) ;
#16 = EDGE_LOOP ( 'NONE', ( #306, #369, #138, #134 ) ) ;
#17 = ORIENTED_EDGE ( 'NONE', *, *, #153, .F. ) ;
#18 = DIRECTION ( 'NONE',  ( -0.000000000000000000, -1.000000000000000000, -0.000000000000000000 ) ) ;
#19 = CARTESIAN_POINT ( 'NONE',  ( -1.500000000000000000, 2.899999999999999911, 0.000000000000000000 ) ) ;
#20 = ORIENTED_EDGE ( 'NONE', *, *, #205, .T. ) ;
#21 = DIRECTION ( 'NONE',  ( 0.000000000000000000, -0.000000000000000000, 1.000000000000000000 ) ) ;
#22 = LINE ( 'NONE', #173, #197 ) ;
#23 = EDGE_CURVE ( 'NONE', #159, #186, #184, .T. ) ;
#24 = DIRECTION ( 'NONE',  ( 0.000000000000000000, 0.000000000000000000, -1.000000000000000000 ) ) ;
#25 = APPLICATION_CONTEXT ( 'automotive_design' ) ;
#26 = VECTOR ( 'NONE', #221, 1000.000000000000000 ) ;
#27 = FILL_AREA_STYLE ('',( #115 ) ) ;
#28 = APPLICATION_PROTOCOL_DEFINITION ( 'draft international standard', 'automotive_design', 1998, #25 ) ;
#29 = VECTOR ( 'NONE', #80, 1000.000000000000000 ) ;
#30 = PRESENTATION_STYLE_ASSIGNMENT (( #86 ) ) ;
#31 = EDGE_CURVE ( 'NONE', #303, #66, #297, .T. ) ;
#32 = UNCERTAINTY_MEASURE_WITH_UNIT (LENGTH_MEASURE( 1.000000000000000082E-05 ), #183, 'distance_accuracy_value', 'NONE');
#33 = ORIENTED_EDGE ( 'NONE', *, *, #90, .T. ) ;
#34 = LINE ( 'NONE', #127, #113 ) ;
#35 = ORIENTED_EDGE ( 'NONE', *, *, #1, .T. ) ;
#36 = CARTESIAN_POINT ( 'NONE',  ( -4.500000000000000888, 0.5000000000000000000, 2.499999999999995115 ) ) ;
#37 = VERTEX_POINT ( 'NONE', #274 ) ;
#38 = COLOUR_RGB ( '',0.7921568627450980005, 0.8196078431372548767, 0.9333333333333333481 ) ;
#39 = CARTESIAN_POINT ( 'NONE',  ( 1.500000000000000000, 2.899999999999999911, 0.000000000000000000 ) ) ;
#40 = PLANE ( 'NONE',  #289 ) ;
#41 = APPLICATION_CONTEXT ( 'automotive_design' ) ;
#42 = DIRECTION ( 'NONE',  ( 0.000000000000000000, 0.000000000000000000, 1.000000000000000000 ) ) ;
#43 = EDGE_LOOP ( 'NONE', ( #68, #128, #20, #33 ) ) ;
#44 = CARTESIAN_POINT ( 'NONE',  ( -1.500000000000000000, 0.5000000000000000000, 0.000000000000000000 ) ) ;
#45 = CIRCLE ( 'NONE', #151, 1.125000000000000000 ) ;
#46 = ADVANCED_BREP_SHAPE_REPRESENTATION ( 'INGUN_33519', ( #348, #222, #387, #392 ), #169 ) ;
#47 = CARTESIAN_POINT ( 'NONE',  ( -4.500000000000000888, 0.5000000000000000000, 2.499999999999995115 ) ) ;
#48 = ORIENTED_EDGE ( 'NONE', *, *, #108, .F. ) ;
#49 = LINE ( 'NONE', #172, #390 ) ;
#50 = CARTESIAN_POINT ( 'NONE',  ( -1.500000000000000000, 2.899999999999999911, -1.125000000000000000 ) ) ;
#51 = ORIENTED_EDGE ( 'NONE', *, *, #334, .T. ) ;
#52 = FILL_AREA_STYLE_COLOUR ( '', #56 ) ;
#53 = CARTESIAN_POINT ( 'NONE',  ( -1.500000000000000000, 2.899999999999999911, 0.000000000000000000 ) ) ;
#54 = EDGE_CURVE ( 'NONE', #186, #159, #332, .T. ) ;
#55 = PLANE ( 'NONE',  #14 ) ;
#56 = COLOUR_RGB ( '',0.7921568627450980005, 0.8196078431372548767, 0.9333333333333333481 ) ;
#57 = CARTESIAN_POINT ( 'NONE',  ( 1.500000000000000222, 2.899999999999999911, 1.125000000000000888 ) ) ;
#58 = FACE_OUTER_BOUND ( 'NONE', #105, .T. ) ;
#59 = SHAPE_DEFINITION_REPRESENTATION ( #389, #46 ) ;
#60 = DIRECTION ( 'NONE',  ( -0.000000000000000000, -1.000000000000000000, -0.000000000000000000 ) ) ;
#61 = DIRECTION ( 'NONE',  ( 0.000000000000000000, 0.000000000000000000, 1.000000000000000000 ) ) ;
#62 = EDGE_CURVE ( 'NONE', #286, #224, #34, .T. ) ;
#63 = ORIENTED_EDGE ( 'NONE', *, *, #181, .F. ) ;
#64 = ADVANCED_FACE ( 'NONE', ( #218 ), #270, .F. ) ;
#65 = CARTESIAN_POINT ( 'NONE',  ( -1.500000000000000000, 2.899999999999999911, 0.000000000000000000 ) ) ;
#66 = VERTEX_POINT ( 'NONE', #371 ) ;
#67 = DIRECTION ( 'NONE',  ( -0.000000000000000000, -1.000000000000000000, -0.000000000000000000 ) ) ;
#68 = ORIENTED_EDGE ( 'NONE', *, *, #31, .T. ) ;
#69 = VECTOR ( 'NONE', #9, 1000.000000000000000 ) ;
#70 =( NAMED_UNIT ( * ) SI_UNIT ( $, .STERADIAN. ) SOLID_ANGLE_UNIT ( ) );
#71 = FACE_OUTER_BOUND ( 'NONE', #328, .T. ) ;
#72 = DIRECTION ( 'NONE',  ( 0.000000000000000000, 1.000000000000000000, 0.000000000000000000 ) ) ;
#73 = ORIENTED_EDGE ( 'NONE', *, *, #62, .F. ) ;
#74 = DIRECTION ( 'NONE',  ( 0.000000000000000000, -0.000000000000000000, 1.000000000000000000 ) ) ;
#75 = EDGE_CURVE ( 'NONE', #224, #253, #298, .T. ) ;
#76 = ORIENTED_EDGE ( 'NONE', *, *, #23, .F. ) ;
#77 = ORIENTED_EDGE ( 'NONE', *, *, #1, .F. ) ;
#78 = FACE_OUTER_BOUND ( 'NONE', #43, .T. ) ;
#79 = CIRCLE ( 'NONE', #380, 1.125000000000000000 ) ;
#80 = DIRECTION ( 'NONE',  ( -0.000000000000000000, -0.000000000000000000, 1.000000000000000000 ) ) ;
#81 = VERTEX_POINT ( 'NONE', #121 ) ;
#82 = CARTESIAN_POINT ( 'NONE',  ( 1.500000000000000000, 0.5000000000000000000, -1.125000000000000888 ) ) ;
#83 = LINE ( 'NONE', #202, #26 ) ;
#84 = DIRECTION ( 'NONE',  ( 0.000000000000000000, -1.000000000000000000, 0.000000000000000000 ) ) ;
#85 = CARTESIAN_POINT ( 'NONE',  ( 4.499999999999997335, 0.5000000000000000000, 2.499999999999995115 ) ) ;
#86 = SURFACE_STYLE_USAGE ( .BOTH. , #236 ) ;
#87 = VECTOR ( 'NONE', #388, 1000.000000000000000 ) ;
#88 =( GEOMETRIC_REPRESENTATION_CONTEXT ( 3 ) GLOBAL_UNCERTAINTY_ASSIGNED_CONTEXT ( ( #11 ) ) GLOBAL_UNIT_ASSIGNED_CONTEXT ( ( #132, #106, #139 ) ) REPRESENTATION_CONTEXT ( 'NONE', 'WORKASPACE' ) );
#89 = DIRECTION ( 'NONE',  ( 1.000000000000000000, 0.000000000000000000, 0.000000000000000000 ) ) ;
#90 = EDGE_CURVE ( 'NONE', #37, #303, #96, .T. ) ;
#91 = DIRECTION ( 'NONE',  ( 0.000000000000000000, 0.000000000000000000, -1.000000000000000000 ) ) ;
#92 = AXIS2_PLACEMENT_3D ( 'NONE', #65, #67, #125 ) ;
#93 = ORIENTED_EDGE ( 'NONE', *, *, #75, .F. ) ;
#94 = ORIENTED_EDGE ( 'NONE', *, *, #244, .T. ) ;
#95 = ORIENTED_EDGE ( 'NONE', *, *, #146, .F. ) ;
#96 = LINE ( 'NONE', #36, #238 ) ;
#97 = CARTESIAN_POINT ( 'NONE',  ( -4.500000000000000888, 0.5000000000000000000, -2.500000000000005773 ) ) ;
#98 = ORIENTED_EDGE ( 'NONE', *, *, #54, .T. ) ;
#99 = AXIS2_PLACEMENT_3D ( 'NONE', #273, #155, #251 ) ;
#100 = DIRECTION ( 'NONE',  ( 0.000000000000000000, 1.000000000000000000, 0.000000000000000000 ) ) ;
#101 = ADVANCED_FACE ( 'NONE', ( #373 ), #164, .T. ) ;
#102 = FILL_AREA_STYLE ('',( #52 ) ) ;
#103 = DIRECTION ( 'NONE',  ( 0.000000000000000000, 0.000000000000000000, 1.000000000000000000 ) ) ;
#104 = VERTEX_POINT ( 'NONE', #368 ) ;
#105 = EDGE_LOOP ( 'NONE', ( #163, #335 ) ) ;
#106 =( NAMED_UNIT ( * ) PLANE_ANGLE_UNIT ( ) SI_UNIT ( $, .RADIAN. ) );
#107 = MECHANICAL_DESIGN_GEOMETRIC_PRESENTATION_REPRESENTATION (  '', ( #212 ), #272 ) ;
#108 = EDGE_CURVE ( 'NONE', #131, #171, #365, .T. ) ;
#109 = LINE ( 'NONE', #57, #326 ) ;
#110 = PLANE ( 'NONE',  #249 ) ;
#111 = PLANE ( 'NONE',  #165 ) ;
#112 = DIRECTION ( 'NONE',  ( 0.000000000000000000, 1.000000000000000000, 0.000000000000000000 ) ) ;
#113 = VECTOR ( 'NONE', #130, 1000.000000000000000 ) ;
#114 = CARTESIAN_POINT ( 'NONE',  ( -1.499999999999999778, 2.899999999999999911, 1.125000000000000000 ) ) ;
#115 = FILL_AREA_STYLE_COLOUR ( '', #140 ) ;
#116 = CARTESIAN_POINT ( 'NONE',  ( 0.000000000000000000, 0.000000000000000000, 0.000000000000000000 ) ) ;
#117 = ADVANCED_FACE ( 'NONE', ( #71 ), #191, .F. ) ;
#118 = AXIS2_PLACEMENT_3D ( 'NONE', #142, #232, #342 ) ;
#119 = EDGE_CURVE ( 'NONE', #186, #131, #245, .T. ) ;
#120 = ORIENTED_EDGE ( 'NONE', *, *, #385, .T. ) ;
#121 = CARTESIAN_POINT ( 'NONE',  ( -4.500000000000000888, 0.5000000000000000000, -2.500000000000005773 ) ) ;
#122 = EDGE_LOOP ( 'NONE', ( #193, #259, #15, #364 ) ) ;
#123 = DIRECTION ( 'NONE',  ( 0.000000000000000000, 0.000000000000000000, 1.000000000000000000 ) ) ;
#124 = ORIENTED_EDGE ( 'NONE', *, *, #287, .T. ) ;
#125 = DIRECTION ( 'NONE',  ( 0.000000000000000000, 0.000000000000000000, -1.000000000000000000 ) ) ;
#126 = ADVANCED_FACE ( 'NONE', ( #188 ), #40, .F. ) ;
#127 = CARTESIAN_POINT ( 'NONE',  ( -4.500000000000000888, -0.5000000000000000000, -2.500000000000005773 ) ) ;
#128 = ORIENTED_EDGE ( 'NONE', *, *, #5, .T. ) ;
#129 = AXIS2_PLACEMENT_3D ( 'NONE', #317, #254, #21 ) ;
#130 = DIRECTION ( 'NONE',  ( -1.000000000000000000, -0.000000000000000000, -0.000000000000000000 ) ) ;
#131 = VERTEX_POINT ( 'NONE', #82 ) ;
#132 =( LENGTH_UNIT ( ) NAMED_UNIT ( * ) SI_UNIT ( .MILLI., .METRE. ) );
#133 = LINE ( 'NONE', #47, #29 ) ;
#134 = ORIENTED_EDGE ( 'NONE', *, *, #269, .T. ) ;
#135 = EDGE_CURVE ( 'NONE', #162, #104, #145, .T. ) ;
#136 = FACE_OUTER_BOUND ( 'NONE', #217, .T. ) ;
#137 = CARTESIAN_POINT ( 'NONE',  ( 4.499999999999997335, -0.5000000000000000000, -2.500000000000005773 ) ) ;
#138 = ORIENTED_EDGE ( 'NONE', *, *, #135, .T. ) ;
#139 =( NAMED_UNIT ( * ) SI_UNIT ( $, .STERADIAN. ) SOLID_ANGLE_UNIT ( ) );
#140 = COLOUR_RGB ( '',0.7921568627450980005, 0.8196078431372548767, 0.9333333333333333481 ) ;
#141 = SURFACE_STYLE_FILL_AREA ( #176 ) ;
#142 = CARTESIAN_POINT ( 'NONE',  ( -1.500000000000000000, 0.5000000000000000000, 0.000000000000000000 ) ) ;
#143 = CARTESIAN_POINT ( 'NONE',  ( 4.499999999999997335, -0.5000000000000000000, 2.499999999999995115 ) ) ;
#144 = DIRECTION ( 'NONE',  ( -0.000000000000000000, -1.000000000000000000, -0.000000000000000000 ) ) ;
#145 = LINE ( 'NONE', #285, #87 ) ;
#146 = EDGE_CURVE ( 'NONE', #156, #162, #45, .T. ) ;
#147 = CIRCLE ( 'NONE', #279, 1.125000000000000888 ) ;
#148 =( NAMED_UNIT ( * ) PLANE_ANGLE_UNIT ( ) SI_UNIT ( $, .RADIAN. ) );
#149 = DIRECTION ( 'NONE',  ( 0.000000000000000000, 0.000000000000000000, 1.000000000000000000 ) ) ;
#150 = PRODUCT_CONTEXT ( 'NONE', #25, 'mechanical' ) ;
#151 = AXIS2_PLACEMENT_3D ( 'NONE', #312, #264, #344 ) ;
#152 =( NAMED_UNIT ( * ) SI_UNIT ( $, .STERADIAN. ) SOLID_ANGLE_UNIT ( ) );
#153 = EDGE_CURVE ( 'NONE', #159, #171, #109, .T. ) ;
#154 = VERTEX_POINT ( 'NONE', #143 ) ;
#155 = DIRECTION ( 'NONE',  ( 0.000000000000000000, 0.000000000000000000, -1.000000000000000000 ) ) ;
#156 = VERTEX_POINT ( 'NONE', #114 ) ;
#157 = CARTESIAN_POINT ( 'NONE',  ( 1.500000000000000000, 2.899999999999999911, -1.125000000000000888 ) ) ;
#158 = CIRCLE ( 'NONE', #118, 1.125000000000000000 ) ;
#159 = VERTEX_POINT ( 'NONE', #257 ) ;
#160 = DIRECTION ( 'NONE',  ( 0.000000000000000000, 1.000000000000000000, 0.000000000000000000 ) ) ;
#161 = ADVANCED_FACE ( 'NONE', ( #383 ), #350, .T. ) ;
#162 = VERTEX_POINT ( 'NONE', #50 ) ;
#163 = ORIENTED_EDGE ( 'NONE', *, *, #269, .F. ) ;
#164 = CYLINDRICAL_SURFACE ( 'NONE', #92, 1.125000000000000000 ) ;
#165 = AXIS2_PLACEMENT_3D ( 'NONE', #137, #357, #316 ) ;
#166 = ORIENTED_EDGE ( 'NONE', *, *, #146, .T. ) ;
#167 = AXIS2_PLACEMENT_3D ( 'NONE', #374, #187, #302 ) ;
#168 = PRESENTATION_STYLE_ASSIGNMENT (( #307 ) ) ;
#169 =( GEOMETRIC_REPRESENTATION_CONTEXT ( 3 ) GLOBAL_UNCERTAINTY_ASSIGNED_CONTEXT ( ( #32 ) ) GLOBAL_UNIT_ASSIGNED_CONTEXT ( ( #183, #148, #152 ) ) REPRESENTATION_CONTEXT ( 'NONE', 'WORKASPACE' ) );
#170 = FACE_OUTER_BOUND ( 'NONE', #16, .T. ) ;
#171 = VERTEX_POINT ( 'NONE', #352 ) ;
#172 = CARTESIAN_POINT ( 'NONE',  ( -1.499999999999999778, 2.899999999999999911, 1.125000000000000000 ) ) ;
#173 = CARTESIAN_POINT ( 'NONE',  ( -4.500000000000000888, 0.5000000000000000000, -2.500000000000005773 ) ) ;
#174 = ORIENTED_EDGE ( 'NONE', *, *, #313, .T. ) ;
#175 = PLANE ( 'NONE',  #233 ) ;
#176 = FILL_AREA_STYLE ('',( #203 ) ) ;
#177 = CARTESIAN_POINT ( 'NONE',  ( 4.499999999999997335, -0.5000000000000000000, -2.500000000000005773 ) ) ;
#178 = DIRECTION ( 'NONE',  ( -0.000000000000000000, -1.000000000000000000, -0.000000000000000000 ) ) ;
#179 = ADVANCED_FACE ( 'NONE', ( #200 ), #111, .T. ) ;
#180 = AXIS2_PLACEMENT_3D ( 'NONE', #39, #248, #42 ) ;
#181 = EDGE_CURVE ( 'NONE', #81, #224, #22, .T. ) ;
#182 = DIRECTION ( 'NONE',  ( 1.000000000000000000, 0.000000000000000000, -0.000000000000000000 ) ) ;
#183 =( LENGTH_UNIT ( ) NAMED_UNIT ( * ) SI_UNIT ( .MILLI., .METRE. ) );
#184 = CIRCLE ( 'NONE', #343, 1.125000000000000888 ) ;
#185 = PRESENTATION_STYLE_ASSIGNMENT (( #250 ) ) ;
#186 = VERTEX_POINT ( 'NONE', #309 ) ;
#187 = DIRECTION ( 'NONE',  ( -1.000000000000000000, 0.000000000000000000, 0.000000000000000000 ) ) ;
#188 = FACE_OUTER_BOUND ( 'NONE', #276, .T. ) ;
#189 = VECTOR ( 'NONE', #216, 1000.000000000000000 ) ;
#190 = ORIENTED_EDGE ( 'NONE', *, *, #370, .T. ) ;
#191 = PLANE ( 'NONE',  #167 ) ;
#192 = EDGE_LOOP ( 'NONE', ( #98, #280 ) ) ;
#193 = ORIENTED_EDGE ( 'NONE', *, *, #75, .T. ) ;
#194 = SURFACE_SIDE_STYLE ('',( #281 ) ) ;
#195 = DIRECTION ( 'NONE',  ( -0.000000000000000000, -1.000000000000000000, -0.000000000000000000 ) ) ;
#196 = PRODUCT ( 'INGUN_33519', 'INGUN_33519', '', ( #150 ) ) ;
#197 = VECTOR ( 'NONE', #195, 1000.000000000000000 ) ;
#198 = ORIENTED_EDGE ( 'NONE', *, *, #54, .F. ) ;
#199 = CARTESIAN_POINT ( 'NONE',  ( 4.499999999999997335, 0.5000000000000000000, 2.499999999999995115 ) ) ;
#200 = FACE_OUTER_BOUND ( 'NONE', #243, .T. ) ;
#201 = EDGE_LOOP ( 'NONE', ( #190, #340, #215, #94 ) ) ;
#202 = CARTESIAN_POINT ( 'NONE',  ( -4.500000000000000888, 0.5000000000000000000, 2.499999999999995115 ) ) ;
#203 = FILL_AREA_STYLE_COLOUR ( '', #38 ) ;
#204 = DIRECTION ( 'NONE',  ( 0.000000000000000000, 1.000000000000000000, 0.000000000000000000 ) ) ;
#205 = EDGE_CURVE ( 'NONE', #81, #37, #133, .T. ) ;
#206 = DIRECTION ( 'NONE',  ( -0.000000000000000000, -1.000000000000000000, -0.000000000000000000 ) ) ;
#207 = PRODUCT_DEFINITION ( 'UNKNOWN', '', #354, #377 ) ;
#208 = VECTOR ( 'NONE', #7, 1000.000000000000000 ) ;
#209 = LINE ( 'NONE', #85, #345 ) ;
#210 = DIRECTION ( 'NONE',  ( 1.000000000000000000, 0.000000000000000000, 0.000000000000000000 ) ) ;
#211 = ADVANCED_FACE ( 'NONE', ( #170 ), #378, .T. ) ;
#212 = STYLED_ITEM ( 'NONE', ( #185 ), #222 ) ;
#213 = ORIENTED_EDGE ( 'NONE', *, *, #135, .F. ) ;
#214 = CARTESIAN_POINT ( 'NONE',  ( 1.500000000000000000, 2.899999999999999911, 0.000000000000000000 ) ) ;
#215 = ORIENTED_EDGE ( 'NONE', *, *, #90, .F. ) ;
#216 = DIRECTION ( 'NONE',  ( -1.000000000000000000, -0.000000000000000000, -0.000000000000000000 ) ) ;
#217 = EDGE_LOOP ( 'NONE', ( #76, #338, #35, #341 ) ) ;
#218 = FACE_OUTER_BOUND ( 'NONE', #201, .T. ) ;
#219 = VECTOR ( 'NONE', #24, 1000.000000000000000 ) ;
#220 = LINE ( 'NONE', #97, #189 ) ;
#221 = DIRECTION ( 'NONE',  ( -0.000000000000000000, -1.000000000000000000, -0.000000000000000000 ) ) ;
#222 = MANIFOLD_SOLID_BREP ( 'Aufsatz-Linear austragen1[1]', #362 ) ;
#223 = DIRECTION ( 'NONE',  ( 0.000000000000000000, 1.000000000000000000, 0.000000000000000000 ) ) ;
#224 = VERTEX_POINT ( 'NONE', #288 ) ;
#225 = CARTESIAN_POINT ( 'NONE',  ( 1.500000000000000000, 2.899999999999999911, 0.000000000000000000 ) ) ;
#226 = AXIS2_PLACEMENT_3D ( 'NONE', #19, #381, #229 ) ;
#227 = ORIENTED_EDGE ( 'NONE', *, *, #108, .T. ) ;
#228 = FACE_OUTER_BOUND ( 'NONE', #192, .T. ) ;
#229 = DIRECTION ( 'NONE',  ( 0.000000000000000000, 0.000000000000000000, -1.000000000000000000 ) ) ;
#230 = DIRECTION ( 'NONE',  ( 0.000000000000000000, -0.000000000000000000, -1.000000000000000000 ) ) ;
#231 = ADVANCED_FACE ( 'NONE', ( #228 ), #347, .T. ) ;
#232 = DIRECTION ( 'NONE',  ( 0.000000000000000000, 1.000000000000000000, 0.000000000000000000 ) ) ;
#233 = AXIS2_PLACEMENT_3D ( 'NONE', #44, #204, #74 ) ;
#234 = DIRECTION ( 'NONE',  ( 0.000000000000000000, -0.000000000000000000, 1.000000000000000000 ) ) ;
#235 = LINE ( 'NONE', #359, #299 ) ;
#236 = SURFACE_SIDE_STYLE ('',( #294 ) ) ;
#237 = DIRECTION ( 'NONE',  ( 0.000000000000000000, 0.000000000000000000, 1.000000000000000000 ) ) ;
#238 = VECTOR ( 'NONE', #305, 1000.000000000000000 ) ;
#239 = PRESENTATION_LAYER_ASSIGNMENT (  '', '', ( #268 ) ) ;
#240 =( NAMED_UNIT ( * ) PLANE_ANGLE_UNIT ( ) SI_UNIT ( $, .RADIAN. ) );
#241 = UNCERTAINTY_MEASURE_WITH_UNIT (LENGTH_MEASURE( 1.000000000000000082E-05 ), #336, 'distance_accuracy_value', 'NONE');
#242 = EDGE_CURVE ( 'NONE', #66, #286, #349, .T. ) ;
#243 = EDGE_LOOP ( 'NONE', ( #10, #310, #93, #73 ) ) ;
#244 = EDGE_CURVE ( 'NONE', #37, #253, #83, .T. ) ;
#245 = LINE ( 'NONE', #157, #69 ) ;
#246 = SURFACE_SIDE_STYLE ('',( #141 ) ) ;
#247 = CARTESIAN_POINT ( 'NONE',  ( 1.500000000000000000, 0.5000000000000000000, 0.000000000000000000 ) ) ;
#248 = DIRECTION ( 'NONE',  ( 0.000000000000000000, 1.000000000000000000, 0.000000000000000000 ) ) ;
#249 = AXIS2_PLACEMENT_3D ( 'NONE', #351, #84, #230 ) ;
#250 = SURFACE_STYLE_USAGE ( .BOTH. , #246 ) ;
#251 = DIRECTION ( 'NONE',  ( -1.000000000000000000, 0.000000000000000000, -0.000000000000000000 ) ) ;
#252 = PRODUCT_RELATED_PRODUCT_CATEGORY ( 'part', '', ( #196 ) ) ;
#253 = VERTEX_POINT ( 'NONE', #263 ) ;
#254 = DIRECTION ( 'NONE',  ( 0.000000000000000000, 1.000000000000000000, 0.000000000000000000 ) ) ;
#255 = ORIENTED_EDGE ( 'NONE', *, *, #119, .T. ) ;
#256 = CARTESIAN_POINT ( 'NONE',  ( 1.500000000000000000, 2.899999999999999911, 0.000000000000000000 ) ) ;
#257 = CARTESIAN_POINT ( 'NONE',  ( 1.500000000000000222, 2.899999999999999911, 1.125000000000000888 ) ) ;
#258 = PRESENTATION_LAYER_ASSIGNMENT (  '', '', ( #265 ) ) ;
#259 = ORIENTED_EDGE ( 'NONE', *, *, #244, .F. ) ;
#260 = AXIS2_PLACEMENT_3D ( 'NONE', #356, #112, #61 ) ;
#261 = DIRECTION ( 'NONE',  ( -0.000000000000000000, -1.000000000000000000, -0.000000000000000000 ) ) ;
#262 = CYLINDRICAL_SURFACE ( 'NONE', #3, 1.125000000000000888 ) ;
#263 = CARTESIAN_POINT ( 'NONE',  ( -4.500000000000000888, -0.5000000000000000000, 2.499999999999995115 ) ) ;
#264 = DIRECTION ( 'NONE',  ( 0.000000000000000000, 1.000000000000000000, 0.000000000000000000 ) ) ;
#265 = STYLED_ITEM ( 'NONE', ( #168 ), #348 ) ;
#266 =( GEOMETRIC_REPRESENTATION_CONTEXT ( 3 ) GLOBAL_UNCERTAINTY_ASSIGNED_CONTEXT ( ( #282 ) ) GLOBAL_UNIT_ASSIGNED_CONTEXT ( ( #324, #240, #2 ) ) REPRESENTATION_CONTEXT ( 'NONE', 'WORKASPACE' ) );
#267 = CLOSED_SHELL ( 'NONE', ( #321, #271, #231, #126 ) ) ;
#268 = STYLED_ITEM ( 'NONE', ( #30 ), #387 ) ;
#269 = EDGE_CURVE ( 'NONE', #104, #6, #158, .T. ) ;
#270 = PLANE ( 'NONE',  #99 ) ;
#271 = ADVANCED_FACE ( 'NONE', ( #384 ), #311, .T. ) ;
#272 =( GEOMETRIC_REPRESENTATION_CONTEXT ( 3 ) GLOBAL_UNCERTAINTY_ASSIGNED_CONTEXT ( ( #241 ) ) GLOBAL_UNIT_ASSIGNED_CONTEXT ( ( #336, #367, #70 ) ) REPRESENTATION_CONTEXT ( 'NONE', 'WORKASPACE' ) );
#273 = CARTESIAN_POINT ( 'NONE',  ( -4.500000000000000888, 0.5000000000000000000, 2.499999999999995115 ) ) ;
#274 = CARTESIAN_POINT ( 'NONE',  ( -4.500000000000000888, 0.5000000000000000000, 2.499999999999995115 ) ) ;
#275 = DIRECTION ( 'NONE',  ( 0.000000000000000000, 0.000000000000000000, 1.000000000000000000 ) ) ;
#276 = EDGE_LOOP ( 'NONE', ( #48, #77 ) ) ;
#277 = ADVANCED_FACE ( 'NONE', ( #78 ), #110, .F. ) ;
#278 = DIRECTION ( 'NONE',  ( 0.000000000000000000, -0.000000000000000000, 1.000000000000000000 ) ) ;
#279 = AXIS2_PLACEMENT_3D ( 'NONE', #333, #223, #123 ) ;
#280 = ORIENTED_EDGE ( 'NONE', *, *, #23, .T. ) ;
#281 = SURFACE_STYLE_FILL_AREA ( #102 ) ;
#282 = UNCERTAINTY_MEASURE_WITH_UNIT (LENGTH_MEASURE( 1.000000000000000082E-05 ), #324, 'distance_accuracy_value', 'NONE');
#283 = EDGE_LOOP ( 'NONE', ( #346, #63, #379, #314 ) ) ;
#284 = DIRECTION ( 'NONE',  ( 0.000000000000000000, 0.000000000000000000, 1.000000000000000000 ) ) ;
#285 = CARTESIAN_POINT ( 'NONE',  ( -1.500000000000000000, 2.899999999999999911, -1.125000000000000000 ) ) ;
#286 = VERTEX_POINT ( 'NONE', #177 ) ;
#287 = EDGE_CURVE ( 'NONE', #162, #156, #79, .T. ) ;
#288 = CARTESIAN_POINT ( 'NONE',  ( -4.500000000000000888, -0.5000000000000000000, -2.500000000000005773 ) ) ;
#289 = AXIS2_PLACEMENT_3D ( 'NONE', #337, #72, #278 ) ;
#290 = DIRECTION ( 'NONE',  ( 0.000000000000000000, 0.000000000000000000, -1.000000000000000000 ) ) ;
#291 = DIRECTION ( 'NONE',  ( 0.000000000000000000, 0.000000000000000000, -1.000000000000000000 ) ) ;
#292 = MECHANICAL_DESIGN_GEOMETRIC_PRESENTATION_REPRESENTATION (  '', ( #265 ), #88 ) ;
#293 = CARTESIAN_POINT ( 'NONE',  ( -4.500000000000000888, 0.5000000000000000000, -2.500000000000005773 ) ) ;
#294 = SURFACE_STYLE_FILL_AREA ( #27 ) ;
#295 = AXIS2_PLACEMENT_3D ( 'NONE', #53, #318, #234 ) ;
#296 = AXIS2_PLACEMENT_3D ( 'NONE', #325, #358, #91 ) ;
#297 = LINE ( 'NONE', #12, #308 ) ;
#298 = LINE ( 'NONE', #331, #208 ) ;
#299 = VECTOR ( 'NONE', #210, 1000.000000000000000 ) ;
#300 = EDGE_LOOP ( 'NONE', ( #124, #166 ) ) ;
#301 = EDGE_LOOP ( 'NONE', ( #95, #174, #330, #213 ) ) ;
#302 = DIRECTION ( 'NONE',  ( 0.000000000000000000, 0.000000000000000000, 1.000000000000000000 ) ) ;
#303 = VERTEX_POINT ( 'NONE', #199 ) ;
#304 = ADVANCED_FACE ( 'NONE', ( #58 ), #175, .F. ) ;
#305 = DIRECTION ( 'NONE',  ( 1.000000000000000000, 0.000000000000000000, 0.000000000000000000 ) ) ;
#306 = ORIENTED_EDGE ( 'NONE', *, *, #313, .F. ) ;
#307 = SURFACE_STYLE_USAGE ( .BOTH. , #194 ) ;
#308 = VECTOR ( 'NONE', #329, 1000.000000000000000 ) ;
#309 = CARTESIAN_POINT ( 'NONE',  ( 1.500000000000000000, 2.899999999999999911, -1.125000000000000888 ) ) ;
#310 = ORIENTED_EDGE ( 'NONE', *, *, #370, .F. ) ;
#311 = CYLINDRICAL_SURFACE ( 'NONE', #353, 1.125000000000000888 ) ;
#312 = CARTESIAN_POINT ( 'NONE',  ( -1.500000000000000000, 2.899999999999999911, 0.000000000000000000 ) ) ;
#313 = EDGE_CURVE ( 'NONE', #156, #6, #49, .T. ) ;
#314 = ORIENTED_EDGE ( 'NONE', *, *, #242, .T. ) ;
#315 = CARTESIAN_POINT ( 'NONE',  ( 4.499999999999997335, 0.5000000000000000000, -2.500000000000005773 ) ) ;
#316 = DIRECTION ( 'NONE',  ( 0.000000000000000000, -0.000000000000000000, -1.000000000000000000 ) ) ;
#317 = CARTESIAN_POINT ( 'NONE',  ( 1.500000000000000000, 2.899999999999999911, 0.000000000000000000 ) ) ;
#318 = DIRECTION ( 'NONE',  ( 0.000000000000000000, 1.000000000000000000, 0.000000000000000000 ) ) ;
#319 = CLOSED_SHELL ( 'NONE', ( #117, #355, #360, #64, #277, #179 ) ) ;
#320 = CARTESIAN_POINT ( 'NONE',  ( -1.500000000000000000, 2.899999999999999911, 0.000000000000000000 ) ) ;
#321 = ADVANCED_FACE ( 'NONE', ( #136 ), #262, .T. ) ;
#322 = APPLICATION_PROTOCOL_DEFINITION ( 'draft international standard', 'automotive_design', 1998, #41 ) ;
#323 = VECTOR ( 'NONE', #144, 1000.000000000000000 ) ;
#324 =( LENGTH_UNIT ( ) NAMED_UNIT ( * ) SI_UNIT ( .MILLI., .METRE. ) );
#325 = CARTESIAN_POINT ( 'NONE',  ( -4.500000000000000888, 0.5000000000000000000, 2.499999999999995115 ) ) ;
#326 = VECTOR ( 'NONE', #261, 1000.000000000000000 ) ;
#327 = AXIS2_PLACEMENT_3D ( 'NONE', #247, #100, #103 ) ;
#328 = EDGE_LOOP ( 'NONE', ( #51, #375, #372, #120 ) ) ;
#329 = DIRECTION ( 'NONE',  ( 0.000000000000000000, 0.000000000000000000, -1.000000000000000000 ) ) ;
#330 = ORIENTED_EDGE ( 'NONE', *, *, #361, .T. ) ;
#331 = CARTESIAN_POINT ( 'NONE',  ( -4.500000000000000888, -0.5000000000000000000, 2.499999999999995115 ) ) ;
#332 = CIRCLE ( 'NONE', #180, 1.125000000000000888 ) ;
#333 = CARTESIAN_POINT ( 'NONE',  ( 1.500000000000000000, 0.5000000000000000000, 0.000000000000000000 ) ) ;
#334 = EDGE_CURVE ( 'NONE', #154, #286, #376, .T. ) ;
#335 = ORIENTED_EDGE ( 'NONE', *, *, #361, .F. ) ;
#336 =( LENGTH_UNIT ( ) NAMED_UNIT ( * ) SI_UNIT ( .MILLI., .METRE. ) );
#337 = CARTESIAN_POINT ( 'NONE',  ( 1.500000000000000000, 0.5000000000000000000, 0.000000000000000000 ) ) ;
#338 = ORIENTED_EDGE ( 'NONE', *, *, #153, .T. ) ;
#339 = CARTESIAN_POINT ( 'NONE',  ( 4.499999999999997335, -0.5000000000000000000, 2.499999999999995115 ) ) ;
#340 = ORIENTED_EDGE ( 'NONE', *, *, #385, .F. ) ;
#341 = ORIENTED_EDGE ( 'NONE', *, *, #119, .F. ) ;
#342 = DIRECTION ( 'NONE',  ( 0.000000000000000000, 0.000000000000000000, 1.000000000000000000 ) ) ;
#343 = AXIS2_PLACEMENT_3D ( 'NONE', #214, #160, #275 ) ;
#344 = DIRECTION ( 'NONE',  ( 0.000000000000000000, 0.000000000000000000, 1.000000000000000000 ) ) ;
#345 = VECTOR ( 'NONE', #60, 1000.000000000000000 ) ;
#346 = ORIENTED_EDGE ( 'NONE', *, *, #62, .T. ) ;
#347 = PLANE ( 'NONE',  #129 ) ;
#348 = MANIFOLD_SOLID_BREP ( 'Linear austragen1', #319 ) ;
#349 = LINE ( 'NONE', #315, #323 ) ;
#350 = PLANE ( 'NONE',  #295 ) ;
#351 = CARTESIAN_POINT ( 'NONE',  ( 4.499999999999997335, 0.5000000000000000000, -2.500000000000005773 ) ) ;
#352 = CARTESIAN_POINT ( 'NONE',  ( 1.500000000000000222, 0.5000000000000000000, 1.125000000000000888 ) ) ;
#353 = AXIS2_PLACEMENT_3D ( 'NONE', #225, #206, #290 ) ;
#354 = PRODUCT_DEFINITION_FORMATION_WITH_SPECIFIED_SOURCE ( 'ANY', '', #196, .NOT_KNOWN. ) ;
#355 = ADVANCED_FACE ( 'NONE', ( #363 ), #55, .F. ) ;
#356 = CARTESIAN_POINT ( 'NONE',  ( -1.500000000000000000, 0.5000000000000000000, 0.000000000000000000 ) ) ;
#357 = DIRECTION ( 'NONE',  ( 0.000000000000000000, -1.000000000000000000, 0.000000000000000000 ) ) ;
#358 = DIRECTION ( 'NONE',  ( 1.000000000000000000, -0.000000000000000000, 0.000000000000000000 ) ) ;
#359 = CARTESIAN_POINT ( 'NONE',  ( -4.500000000000000888, -0.5000000000000000000, 2.499999999999995115 ) ) ;
#360 = ADVANCED_FACE ( 'NONE', ( #393 ), #386, .F. ) ;
#361 = EDGE_CURVE ( 'NONE', #6, #104, #4, .T. ) ;
#362 = CLOSED_SHELL ( 'NONE', ( #101, #211, #161, #304 ) ) ;
#363 = FACE_OUTER_BOUND ( 'NONE', #283, .T. ) ;
#364 = ORIENTED_EDGE ( 'NONE', *, *, #181, .T. ) ;
#365 = CIRCLE ( 'NONE', #327, 1.125000000000000888 ) ;
#366 = CARTESIAN_POINT ( 'NONE',  ( -1.499999999999999778, 0.5000000000000000000, 1.125000000000000000 ) ) ;
#367 =( NAMED_UNIT ( * ) PLANE_ANGLE_UNIT ( ) SI_UNIT ( $, .RADIAN. ) );
#368 = CARTESIAN_POINT ( 'NONE',  ( -1.500000000000000000, 0.5000000000000000000, -1.125000000000000000 ) ) ;
#369 = ORIENTED_EDGE ( 'NONE', *, *, #287, .F. ) ;
#370 = EDGE_CURVE ( 'NONE', #253, #154, #235, .T. ) ;
#371 = CARTESIAN_POINT ( 'NONE',  ( 4.499999999999997335, 0.5000000000000000000, -2.500000000000005773 ) ) ;
#372 = ORIENTED_EDGE ( 'NONE', *, *, #31, .F. ) ;
#373 = FACE_OUTER_BOUND ( 'NONE', #301, .T. ) ;
#374 = CARTESIAN_POINT ( 'NONE',  ( 4.499999999999997335, 0.5000000000000000000, 2.499999999999995115 ) ) ;
#375 = ORIENTED_EDGE ( 'NONE', *, *, #242, .F. ) ;
#376 = LINE ( 'NONE', #339, #219 ) ;
#377 = PRODUCT_DEFINITION_CONTEXT ( 'detailed design', #41, 'design' ) ;
#378 = CYLINDRICAL_SURFACE ( 'NONE', #226, 1.125000000000000000 ) ;
#379 = ORIENTED_EDGE ( 'NONE', *, *, #5, .F. ) ;
#380 = AXIS2_PLACEMENT_3D ( 'NONE', #320, #382, #284 ) ;
#381 = DIRECTION ( 'NONE',  ( -0.000000000000000000, -1.000000000000000000, -0.000000000000000000 ) ) ;
#382 = DIRECTION ( 'NONE',  ( 0.000000000000000000, 1.000000000000000000, 0.000000000000000000 ) ) ;
#383 = FACE_OUTER_BOUND ( 'NONE', #300, .T. ) ;
#384 = FACE_OUTER_BOUND ( 'NONE', #13, .T. ) ;
#385 = EDGE_CURVE ( 'NONE', #303, #154, #209, .T. ) ;
#386 = PLANE ( 'NONE',  #296 ) ;
#387 = MANIFOLD_SOLID_BREP ( 'Aufsatz-Linear austragen1[2]', #267 ) ;
#388 = DIRECTION ( 'NONE',  ( -0.000000000000000000, -1.000000000000000000, -0.000000000000000000 ) ) ;
#389 = PRODUCT_DEFINITION_SHAPE ( 'NONE', 'NONE',  #207 ) ;
#390 = VECTOR ( 'NONE', #18, 1000.000000000000000 ) ;
#391 = MECHANICAL_DESIGN_GEOMETRIC_PRESENTATION_REPRESENTATION (  '', ( #268 ), #266 ) ;
#392 = AXIS2_PLACEMENT_3D ( 'NONE', #116, #237, #89 ) ;
#393 = FACE_OUTER_BOUND ( 'NONE', #122, .T. ) ;
ENDSEC;
END-ISO-10303-21;
