ISO-10303-21;
HEADER;
FILE_DESCRIPTION (( 'STEP AP214' ),
    '1' );
FILE_NAME ('32995~1.STEP',
    '2019-11-05T08:13:19',
    ( '' ),
    ( '' ),
    'SwSTEP 2.0',
    'SolidWorks 2018',
    '' );
FILE_SCHEMA (( 'AUTOMOTIVE_DESIGN' ));
ENDSEC;

DATA;
#1 = VERTEX_POINT ( 'NONE', #293 ) ;
#2 = PRODUCT_DEFINITION_SHAPE ( 'NONE', 'NONE',  #124 ) ;
#3 = AXIS2_PLACEMENT_3D ( 'NONE', #234, #263, #120 ) ;
#4 =( GEOMETRIC_REPRESENTATION_CONTEXT ( 3 ) GLOBAL_UNCERTAINTY_ASSIGNED_CONTEXT ( ( #204 ) ) GLOBAL_UNIT_ASSIGNED_CONTEXT ( ( #57, #77, #302 ) ) REPRESENTATION_CONTEXT ( 'NONE', 'WORKASPACE' ) );
#5 = FILL_AREA_STYLE_COLOUR ( '', #157 ) ;
#6 = DIRECTION ( 'NONE',  ( -0.0000000000000000000, -1.000000000000000000, -0.0000000000000000000 ) ) ;
#7 =( LENGTH_UNIT ( ) NAMED_UNIT ( * ) SI_UNIT ( .MILLI., .METRE. ) );
#8 = EDGE_LOOP ( 'NONE', ( #259, #197, #224, #79 ) ) ;
#9 = ADVANCED_FACE ( 'NONE', ( #144 ), #245, .T. ) ;
#10 = ORIENTED_EDGE ( 'NONE', *, *, #271, .T. ) ;
#11 = DIRECTION ( 'NONE',  ( 0.0000000000000000000, 0.0000000000000000000, 1.000000000000000000 ) ) ;
#12 = DIRECTION ( 'NONE',  ( 0.0000000000000000000, 0.0000000000000000000, -1.000000000000000000 ) ) ;
#13 = PRODUCT_CONTEXT ( 'NONE', #159, 'mechanical' ) ;
#14 = ORIENTED_EDGE ( 'NONE', *, *, #55, .F. ) ;
#15 = PRESENTATION_LAYER_ASSIGNMENT (  '', '', ( #75 ) ) ;
#16 = CARTESIAN_POINT ( 'NONE',  ( 0.0000000000000000000, 6.800000000000000711, -1.499999999999999556 ) ) ;
#17 = FILL_AREA_STYLE ('',( #310 ) ) ;
#18 = LINE ( 'NONE', #185, #35 ) ;
#19 = EDGE_LOOP ( 'NONE', ( #14, #148, #226, #155 ) ) ;
#20 = EDGE_CURVE ( 'NONE', #1, #272, #56, .T. ) ;
#21 = DIRECTION ( 'NONE',  ( 0.0000000000000000000, 0.0000000000000000000, 1.000000000000000000 ) ) ;
#22 = CARTESIAN_POINT ( 'NONE',  ( 0.0000000000000000000, 6.299999999999998046, -2.000000000000000000 ) ) ;
#23 = CYLINDRICAL_SURFACE ( 'NONE', #163, 2.000000000000000000 ) ;
#24 = EDGE_CURVE ( 'NONE', #1, #53, #125, .T. ) ;
#25 = ORIENTED_EDGE ( 'NONE', *, *, #71, .F. ) ;
#26 = DIRECTION ( 'NONE',  ( 0.0000000000000000000, -0.0000000000000000000, 1.000000000000000000 ) ) ;
#27 = DIRECTION ( 'NONE',  ( -0.0000000000000000000, -1.000000000000000000, -0.0000000000000000000 ) ) ;
#28 = CARTESIAN_POINT ( 'NONE',  ( 0.0000000000000000000, 6.800000000000000711, 0.0000000000000000000 ) ) ;
#29 = DIRECTION ( 'NONE',  ( -0.0000000000000000000, 1.000000000000000000, -0.0000000000000000000 ) ) ;
#30 = VERTEX_POINT ( 'NONE', #16 ) ;
#31 = ADVANCED_BREP_SHAPE_REPRESENTATION ( '32995~1', ( #100, #65 ), #4 ) ;
#32 = CIRCLE ( 'NONE', #136, 0.9999999999999997780 ) ;
#33 = CARTESIAN_POINT ( 'NONE',  ( 1.530808498934192310E-16, 0.0000000000000000000, -0.9999999999999997780 ) ) ;
#34 = AXIS2_PLACEMENT_3D ( 'NONE', #287, #64, #121 ) ;
#35 = VECTOR ( 'NONE', #113, 1000.000000000000000 ) ;
#36 = CYLINDRICAL_SURFACE ( 'NONE', #299, 1.500000000000001332 ) ;
#37 = ORIENTED_EDGE ( 'NONE', *, *, #20, .F. ) ;
#38 = EDGE_CURVE ( 'NONE', #225, #295, #294, .T. ) ;
#39 = ORIENTED_EDGE ( 'NONE', *, *, #40, .T. ) ;
#40 = EDGE_CURVE ( 'NONE', #30, #53, #235, .T. ) ;
#41 = LINE ( 'NONE', #73, #68 ) ;
#42 = DIRECTION ( 'NONE',  ( -0.0000000000000000000, -1.000000000000000000, -0.0000000000000000000 ) ) ;
#43 = VERTEX_POINT ( 'NONE', #276 ) ;
#44 = CARTESIAN_POINT ( 'NONE',  ( 0.0000000000000000000, 6.800000000000000711, 0.0000000000000000000 ) ) ;
#45 = FACE_OUTER_BOUND ( 'NONE', #8, .T. ) ;
#46 = MECHANICAL_DESIGN_GEOMETRIC_PRESENTATION_REPRESENTATION (  '', ( #75 ), #201 ) ;
#47 = LINE ( 'NONE', #252, #316 ) ;
#48 = ORIENTED_EDGE ( 'NONE', *, *, #277, .T. ) ;
#49 = CIRCLE ( 'NONE', #219, 1.500000000000001332 ) ;
#50 = CARTESIAN_POINT ( 'NONE',  ( 0.0000000000000000000, 4.000000000000000000, 0.0000000000000000000 ) ) ;
#51 = SURFACE_SIDE_STYLE ('',( #239 ) ) ;
#52 = EDGE_CURVE ( 'NONE', #225, #202, #47, .T. ) ;
#53 = VERTEX_POINT ( 'NONE', #22 ) ;
#54 = ADVANCED_FACE ( 'NONE', ( #111 ), #174, .T. ) ;
#55 = EDGE_CURVE ( 'NONE', #295, #247, #191, .T. ) ;
#56 = LINE ( 'NONE', #269, #228 ) ;
#57 =( LENGTH_UNIT ( ) NAMED_UNIT ( * ) SI_UNIT ( .MILLI., .METRE. ) );
#58 = DIRECTION ( 'NONE',  ( 0.0000000000000000000, 0.0000000000000000000, 1.000000000000000000 ) ) ;
#59 = ADVANCED_FACE ( 'NONE', ( #166, #303 ), #173, .F. ) ;
#60 = CARTESIAN_POINT ( 'NONE',  ( 0.0000000000000000000, 4.000000000000000000, -2.000000000000000000 ) ) ;
#61 = DIRECTION ( 'NONE',  ( -0.0000000000000000000, -1.000000000000000000, -0.0000000000000000000 ) ) ;
#62 = CARTESIAN_POINT ( 'NONE',  ( 0.0000000000000000000, 0.0000000000000000000, 0.0000000000000000000 ) ) ;
#63 = DIRECTION ( 'NONE',  ( 0.0000000000000000000, 0.0000000000000000000, 1.000000000000000000 ) ) ;
#64 = DIRECTION ( 'NONE',  ( 0.0000000000000000000, -1.000000000000000000, 0.0000000000000000000 ) ) ;
#65 = AXIS2_PLACEMENT_3D ( 'NONE', #62, #63, #186 ) ;
#66 = CARTESIAN_POINT ( 'NONE',  ( 0.0000000000000000000, 6.800000000000000711, 0.0000000000000000000 ) ) ;
#67 = CARTESIAN_POINT ( 'NONE',  ( 0.0000000000000000000, 0.4999999999999995559, -1.500000000000001332 ) ) ;
#68 = VECTOR ( 'NONE', #27, 1000.000000000000000 ) ;
#69 = AXIS2_PLACEMENT_3D ( 'NONE', #270, #175, #26 ) ;
#70 = ORIENTED_EDGE ( 'NONE', *, *, #208, .F. ) ;
#71 = EDGE_CURVE ( 'NONE', #244, #298, #32, .T. ) ;
#72 = CARTESIAN_POINT ( 'NONE',  ( 0.0000000000000000000, 0.4999999999999995559, 0.0000000000000000000 ) ) ;
#73 = CARTESIAN_POINT ( 'NONE',  ( 0.0000000000000000000, 6.800000000000000711, -2.000000000000000000 ) ) ;
#74 = EDGE_LOOP ( 'NONE', ( #37, #188, #291, #243 ) ) ;
#75 = STYLED_ITEM ( 'NONE', ( #170 ), #100 ) ;
#76 = ADVANCED_FACE ( 'NONE', ( #178 ), #288, .T. ) ;
#77 =( NAMED_UNIT ( * ) PLANE_ANGLE_UNIT ( ) SI_UNIT ( $, .RADIAN. ) );
#78 = DIRECTION ( 'NONE',  ( 0.0000000000000000000, 1.000000000000000000, 0.0000000000000000000 ) ) ;
#79 = ORIENTED_EDGE ( 'NONE', *, *, #52, .F. ) ;
#80 = DIRECTION ( 'NONE',  ( 0.0000000000000000000, 0.0000000000000000000, 1.000000000000000000 ) ) ;
#81 = DIRECTION ( 'NONE',  ( 0.0000000000000000000, 1.000000000000000000, 0.0000000000000000000 ) ) ;
#82 = AXIS2_PLACEMENT_3D ( 'NONE', #319, #286, #146 ) ;
#83 = ORIENTED_EDGE ( 'NONE', *, *, #179, .T. ) ;
#84 = SURFACE_SIDE_STYLE ('',( #116 ) ) ;
#85 = LINE ( 'NONE', #134, #268 ) ;
#86 = PRODUCT_DEFINITION_FORMATION_WITH_SPECIFIED_SOURCE ( 'ANY', '', #320, .NOT_KNOWN. ) ;
#87 = CARTESIAN_POINT ( 'NONE',  ( 0.0000000000000000000, 6.299999999999998046, 0.0000000000000000000 ) ) ;
#88 = EDGE_CURVE ( 'NONE', #202, #247, #49, .T. ) ;
#89 = DIRECTION ( 'NONE',  ( 8.659560562354951347E-17, 0.7071067811865462405, -0.7071067811865489050 ) ) ;
#90 = ORIENTED_EDGE ( 'NONE', *, *, #193, .T. ) ;
#91 = CARTESIAN_POINT ( 'NONE',  ( 0.0000000000000000000, 0.0000000000000000000, 0.0000000000000000000 ) ) ;
#92 = DIRECTION ( 'NONE',  ( -0.0000000000000000000, -1.000000000000000000, -0.0000000000000000000 ) ) ;
#93 = DIRECTION ( 'NONE',  ( 0.0000000000000000000, 0.0000000000000000000, 1.000000000000000000 ) ) ;
#94 = PRESENTATION_STYLE_ASSIGNMENT (( #211 ) ) ;
#95 = CIRCLE ( 'NONE', #232, 1.499999999999999556 ) ;
#96 = AXIS2_PLACEMENT_3D ( 'NONE', #28, #296, #200 ) ;
#97 = ORIENTED_EDGE ( 'NONE', *, *, #71, .T. ) ;
#98 = ORIENTED_EDGE ( 'NONE', *, *, #140, .T. ) ;
#99 = DIRECTION ( 'NONE',  ( 0.0000000000000000000, 0.0000000000000000000, 1.000000000000000000 ) ) ;
#100 = MANIFOLD_SOLID_BREP ( 'Fase1', #221 ) ;
#101 = VECTOR ( 'NONE', #131, 1000.000000000000000 ) ;
#102 = DIRECTION ( 'NONE',  ( 0.0000000000000000000, 0.0000000000000000000, -1.000000000000000000 ) ) ;
#103 = AXIS2_PLACEMENT_3D ( 'NONE', #142, #194, #238 ) ;
#104 = FACE_OUTER_BOUND ( 'NONE', #74, .T. ) ;
#105 = PRESENTATION_LAYER_ASSIGNMENT (  '', '', ( #203 ) ) ;
#106 = EDGE_LOOP ( 'NONE', ( #25, #83, #128, #283 ) ) ;
#107 = DIRECTION ( 'NONE',  ( -0.0000000000000000000, -1.000000000000000000, -0.0000000000000000000 ) ) ;
#108 = EDGE_CURVE ( 'NONE', #53, #237, #41, .T. ) ;
#109 = DIRECTION ( 'NONE',  ( 0.0000000000000000000, 0.0000000000000000000, 1.000000000000000000 ) ) ;
#110 = ADVANCED_FACE ( 'NONE', ( #45 ), #36, .T. ) ;
#111 = FACE_OUTER_BOUND ( 'NONE', #19, .T. ) ;
#112 = CARTESIAN_POINT ( 'NONE',  ( 0.0000000000000000000, 4.000000000000000000, 0.0000000000000000000 ) ) ;
#113 = DIRECTION ( 'NONE',  ( 8.659560562354918067E-17, -0.7071067811865487940, 0.7071067811865463515 ) ) ;
#114 = ORIENTED_EDGE ( 'NONE', *, *, #40, .F. ) ;
#115 = DIRECTION ( 'NONE',  ( 0.0000000000000000000, 1.000000000000000000, 0.0000000000000000000 ) ) ;
#116 = SURFACE_STYLE_FILL_AREA ( #17 ) ;
#117 = CIRCLE ( 'NONE', #266, 2.000000000000000000 ) ;
#118 = EDGE_LOOP ( 'NONE', ( #312, #317 ) ) ;
#119 = AXIS2_PLACEMENT_3D ( 'NONE', #91, #195, #93 ) ;
#120 = DIRECTION ( 'NONE',  ( 0.0000000000000000000, -0.0000000000000000000, 1.000000000000000000 ) ) ;
#121 = DIRECTION ( 'NONE',  ( 0.0000000000000000000, 0.0000000000000000000, -1.000000000000000000 ) ) ;
#122 = FACE_OUTER_BOUND ( 'NONE', #212, .T. ) ;
#123 = AXIS2_PLACEMENT_3D ( 'NONE', #112, #278, #58 ) ;
#124 = PRODUCT_DEFINITION ( 'UNKNOWN', '', #86, #138 ) ;
#125 = CIRCLE ( 'NONE', #213, 2.000000000000000000 ) ;
#126 = COLOUR_RGB ( '',0.2509803921568627416, 0.2509803921568627416, 0.2509803921568627416 ) ;
#127 = UNCERTAINTY_MEASURE_WITH_UNIT (LENGTH_MEASURE( 1.000000000000000082E-05 ), #7, 'distance_accuracy_value', 'NONE');
#128 = ORIENTED_EDGE ( 'NONE', *, *, #141, .F. ) ;
#129 = AXIS2_PLACEMENT_3D ( 'NONE', #44, #318, #216 ) ;
#130 = CONICAL_SURFACE ( 'NONE', #149, 1.499999999999999556, 0.7853981633974466137 ) ;
#131 = DIRECTION ( 'NONE',  ( 0.0000000000000000000, -0.7071067811865487940, -0.7071067811865463515 ) ) ;
#132 = ADVANCED_FACE ( 'NONE', ( #177 ), #248, .T. ) ;
#133 = CARTESIAN_POINT ( 'NONE',  ( 0.0000000000000000000, 4.000000000000000000, 0.0000000000000000000 ) ) ;
#134 = CARTESIAN_POINT ( 'NONE',  ( 0.0000000000000000000, 0.4999999999999995559, 1.500000000000001332 ) ) ;
#135 = APPLICATION_PROTOCOL_DEFINITION ( 'draft international standard', 'automotive_design', 1998, #159 ) ;
#136 = AXIS2_PLACEMENT_3D ( 'NONE', #240, #92, #109 ) ;
#137 = APPLICATION_CONTEXT ( 'automotive_design' ) ;
#138 = PRODUCT_DEFINITION_CONTEXT ( 'detailed design', #137, 'design' ) ;
#139 = ORIENTED_EDGE ( 'NONE', *, *, #88, .F. ) ;
#140 = EDGE_CURVE ( 'NONE', #53, #1, #117, .T. ) ;
#141 = EDGE_CURVE ( 'NONE', #247, #202, #231, .T. ) ;
#142 = CARTESIAN_POINT ( 'NONE',  ( 0.0000000000000000000, 0.4999999999999995559, 0.0000000000000000000 ) ) ;
#143 = CARTESIAN_POINT ( 'NONE',  ( 1.836970198721031413E-16, 0.4999999999999995559, -1.500000000000001332 ) ) ;
#144 = FACE_OUTER_BOUND ( 'NONE', #215, .T. ) ;
#145 = CARTESIAN_POINT ( 'NONE',  ( 0.0000000000000000000, 6.299999999999998046, 0.0000000000000000000 ) ) ;
#146 = DIRECTION ( 'NONE',  ( 0.0000000000000000000, 0.0000000000000000000, -1.000000000000000000 ) ) ;
#147 = FILL_AREA_STYLE ('',( #5 ) ) ;
#148 = ORIENTED_EDGE ( 'NONE', *, *, #38, .F. ) ;
#149 = AXIS2_PLACEMENT_3D ( 'NONE', #66, #169, #196 ) ;
#150 = EDGE_LOOP ( 'NONE', ( #250, #90 ) ) ;
#151 = AXIS2_PLACEMENT_3D ( 'NONE', #184, #81, #255 ) ;
#152 = CIRCLE ( 'NONE', #189, 1.500000000000001332 ) ;
#153 = DIRECTION ( 'NONE',  ( 0.0000000000000000000, 0.0000000000000000000, 1.000000000000000000 ) ) ;
#154 = ADVANCED_FACE ( 'NONE', ( #104 ), #160, .T. ) ;
#155 = ORIENTED_EDGE ( 'NONE', *, *, #88, .T. ) ;
#156 = DIRECTION ( 'NONE',  ( 0.0000000000000000000, 0.0000000000000000000, 1.000000000000000000 ) ) ;
#157 = COLOUR_RGB ( '',0.2509803921568627416, 0.2509803921568627416, 0.2509803921568627416 ) ;
#158 =( NAMED_UNIT ( * ) PLANE_ANGLE_UNIT ( ) SI_UNIT ( $, .RADIAN. ) );
#159 = APPLICATION_CONTEXT ( 'automotive_design' ) ;
#160 = CYLINDRICAL_SURFACE ( 'NONE', #129, 2.000000000000000000 ) ;
#161 =( LENGTH_UNIT ( ) NAMED_UNIT ( * ) SI_UNIT ( .MILLI., .METRE. ) );
#162 = ORIENTED_EDGE ( 'NONE', *, *, #236, .T. ) ;
#163 = AXIS2_PLACEMENT_3D ( 'NONE', #229, #61, #12 ) ;
#164 = ORIENTED_EDGE ( 'NONE', *, *, #140, .F. ) ;
#165 = DIRECTION ( 'NONE',  ( 0.0000000000000000000, 0.0000000000000000000, 1.000000000000000000 ) ) ;
#166 = FACE_BOUND ( 'NONE', #300, .T. ) ;
#167 = CARTESIAN_POINT ( 'NONE',  ( 1.836970198721031413E-16, 4.000000000000000000, 1.500000000000001332 ) ) ;
#168 = ORIENTED_EDGE ( 'NONE', *, *, #256, .T. ) ;
#169 = DIRECTION ( 'NONE',  ( 0.0000000000000000000, -1.000000000000000000, 0.0000000000000000000 ) ) ;
#170 = PRESENTATION_STYLE_ASSIGNMENT (( #273 ) ) ;
#171 = AXIS2_PLACEMENT_3D ( 'NONE', #190, #29, #153 ) ;
#172 = CIRCLE ( 'NONE', #119, 0.9999999999999997780 ) ;
#173 = PLANE ( 'NONE',  #69 ) ;
#174 = CYLINDRICAL_SURFACE ( 'NONE', #82, 1.500000000000001332 ) ;
#175 = DIRECTION ( 'NONE',  ( 0.0000000000000000000, 1.000000000000000000, 0.0000000000000000000 ) ) ;
#176 = ORIENTED_EDGE ( 'NONE', *, *, #193, .F. ) ;
#177 = FACE_OUTER_BOUND ( 'NONE', #150, .T. ) ;
#178 = FACE_OUTER_BOUND ( 'NONE', #106, .T. ) ;
#179 = EDGE_CURVE ( 'NONE', #244, #202, #290, .T. ) ;
#180 = AXIS2_PLACEMENT_3D ( 'NONE', #305, #78, #11 ) ;
#181 = VECTOR ( 'NONE', #42, 1000.000000000000000 ) ;
#182 = CARTESIAN_POINT ( 'NONE',  ( 0.0000000000000000000, 4.000000000000000000, 0.0000000000000000000 ) ) ;
#183 = EDGE_LOOP ( 'NONE', ( #98, #233, #162, #267 ) ) ;
#184 = CARTESIAN_POINT ( 'NONE',  ( 0.0000000000000000000, 4.000000000000000000, 0.0000000000000000000 ) ) ;
#185 = CARTESIAN_POINT ( 'NONE',  ( 1.836970198721029441E-16, 6.800000000000000711, 1.499999999999999556 ) ) ;
#186 = DIRECTION ( 'NONE',  ( 1.000000000000000000, 0.0000000000000000000, 0.0000000000000000000 ) ) ;
#187 = FACE_OUTER_BOUND ( 'NONE', #220, .T. ) ;
#188 = ORIENTED_EDGE ( 'NONE', *, *, #24, .T. ) ;
#189 = AXIS2_PLACEMENT_3D ( 'NONE', #182, #115, #80 ) ;
#190 = CARTESIAN_POINT ( 'NONE',  ( 0.0000000000000000000, 0.4999999999999995559, 0.0000000000000000000 ) ) ;
#191 = LINE ( 'NONE', #167, #181 ) ;
#192 = DIRECTION ( 'NONE',  ( 0.0000000000000000000, 0.0000000000000000000, 1.000000000000000000 ) ) ;
#193 = EDGE_CURVE ( 'NONE', #43, #30, #95, .T. ) ;
#194 = DIRECTION ( 'NONE',  ( -0.0000000000000000000, 1.000000000000000000, -0.0000000000000000000 ) ) ;
#195 = DIRECTION ( 'NONE',  ( -0.0000000000000000000, -1.000000000000000000, -0.0000000000000000000 ) ) ;
#196 = DIRECTION ( 'NONE',  ( 0.0000000000000000000, 0.0000000000000000000, -1.000000000000000000 ) ) ;
#197 = ORIENTED_EDGE ( 'NONE', *, *, #55, .T. ) ;
#198 = AXIS2_PLACEMENT_3D ( 'NONE', #133, #304, #156 ) ;
#199 =( NAMED_UNIT ( * ) PLANE_ANGLE_UNIT ( ) SI_UNIT ( $, .RADIAN. ) );
#200 = DIRECTION ( 'NONE',  ( 0.0000000000000000000, -0.0000000000000000000, 1.000000000000000000 ) ) ;
#201 =( GEOMETRIC_REPRESENTATION_CONTEXT ( 3 ) GLOBAL_UNCERTAINTY_ASSIGNED_CONTEXT ( ( #127 ) ) GLOBAL_UNIT_ASSIGNED_CONTEXT ( ( #7, #199, #249 ) ) REPRESENTATION_CONTEXT ( 'NONE', 'WORKASPACE' ) );
#202 = VERTEX_POINT ( 'NONE', #67 ) ;
#203 = STYLED_ITEM ( 'NONE', ( #94 ), #31 ) ;
#204 = UNCERTAINTY_MEASURE_WITH_UNIT (LENGTH_MEASURE( 1.000000000000000082E-05 ), #57, 'distance_accuracy_value', 'NONE');
#205 = CARTESIAN_POINT ( 'NONE',  ( 0.0000000000000000000, 6.800000000000000711, -1.499999999999999556 ) ) ;
#206 = CARTESIAN_POINT ( 'NONE',  ( 1.836970198721031413E-16, 4.000000000000000000, 1.500000000000001332 ) ) ;
#207 = ADVANCED_FACE ( 'NONE', ( #187 ), #214, .F. ) ;
#208 = EDGE_CURVE ( 'NONE', #298, #244, #172, .T. ) ;
#209 = ORIENTED_EDGE ( 'NONE', *, *, #277, .F. ) ;
#210 = CARTESIAN_POINT ( 'NONE',  ( 1.836970198721031413E-16, 0.4999999999999995559, 1.500000000000001332 ) ) ;
#211 = SURFACE_STYLE_USAGE ( .BOTH. , #84 ) ;
#212 = EDGE_LOOP ( 'NONE', ( #176, #48, #164, #114 ) ) ;
#213 = AXIS2_PLACEMENT_3D ( 'NONE', #87, #261, #314 ) ;
#214 = PLANE ( 'NONE',  #3 ) ;
#215 = EDGE_LOOP ( 'NONE', ( #279, #70, #168, #139 ) ) ;
#216 = DIRECTION ( 'NONE',  ( 0.0000000000000000000, 0.0000000000000000000, -1.000000000000000000 ) ) ;
#217 = CARTESIAN_POINT ( 'NONE',  ( 0.0000000000000000000, 0.4999999999999995559, 0.0000000000000000000 ) ) ;
#218 = DIRECTION ( 'NONE',  ( 0.0000000000000000000, 1.000000000000000000, 0.0000000000000000000 ) ) ;
#219 = AXIS2_PLACEMENT_3D ( 'NONE', #217, #265, #192 ) ;
#220 = EDGE_LOOP ( 'NONE', ( #230, #97 ) ) ;
#221 = CLOSED_SHELL ( 'NONE', ( #76, #223, #254, #110, #54, #207, #154, #132, #59, #227, #9 ) ) ;
#222 = DIRECTION ( 'NONE',  ( -0.0000000000000000000, -1.000000000000000000, -0.0000000000000000000 ) ) ;
#223 = ADVANCED_FACE ( 'NONE', ( #122 ), #281, .T. ) ;
#224 = ORIENTED_EDGE ( 'NONE', *, *, #141, .T. ) ;
#225 = VERTEX_POINT ( 'NONE', #285 ) ;
#226 = ORIENTED_EDGE ( 'NONE', *, *, #52, .T. ) ;
#227 = ADVANCED_FACE ( 'NONE', ( #309 ), #130, .T. ) ;
#228 = VECTOR ( 'NONE', #6, 1000.000000000000000 ) ;
#229 = CARTESIAN_POINT ( 'NONE',  ( 0.0000000000000000000, 6.800000000000000711, 0.0000000000000000000 ) ) ;
#230 = ORIENTED_EDGE ( 'NONE', *, *, #208, .T. ) ;
#231 = CIRCLE ( 'NONE', #103, 1.500000000000001332 ) ;
#232 = AXIS2_PLACEMENT_3D ( 'NONE', #264, #218, #165 ) ;
#233 = ORIENTED_EDGE ( 'NONE', *, *, #20, .T. ) ;
#234 = CARTESIAN_POINT ( 'NONE',  ( 0.0000000000000000000, 0.0000000000000000000, 0.0000000000000000000 ) ) ;
#235 = LINE ( 'NONE', #205, #101 ) ;
#236 = EDGE_CURVE ( 'NONE', #272, #237, #253, .T. ) ;
#237 = VERTEX_POINT ( 'NONE', #60 ) ;
#238 = DIRECTION ( 'NONE',  ( 0.0000000000000000000, 0.0000000000000000000, 1.000000000000000000 ) ) ;
#239 = SURFACE_STYLE_FILL_AREA ( #147 ) ;
#240 = CARTESIAN_POINT ( 'NONE',  ( 0.0000000000000000000, 0.0000000000000000000, 0.0000000000000000000 ) ) ;
#241 = DIRECTION ( 'NONE',  ( 0.0000000000000000000, -1.000000000000000000, 0.0000000000000000000 ) ) ;
#242 = SHAPE_DEFINITION_REPRESENTATION ( #2, #31 ) ;
#243 = ORIENTED_EDGE ( 'NONE', *, *, #315, .T. ) ;
#244 = VERTEX_POINT ( 'NONE', #33 ) ;
#245 = CONICAL_SURFACE ( 'NONE', #251, 1.500000000000001332, 0.7853981633974502774 ) ;
#246 = DIRECTION ( 'NONE',  ( -0.0000000000000000000, 1.000000000000000000, -0.0000000000000000000 ) ) ;
#247 = VERTEX_POINT ( 'NONE', #210 ) ;
#248 = PLANE ( 'NONE',  #96 ) ;
#249 =( NAMED_UNIT ( * ) SI_UNIT ( $, .STERADIAN. ) SOLID_ANGLE_UNIT ( ) );
#250 = ORIENTED_EDGE ( 'NONE', *, *, #274, .T. ) ;
#251 = AXIS2_PLACEMENT_3D ( 'NONE', #72, #246, #99 ) ;
#252 = CARTESIAN_POINT ( 'NONE',  ( 0.0000000000000000000, 4.000000000000000000, -1.500000000000001332 ) ) ;
#253 = CIRCLE ( 'NONE', #151, 2.000000000000000000 ) ;
#254 = ADVANCED_FACE ( 'NONE', ( #262 ), #23, .T. ) ;
#255 = DIRECTION ( 'NONE',  ( 0.0000000000000000000, 0.0000000000000000000, 1.000000000000000000 ) ) ;
#256 = EDGE_CURVE ( 'NONE', #298, #247, #85, .T. ) ;
#257 = ORIENTED_EDGE ( 'NONE', *, *, #24, .F. ) ;
#258 = CARTESIAN_POINT ( 'NONE',  ( 0.0000000000000000000, 0.0000000000000000000, 0.9999999999999997780 ) ) ;
#259 = ORIENTED_EDGE ( 'NONE', *, *, #271, .F. ) ;
#260 = EDGE_LOOP ( 'NONE', ( #209, #313, #39, #257 ) ) ;
#261 = DIRECTION ( 'NONE',  ( 0.0000000000000000000, -1.000000000000000000, 0.0000000000000000000 ) ) ;
#262 = FACE_OUTER_BOUND ( 'NONE', #183, .T. ) ;
#263 = DIRECTION ( 'NONE',  ( 0.0000000000000000000, 1.000000000000000000, 0.0000000000000000000 ) ) ;
#264 = CARTESIAN_POINT ( 'NONE',  ( 0.0000000000000000000, 6.800000000000000711, 0.0000000000000000000 ) ) ;
#265 = DIRECTION ( 'NONE',  ( -0.0000000000000000000, 1.000000000000000000, -0.0000000000000000000 ) ) ;
#266 = AXIS2_PLACEMENT_3D ( 'NONE', #145, #241, #21 ) ;
#267 = ORIENTED_EDGE ( 'NONE', *, *, #108, .F. ) ;
#268 = VECTOR ( 'NONE', #307, 1000.000000000000000 ) ;
#269 = CARTESIAN_POINT ( 'NONE',  ( 2.449293598294706414E-16, 6.800000000000000711, 2.000000000000000000 ) ) ;
#270 = CARTESIAN_POINT ( 'NONE',  ( 0.0000000000000000000, 4.000000000000000000, 0.0000000000000000000 ) ) ;
#271 = EDGE_CURVE ( 'NONE', #295, #225, #152, .T. ) ;
#272 = VERTEX_POINT ( 'NONE', #280 ) ;
#273 = SURFACE_STYLE_USAGE ( .BOTH. , #51 ) ;
#274 = EDGE_CURVE ( 'NONE', #30, #43, #275, .T. ) ;
#275 = CIRCLE ( 'NONE', #180, 1.499999999999999556 ) ;
#276 = CARTESIAN_POINT ( 'NONE',  ( 2.143131898507867804E-16, 6.800000000000000711, 1.499999999999999556 ) ) ;
#277 = EDGE_CURVE ( 'NONE', #43, #1, #18, .T. ) ;
#278 = DIRECTION ( 'NONE',  ( 0.0000000000000000000, 1.000000000000000000, 0.0000000000000000000 ) ) ;
#279 = ORIENTED_EDGE ( 'NONE', *, *, #179, .F. ) ;
#280 = CARTESIAN_POINT ( 'NONE',  ( 2.449293598294706414E-16, 4.000000000000000000, 2.000000000000000000 ) ) ;
#281 = CONICAL_SURFACE ( 'NONE', #34, 1.499999999999999556, 0.7853981633974466137 ) ;
#282 = APPLICATION_PROTOCOL_DEFINITION ( 'draft international standard', 'automotive_design', 1998, #137 ) ;
#283 = ORIENTED_EDGE ( 'NONE', *, *, #256, .F. ) ;
#284 = CIRCLE ( 'NONE', #198, 2.000000000000000000 ) ;
#285 = CARTESIAN_POINT ( 'NONE',  ( 0.0000000000000000000, 4.000000000000000000, -1.500000000000001332 ) ) ;
#286 = DIRECTION ( 'NONE',  ( -0.0000000000000000000, -1.000000000000000000, -0.0000000000000000000 ) ) ;
#287 = CARTESIAN_POINT ( 'NONE',  ( 0.0000000000000000000, 6.800000000000000711, 0.0000000000000000000 ) ) ;
#288 = CONICAL_SURFACE ( 'NONE', #171, 1.500000000000001332, 0.7853981633974502774 ) ;
#289 =( GEOMETRIC_REPRESENTATION_CONTEXT ( 3 ) GLOBAL_UNCERTAINTY_ASSIGNED_CONTEXT ( ( #292 ) ) GLOBAL_UNIT_ASSIGNED_CONTEXT ( ( #161, #158, #308 ) ) REPRESENTATION_CONTEXT ( 'NONE', 'WORKASPACE' ) );
#290 = LINE ( 'NONE', #143, #297 ) ;
#291 = ORIENTED_EDGE ( 'NONE', *, *, #108, .T. ) ;
#292 = UNCERTAINTY_MEASURE_WITH_UNIT (LENGTH_MEASURE( 1.000000000000000082E-05 ), #161, 'distance_accuracy_value', 'NONE');
#293 = CARTESIAN_POINT ( 'NONE',  ( 2.449293598294706414E-16, 6.299999999999998046, 2.000000000000000000 ) ) ;
#294 = CIRCLE ( 'NONE', #123, 1.500000000000001332 ) ;
#295 = VERTEX_POINT ( 'NONE', #206 ) ;
#296 = DIRECTION ( 'NONE',  ( 0.0000000000000000000, 1.000000000000000000, 0.0000000000000000000 ) ) ;
#297 = VECTOR ( 'NONE', #89, 1000.000000000000000 ) ;
#298 = VERTEX_POINT ( 'NONE', #258 ) ;
#299 = AXIS2_PLACEMENT_3D ( 'NONE', #50, #222, #102 ) ;
#300 = EDGE_LOOP ( 'NONE', ( #306, #10 ) ) ;
#301 = MECHANICAL_DESIGN_GEOMETRIC_PRESENTATION_REPRESENTATION (  '', ( #203 ), #289 ) ;
#302 =( NAMED_UNIT ( * ) SI_UNIT ( $, .STERADIAN. ) SOLID_ANGLE_UNIT ( ) );
#303 = FACE_OUTER_BOUND ( 'NONE', #118, .T. ) ;
#304 = DIRECTION ( 'NONE',  ( 0.0000000000000000000, 1.000000000000000000, 0.0000000000000000000 ) ) ;
#305 = CARTESIAN_POINT ( 'NONE',  ( 0.0000000000000000000, 6.800000000000000711, 0.0000000000000000000 ) ) ;
#306 = ORIENTED_EDGE ( 'NONE', *, *, #38, .T. ) ;
#307 = DIRECTION ( 'NONE',  ( 0.0000000000000000000, 0.7071067811865462405, 0.7071067811865489050 ) ) ;
#308 =( NAMED_UNIT ( * ) SI_UNIT ( $, .STERADIAN. ) SOLID_ANGLE_UNIT ( ) );
#309 = FACE_OUTER_BOUND ( 'NONE', #260, .T. ) ;
#310 = FILL_AREA_STYLE_COLOUR ( '', #126 ) ;
#311 = PRODUCT_RELATED_PRODUCT_CATEGORY ( 'part', '', ( #320 ) ) ;
#312 = ORIENTED_EDGE ( 'NONE', *, *, #315, .F. ) ;
#313 = ORIENTED_EDGE ( 'NONE', *, *, #274, .F. ) ;
#314 = DIRECTION ( 'NONE',  ( 0.0000000000000000000, 0.0000000000000000000, 1.000000000000000000 ) ) ;
#315 = EDGE_CURVE ( 'NONE', #237, #272, #284, .T. ) ;
#316 = VECTOR ( 'NONE', #107, 1000.000000000000000 ) ;
#317 = ORIENTED_EDGE ( 'NONE', *, *, #236, .F. ) ;
#318 = DIRECTION ( 'NONE',  ( -0.0000000000000000000, -1.000000000000000000, -0.0000000000000000000 ) ) ;
#319 = CARTESIAN_POINT ( 'NONE',  ( 0.0000000000000000000, 4.000000000000000000, 0.0000000000000000000 ) ) ;
#320 = PRODUCT ( '32995~1', '32995~1', '', ( #13 ) ) ;
ENDSEC;
END-ISO-10303-21;
