ISO-10303-21;
HEADER;
FILE_DESCRIPTION (( 'STEP AP214' ),
    '1' );
FILE_NAME ('3161~5.STEP',
    '2017-08-29T08:02:59',
    ( '' ),
    ( '' ),
    'SwSTEP 2.0',
    'SolidWorks 2016',
    '' );
FILE_SCHEMA (( 'AUTOMOTIVE_DESIGN' ));
ENDSEC;

DATA;
#1 = CIRCLE ( 'NONE', #301, 2.500000000000000000 ) ;
#2 = EDGE_CURVE ( 'NONE', #96, #17, #255, .T. ) ;
#3 = DIRECTION ( 'NONE',  ( -0.0000000000000000000, -1.000000000000000000, -0.0000000000000000000 ) ) ;
#4 = DIRECTION ( 'NONE',  ( 0.0000000000000000000, 1.000000000000000000, 0.0000000000000000000 ) ) ;
#5 = CIRCLE ( 'NONE', #69, 2.500000000000000000 ) ;
#6 = PRESENTATION_STYLE_ASSIGNMENT (( #280 ) ) ;
#7 = LINE ( 'NONE', #89, #204 ) ;
#8 =( GEOMETRIC_REPRESENTATION_CONTEXT ( 3 ) GLOBAL_UNCERTAINTY_ASSIGNED_CONTEXT ( ( #315 ) ) GLOBAL_UNIT_ASSIGNED_CONTEXT ( ( #216, #143, #170 ) ) REPRESENTATION_CONTEXT ( 'NONE', 'WORKASPACE' ) );
#9 = DIRECTION ( 'NONE',  ( 0.0000000000000000000, -1.000000000000000000, 0.0000000000000000000 ) ) ;
#10 = EDGE_CURVE ( 'NONE', #292, #159, #1, .T. ) ;
#11 = DIRECTION ( 'NONE',  ( -0.0000000000000000000, -1.000000000000000000, -0.0000000000000000000 ) ) ;
#12 = DIRECTION ( 'NONE',  ( -0.0000000000000000000, 1.000000000000000000, -0.0000000000000000000 ) ) ;
#13 = CARTESIAN_POINT ( 'NONE',  ( 0.0000000000000000000, 6.299999999999998000, 0.0000000000000000000 ) ) ;
#14 = CARTESIAN_POINT ( 'NONE',  ( 0.0000000000000000000, 4.000000000000000000, 0.0000000000000000000 ) ) ;
#15 = AXIS2_PLACEMENT_3D ( 'NONE', #83, #240, #111 ) ;
#16 = AXIS2_PLACEMENT_3D ( 'NONE', #258, #210, #62 ) ;
#17 = VERTEX_POINT ( 'NONE', #303 ) ;
#18 = VECTOR ( 'NONE', #162, 1000.000000000000000 ) ;
#19 = ADVANCED_FACE ( 'NONE', ( #56 ), #71, .T. ) ;
#20 = ORIENTED_EDGE ( 'NONE', *, *, #2, .T. ) ;
#21 =( NAMED_UNIT ( * ) PLANE_ANGLE_UNIT ( ) SI_UNIT ( $, .RADIAN. ) );
#22 = SURFACE_SIDE_STYLE ('',( #294 ) ) ;
#23 = ORIENTED_EDGE ( 'NONE', *, *, #139, .T. ) ;
#24 = EDGE_CURVE ( 'NONE', #151, #108, #250, .T. ) ;
#25 = FACE_OUTER_BOUND ( 'NONE', #127, .T. ) ;
#26 = ORIENTED_EDGE ( 'NONE', *, *, #74, .F. ) ;
#27 = VERTEX_POINT ( 'NONE', #106 ) ;
#28 = AXIS2_PLACEMENT_3D ( 'NONE', #215, #309, #168 ) ;
#29 = AXIS2_PLACEMENT_3D ( 'NONE', #195, #113, #308 ) ;
#30 = CARTESIAN_POINT ( 'NONE',  ( 1.836970198721031400E-016, 0.4999999999999995600, -1.500000000000001300 ) ) ;
#31 = CLOSED_SHELL ( 'NONE', ( #183, #19, #256, #152, #49, #126, #115, #306, #169, #36, #224 ) ) ;
#32 = DIRECTION ( 'NONE',  ( -0.0000000000000000000, -1.000000000000000000, -0.0000000000000000000 ) ) ;
#33 = DIRECTION ( 'NONE',  ( -0.0000000000000000000, 1.000000000000000000, -0.0000000000000000000 ) ) ;
#34 = CARTESIAN_POINT ( 'NONE',  ( 0.0000000000000000000, 0.0000000000000000000, 0.0000000000000000000 ) ) ;
#35 = CARTESIAN_POINT ( 'NONE',  ( 0.0000000000000000000, 6.800000000000000700, -2.500000000000000000 ) ) ;
#36 = ADVANCED_FACE ( 'NONE', ( #209 ), #133, .T. ) ;
#37 = VECTOR ( 'NONE', #241, 1000.000000000000000 ) ;
#38 = ORIENTED_EDGE ( 'NONE', *, *, #129, .F. ) ;
#39 = DIRECTION ( 'NONE',  ( 0.0000000000000000000, 0.0000000000000000000, 1.000000000000000000 ) ) ;
#40 = ORIENTED_EDGE ( 'NONE', *, *, #74, .T. ) ;
#41 = DIRECTION ( 'NONE',  ( 0.0000000000000000000, 0.0000000000000000000, 1.000000000000000000 ) ) ;
#42 = PRODUCT_DEFINITION_CONTEXT ( 'detailed design', #171, 'design' ) ;
#43 = STYLED_ITEM ( 'NONE', ( #97 ), #187 ) ;
#44 = EDGE_CURVE ( 'NONE', #159, #292, #188, .T. ) ;
#45 = EDGE_LOOP ( 'NONE', ( #190, #182, #189, #270 ) ) ;
#46 = LINE ( 'NONE', #174, #140 ) ;
#47 = SURFACE_STYLE_FILL_AREA ( #118 ) ;
#48 = ORIENTED_EDGE ( 'NONE', *, *, #10, .T. ) ;
#49 = ADVANCED_FACE ( 'NONE', ( #116 ), #61, .T. ) ;
#50 = PRODUCT_DEFINITION ( 'UNKNOWN', '', #177, #42 ) ;
#51 = AXIS2_PLACEMENT_3D ( 'NONE', #237, #32, #82 ) ;
#52 = VERTEX_POINT ( 'NONE', #110 ) ;
#53 = FACE_OUTER_BOUND ( 'NONE', #285, .T. ) ;
#54 = ORIENTED_EDGE ( 'NONE', *, *, #124, .T. ) ;
#55 = PRODUCT_DEFINITION_SHAPE ( 'NONE', 'NONE',  #50 ) ;
#56 = FACE_OUTER_BOUND ( 'NONE', #305, .T. ) ;
#57 = AXIS2_PLACEMENT_3D ( 'NONE', #34, #213, #107 ) ;
#58 = DIRECTION ( 'NONE',  ( 0.0000000000000000000, 0.0000000000000000000, 1.000000000000000000 ) ) ;
#59 = CYLINDRICAL_SURFACE ( 'NONE', #91, 1.500000000000001300 ) ;
#60 = EDGE_CURVE ( 'NONE', #123, #52, #246, .T. ) ;
#61 = CYLINDRICAL_SURFACE ( 'NONE', #51, 1.500000000000001300 ) ;
#62 = DIRECTION ( 'NONE',  ( 0.0000000000000000000, 0.0000000000000000000, 1.000000000000000000 ) ) ;
#63 = PLANE ( 'NONE',  #131 ) ;
#64 = CARTESIAN_POINT ( 'NONE',  ( 1.836970198721031400E-016, 4.000000000000000000, 1.500000000000001300 ) ) ;
#65 = CARTESIAN_POINT ( 'NONE',  ( 0.0000000000000000000, 6.800000000000000700, 0.0000000000000000000 ) ) ;
#66 = ORIENTED_EDGE ( 'NONE', *, *, #221, .F. ) ;
#67 = ORIENTED_EDGE ( 'NONE', *, *, #44, .F. ) ;
#68 = AXIS2_PLACEMENT_3D ( 'NONE', #275, #4, #286 ) ;
#69 = AXIS2_PLACEMENT_3D ( 'NONE', #145, #312, #149 ) ;
#70 = FACE_OUTER_BOUND ( 'NONE', #164, .T. ) ;
#71 = CONICAL_SURFACE ( 'NONE', #265, 1.999999999999999600, 0.7853981633974466100 ) ;
#72 = DIRECTION ( 'NONE',  ( 0.0000000000000000000, 0.0000000000000000000, 1.000000000000000000 ) ) ;
#73 = STYLED_ITEM ( 'NONE', ( #6 ), #248 ) ;
#74 = EDGE_CURVE ( 'NONE', #27, #159, #320, .T. ) ;
#75 = ORIENTED_EDGE ( 'NONE', *, *, #60, .F. ) ;
#76 = ORIENTED_EDGE ( 'NONE', *, *, #24, .F. ) ;
#77 = MECHANICAL_DESIGN_GEOMETRIC_PRESENTATION_REPRESENTATION (  '', ( #73 ), #8 ) ;
#78 = AXIS2_PLACEMENT_3D ( 'NONE', #13, #121, #41 ) ;
#79 = PLANE ( 'NONE',  #68 ) ;
#80 = DIRECTION ( 'NONE',  ( 0.0000000000000000000, 0.0000000000000000000, -1.000000000000000000 ) ) ;
#81 = ORIENTED_EDGE ( 'NONE', *, *, #139, .F. ) ;
#82 = DIRECTION ( 'NONE',  ( 0.0000000000000000000, 0.0000000000000000000, -1.000000000000000000 ) ) ;
#83 = CARTESIAN_POINT ( 'NONE',  ( 0.0000000000000000000, 6.800000000000000700, 0.0000000000000000000 ) ) ;
#84 = VECTOR ( 'NONE', #192, 1000.000000000000000 ) ;
#85 =( NAMED_UNIT ( * ) PLANE_ANGLE_UNIT ( ) SI_UNIT ( $, .RADIAN. ) );
#86 = DIRECTION ( 'NONE',  ( -0.0000000000000000000, -1.000000000000000000, -0.0000000000000000000 ) ) ;
#87 = DIRECTION ( 'NONE',  ( 0.0000000000000000000, 0.0000000000000000000, 1.000000000000000000 ) ) ;
#88 = DIRECTION ( 'NONE',  ( 0.0000000000000000000, 1.000000000000000000, 0.0000000000000000000 ) ) ;
#89 = CARTESIAN_POINT ( 'NONE',  ( 3.061616997868383100E-016, 6.800000000000000700, 2.500000000000000000 ) ) ;
#90 = ORIENTED_EDGE ( 'NONE', *, *, #298, .T. ) ;
#91 = AXIS2_PLACEMENT_3D ( 'NONE', #14, #199, #261 ) ;
#92 = ORIENTED_EDGE ( 'NONE', *, *, #180, .F. ) ;
#93 = CYLINDRICAL_SURFACE ( 'NONE', #28, 2.500000000000000000 ) ;
#94 = AXIS2_PLACEMENT_3D ( 'NONE', #277, #9, #257 ) ;
#95 = ORIENTED_EDGE ( 'NONE', *, *, #234, .T. ) ;
#96 = VERTEX_POINT ( 'NONE', #200 ) ;
#97 = PRESENTATION_STYLE_ASSIGNMENT (( #295 ) ) ;
#98 = UNCERTAINTY_MEASURE_WITH_UNIT (LENGTH_MEASURE( 1.000000000000000100E-005 ), #141, 'distance_accuracy_value', 'NONE');
#99 = AXIS2_PLACEMENT_3D ( 'NONE', #245, #167, #202 ) ;
#100 = ORIENTED_EDGE ( 'NONE', *, *, #60, .T. ) ;
#101 = FACE_OUTER_BOUND ( 'NONE', #228, .T. ) ;
#102 = ORIENTED_EDGE ( 'NONE', *, *, #221, .T. ) ;
#103 = EDGE_LOOP ( 'NONE', ( #20, #95 ) ) ;
#104 = DIRECTION ( 'NONE',  ( 0.0000000000000000000, -1.000000000000000000, 0.0000000000000000000 ) ) ;
#105 = CARTESIAN_POINT ( 'NONE',  ( 0.0000000000000000000, 0.4999999999999995600, 0.0000000000000000000 ) ) ;
#106 = CARTESIAN_POINT ( 'NONE',  ( 0.0000000000000000000, 6.299999999999998000, -2.500000000000000000 ) ) ;
#107 = DIRECTION ( 'NONE',  ( 1.000000000000000000, 0.0000000000000000000, 0.0000000000000000000 ) ) ;
#108 = VERTEX_POINT ( 'NONE', #239 ) ;
#109 = AXIS2_PLACEMENT_3D ( 'NONE', #65, #122, #175 ) ;
#110 = CARTESIAN_POINT ( 'NONE',  ( 0.0000000000000000000, 4.000000000000000000, -1.500000000000001300 ) ) ;
#111 = DIRECTION ( 'NONE',  ( 0.0000000000000000000, 0.0000000000000000000, 1.000000000000000000 ) ) ;
#112 = FILL_AREA_STYLE_COLOUR ( '', #158 ) ;
#113 = DIRECTION ( 'NONE',  ( 0.0000000000000000000, 1.000000000000000000, 0.0000000000000000000 ) ) ;
#114 = CARTESIAN_POINT ( 'NONE',  ( 3.061616997868383100E-016, 6.299999999999998000, 2.500000000000000000 ) ) ;
#115 = ADVANCED_FACE ( 'NONE', ( #70 ), #203, .T. ) ;
#116 = FACE_OUTER_BOUND ( 'NONE', #134, .T. ) ;
#117 = EDGE_LOOP ( 'NONE', ( #172, #90 ) ) ;
#118 = FILL_AREA_STYLE ('',( #112 ) ) ;
#119 = DIRECTION ( 'NONE',  ( 0.0000000000000000000, -0.0000000000000000000, 1.000000000000000000 ) ) ;
#120 = APPLICATION_PROTOCOL_DEFINITION ( 'draft international standard', 'automotive_design', 1998, #171 ) ;
#121 = DIRECTION ( 'NONE',  ( 0.0000000000000000000, -1.000000000000000000, 0.0000000000000000000 ) ) ;
#122 = DIRECTION ( 'NONE',  ( 0.0000000000000000000, 1.000000000000000000, 0.0000000000000000000 ) ) ;
#123 = VERTEX_POINT ( 'NONE', #64 ) ;
#124 = EDGE_CURVE ( 'NONE', #52, #123, #260, .T. ) ;
#125 = UNCERTAINTY_MEASURE_WITH_UNIT (LENGTH_MEASURE( 1.000000000000000100E-005 ), #184, 'distance_accuracy_value', 'NONE');
#126 = ADVANCED_FACE ( 'NONE', ( #254 ), #217, .F. ) ;
#127 = EDGE_LOOP ( 'NONE', ( #66, #92, #242, #186 ) ) ;
#128 = FILL_AREA_STYLE_COLOUR ( '', #249 ) ;
#129 = EDGE_CURVE ( 'NONE', #27, #289, #5, .T. ) ;
#130 = CARTESIAN_POINT ( 'NONE',  ( 0.0000000000000000000, 0.4999999999999995600, 0.0000000000000000000 ) ) ;
#131 = AXIS2_PLACEMENT_3D ( 'NONE', #146, #281, #314 ) ;
#132 = EDGE_CURVE ( 'NONE', #289, #27, #310, .T. ) ;
#133 = CONICAL_SURFACE ( 'NONE', #94, 1.999999999999999600, 0.7853981633974466100 ) ;
#134 = EDGE_LOOP ( 'NONE', ( #317, #267, #178, #230 ) ) ;
#135 = MECHANICAL_DESIGN_GEOMETRIC_PRESENTATION_REPRESENTATION (  '', ( #43 ), #233 ) ;
#136 = EDGE_CURVE ( 'NONE', #96, #27, #46, .T. ) ;
#137 = DIRECTION ( 'NONE',  ( 0.0000000000000000000, 0.0000000000000000000, 1.000000000000000000 ) ) ;
#138 = CARTESIAN_POINT ( 'NONE',  ( 0.0000000000000000000, 6.800000000000000700, 0.0000000000000000000 ) ) ;
#139 = EDGE_CURVE ( 'NONE', #289, #292, #7, .T. ) ;
#140 = VECTOR ( 'NONE', #316, 1000.000000000000000 ) ;
#141 =( LENGTH_UNIT ( ) NAMED_UNIT ( * ) SI_UNIT ( .MILLI., .METRE. ) );
#142 = CARTESIAN_POINT ( 'NONE',  ( 0.0000000000000000000, 4.000000000000000000, -1.500000000000001300 ) ) ;
#143 =( NAMED_UNIT ( * ) PLANE_ANGLE_UNIT ( ) SI_UNIT ( $, .RADIAN. ) );
#144 = CARTESIAN_POINT ( 'NONE',  ( 2.449293598294705900E-016, 6.800000000000000700, 1.999999999999999600 ) ) ;
#145 = CARTESIAN_POINT ( 'NONE',  ( 0.0000000000000000000, 6.299999999999998000, 0.0000000000000000000 ) ) ;
#146 = CARTESIAN_POINT ( 'NONE',  ( 0.0000000000000000000, 4.000000000000000000, 0.0000000000000000000 ) ) ;
#147 = DIRECTION ( 'NONE',  ( 0.0000000000000000000, 1.000000000000000000, 0.0000000000000000000 ) ) ;
#148 = FACE_BOUND ( 'NONE', #311, .T. ) ;
#149 = DIRECTION ( 'NONE',  ( 0.0000000000000000000, 0.0000000000000000000, 1.000000000000000000 ) ) ;
#150 =( GEOMETRIC_REPRESENTATION_CONTEXT ( 3 ) GLOBAL_UNCERTAINTY_ASSIGNED_CONTEXT ( ( #98 ) ) GLOBAL_UNIT_ASSIGNED_CONTEXT ( ( #141, #85, #313 ) ) REPRESENTATION_CONTEXT ( 'NONE', 'WORKASPACE' ) );
#151 = VERTEX_POINT ( 'NONE', #263 ) ;
#152 = ADVANCED_FACE ( 'NONE', ( #53 ), #59, .T. ) ;
#153 = ORIENTED_EDGE ( 'NONE', *, *, #274, .F. ) ;
#154 = AXIS2_PLACEMENT_3D ( 'NONE', #273, #12, #163 ) ;
#155 = DIRECTION ( 'NONE',  ( 0.0000000000000000000, 0.0000000000000000000, 1.000000000000000000 ) ) ;
#156 = ORIENTED_EDGE ( 'NONE', *, *, #44, .T. ) ;
#157 = LINE ( 'NONE', #144, #18 ) ;
#158 = COLOUR_RGB ( '',0.7529411764705882200, 0.7529411764705882200, 0.7529411764705882200 ) ;
#159 = VERTEX_POINT ( 'NONE', #218 ) ;
#160 = PRODUCT ( '3161~5', '3161~5', '', ( #166 ) ) ;
#161 = CONICAL_SURFACE ( 'NONE', #191, 1.500000000000001300, 0.7853981633974502800 ) ;
#162 = DIRECTION ( 'NONE',  ( 8.659560562354918100E-017, -0.7071067811865487900, 0.7071067811865463500 ) ) ;
#163 = DIRECTION ( 'NONE',  ( 0.0000000000000000000, 0.0000000000000000000, 1.000000000000000000 ) ) ;
#164 = EDGE_LOOP ( 'NONE', ( #81, #299, #40, #156 ) ) ;
#165 = CARTESIAN_POINT ( 'NONE',  ( 0.0000000000000000000, 0.0000000000000000000, 0.0000000000000000000 ) ) ;
#166 = PRODUCT_CONTEXT ( 'NONE', #307, 'mechanical' ) ;
#167 = DIRECTION ( 'NONE',  ( -0.0000000000000000000, -1.000000000000000000, -0.0000000000000000000 ) ) ;
#168 = DIRECTION ( 'NONE',  ( 0.0000000000000000000, 0.0000000000000000000, -1.000000000000000000 ) ) ;
#169 = ADVANCED_FACE ( 'NONE', ( #148, #201 ), #63, .F. ) ;
#170 =( NAMED_UNIT ( * ) SI_UNIT ( $, .STERADIAN. ) SOLID_ANGLE_UNIT ( ) );
#171 = APPLICATION_CONTEXT ( 'automotive_design' ) ;
#172 = ORIENTED_EDGE ( 'NONE', *, *, #180, .T. ) ;
#173 = ORIENTED_EDGE ( 'NONE', *, *, #10, .F. ) ;
#174 = CARTESIAN_POINT ( 'NONE',  ( 0.0000000000000000000, 6.800000000000000700, -1.999999999999999600 ) ) ;
#175 = DIRECTION ( 'NONE',  ( 0.0000000000000000000, 0.0000000000000000000, 1.000000000000000000 ) ) ;
#176 = FACE_OUTER_BOUND ( 'NONE', #225, .T. ) ;
#177 = PRODUCT_DEFINITION_FORMATION_WITH_SPECIFIED_SOURCE ( 'ANY', '', #160, .NOT_KNOWN. ) ;
#178 = ORIENTED_EDGE ( 'NONE', *, *, #274, .T. ) ;
#179 = LINE ( 'NONE', #279, #268 ) ;
#180 = EDGE_CURVE ( 'NONE', #264, #247, #232, .T. ) ;
#181 = ORIENTED_EDGE ( 'NONE', *, *, #24, .T. ) ;
#182 = ORIENTED_EDGE ( 'NONE', *, *, #2, .F. ) ;
#183 = ADVANCED_FACE ( 'NONE', ( #176 ), #161, .T. ) ;
#184 =( LENGTH_UNIT ( ) NAMED_UNIT ( * ) SI_UNIT ( .MILLI., .METRE. ) );
#185 = FILL_AREA_STYLE ('',( #128 ) ) ;
#186 = ORIENTED_EDGE ( 'NONE', *, *, #208, .F. ) ;
#187 = MANIFOLD_SOLID_BREP ( 'Fase1', #31 ) ;
#188 = CIRCLE ( 'NONE', #16, 2.500000000000000000 ) ;
#189 = ORIENTED_EDGE ( 'NONE', *, *, #136, .T. ) ;
#190 = ORIENTED_EDGE ( 'NONE', *, *, #288, .F. ) ;
#191 = AXIS2_PLACEMENT_3D ( 'NONE', #130, #296, #72 ) ;
#192 = DIRECTION ( 'NONE',  ( -0.0000000000000000000, -1.000000000000000000, -0.0000000000000000000 ) ) ;
#193 = DIRECTION ( 'NONE',  ( 8.659560562354951300E-017, 0.7071067811865462400, -0.7071067811865489100 ) ) ;
#194 = CARTESIAN_POINT ( 'NONE',  ( 0.0000000000000000000, 4.000000000000000000, 0.0000000000000000000 ) ) ;
#195 = CARTESIAN_POINT ( 'NONE',  ( 0.0000000000000000000, 4.000000000000000000, 0.0000000000000000000 ) ) ;
#196 = CARTESIAN_POINT ( 'NONE',  ( 0.0000000000000000000, 0.0000000000000000000, 0.9999999999999997800 ) ) ;
#197 = VECTOR ( 'NONE', #86, 1000.000000000000000 ) ;
#198 = CARTESIAN_POINT ( 'NONE',  ( 0.0000000000000000000, 0.0000000000000000000, 0.0000000000000000000 ) ) ;
#199 = DIRECTION ( 'NONE',  ( -0.0000000000000000000, -1.000000000000000000, -0.0000000000000000000 ) ) ;
#200 = CARTESIAN_POINT ( 'NONE',  ( 0.0000000000000000000, 6.800000000000000700, -1.999999999999999600 ) ) ;
#201 = FACE_OUTER_BOUND ( 'NONE', #222, .T. ) ;
#202 = DIRECTION ( 'NONE',  ( 0.0000000000000000000, 0.0000000000000000000, -1.000000000000000000 ) ) ;
#203 = CYLINDRICAL_SURFACE ( 'NONE', #99, 2.500000000000000000 ) ;
#204 = VECTOR ( 'NONE', #244, 1000.000000000000000 ) ;
#205 = AXIS2_PLACEMENT_3D ( 'NONE', #105, #33, #87 ) ;
#206 =( NAMED_UNIT ( * ) SI_UNIT ( $, .STERADIAN. ) SOLID_ANGLE_UNIT ( ) );
#207 = AXIS2_PLACEMENT_3D ( 'NONE', #243, #147, #39 ) ;
#208 = EDGE_CURVE ( 'NONE', #108, #151, #229, .T. ) ;
#209 = FACE_OUTER_BOUND ( 'NONE', #45, .T. ) ;
#210 = DIRECTION ( 'NONE',  ( 0.0000000000000000000, 1.000000000000000000, 0.0000000000000000000 ) ) ;
#211 = CARTESIAN_POINT ( 'NONE',  ( 0.0000000000000000000, 0.4999999999999995600, 0.0000000000000000000 ) ) ;
#212 = ORIENTED_EDGE ( 'NONE', *, *, #136, .F. ) ;
#213 = DIRECTION ( 'NONE',  ( 0.0000000000000000000, 0.0000000000000000000, 1.000000000000000000 ) ) ;
#214 = LINE ( 'NONE', #30, #223 ) ;
#215 = CARTESIAN_POINT ( 'NONE',  ( 0.0000000000000000000, 6.800000000000000700, 0.0000000000000000000 ) ) ;
#216 =( LENGTH_UNIT ( ) NAMED_UNIT ( * ) SI_UNIT ( .MILLI., .METRE. ) );
#217 = PLANE ( 'NONE',  #252 ) ;
#218 = CARTESIAN_POINT ( 'NONE',  ( 0.0000000000000000000, 4.000000000000000000, -2.500000000000000000 ) ) ;
#219 = ORIENTED_EDGE ( 'NONE', *, *, #298, .F. ) ;
#220 = AXIS2_PLACEMENT_3D ( 'NONE', #165, #11, #283 ) ;
#221 = EDGE_CURVE ( 'NONE', #247, #108, #214, .T. ) ;
#222 = EDGE_LOOP ( 'NONE', ( #67, #173 ) ) ;
#223 = VECTOR ( 'NONE', #193, 1000.000000000000000 ) ;
#224 = ADVANCED_FACE ( 'NONE', ( #25 ), #236, .T. ) ;
#225 = EDGE_LOOP ( 'NONE', ( #219, #102, #76, #231 ) ) ;
#226 = CIRCLE ( 'NONE', #220, 0.9999999999999997800 ) ;
#227 = CARTESIAN_POINT ( 'NONE',  ( 0.0000000000000000000, 0.0000000000000000000, 0.0000000000000000000 ) ) ;
#228 = EDGE_LOOP ( 'NONE', ( #276, #23, #48, #26 ) ) ;
#229 = CIRCLE ( 'NONE', #205, 1.500000000000001300 ) ;
#230 = ORIENTED_EDGE ( 'NONE', *, *, #208, .T. ) ;
#231 = ORIENTED_EDGE ( 'NONE', *, *, #319, .F. ) ;
#232 = CIRCLE ( 'NONE', #318, 0.9999999999999997800 ) ;
#233 =( GEOMETRIC_REPRESENTATION_CONTEXT ( 3 ) GLOBAL_UNCERTAINTY_ASSIGNED_CONTEXT ( ( #125 ) ) GLOBAL_UNIT_ASSIGNED_CONTEXT ( ( #184, #21, #206 ) ) REPRESENTATION_CONTEXT ( 'NONE', 'WORKASPACE' ) );
#234 = EDGE_CURVE ( 'NONE', #17, #96, #297, .T. ) ;
#235 = DIRECTION ( 'NONE',  ( 0.0000000000000000000, 1.000000000000000000, 0.0000000000000000000 ) ) ;
#236 = CONICAL_SURFACE ( 'NONE', #271, 1.500000000000001300, 0.7853981633974502800 ) ;
#237 = CARTESIAN_POINT ( 'NONE',  ( 0.0000000000000000000, 4.000000000000000000, 0.0000000000000000000 ) ) ;
#238 = SURFACE_SIDE_STYLE ('',( #47 ) ) ;
#239 = CARTESIAN_POINT ( 'NONE',  ( 0.0000000000000000000, 0.4999999999999995600, -1.500000000000001300 ) ) ;
#240 = DIRECTION ( 'NONE',  ( 0.0000000000000000000, 1.000000000000000000, 0.0000000000000000000 ) ) ;
#241 = DIRECTION ( 'NONE',  ( 0.0000000000000000000, 0.7071067811865462400, 0.7071067811865489100 ) ) ;
#242 = ORIENTED_EDGE ( 'NONE', *, *, #319, .T. ) ;
#243 = CARTESIAN_POINT ( 'NONE',  ( 0.0000000000000000000, 4.000000000000000000, 0.0000000000000000000 ) ) ;
#244 = DIRECTION ( 'NONE',  ( -0.0000000000000000000, -1.000000000000000000, -0.0000000000000000000 ) ) ;
#245 = CARTESIAN_POINT ( 'NONE',  ( 0.0000000000000000000, 6.800000000000000700, 0.0000000000000000000 ) ) ;
#246 = CIRCLE ( 'NONE', #29, 1.500000000000001300 ) ;
#247 = VERTEX_POINT ( 'NONE', #259 ) ;
#248 = ADVANCED_BREP_SHAPE_REPRESENTATION ( '3161~5', ( #187, #57 ), #150 ) ;
#249 = COLOUR_RGB ( '',0.7529411764705882200, 0.7529411764705882200, 0.7529411764705882200 ) ;
#250 = CIRCLE ( 'NONE', #154, 1.500000000000001300 ) ;
#251 = PRESENTATION_LAYER_ASSIGNMENT (  '', '', ( #73 ) ) ;
#252 = AXIS2_PLACEMENT_3D ( 'NONE', #198, #88, #119 ) ;
#253 = ORIENTED_EDGE ( 'NONE', *, *, #288, .T. ) ;
#254 = FACE_OUTER_BOUND ( 'NONE', #117, .T. ) ;
#255 = CIRCLE ( 'NONE', #109, 1.999999999999999600 ) ;
#256 = ADVANCED_FACE ( 'NONE', ( #101 ), #93, .T. ) ;
#257 = DIRECTION ( 'NONE',  ( 0.0000000000000000000, 0.0000000000000000000, -1.000000000000000000 ) ) ;
#258 = CARTESIAN_POINT ( 'NONE',  ( 0.0000000000000000000, 4.000000000000000000, 0.0000000000000000000 ) ) ;
#259 = CARTESIAN_POINT ( 'NONE',  ( 1.530808498934192300E-016, 0.0000000000000000000, -0.9999999999999997800 ) ) ;
#260 = CIRCLE ( 'NONE', #207, 1.500000000000001300 ) ;
#261 = DIRECTION ( 'NONE',  ( 0.0000000000000000000, 0.0000000000000000000, -1.000000000000000000 ) ) ;
#262 = APPLICATION_PROTOCOL_DEFINITION ( 'draft international standard', 'automotive_design', 1998, #307 ) ;
#263 = CARTESIAN_POINT ( 'NONE',  ( 1.836970198721031400E-016, 0.4999999999999995600, 1.500000000000001300 ) ) ;
#264 = VERTEX_POINT ( 'NONE', #196 ) ;
#265 = AXIS2_PLACEMENT_3D ( 'NONE', #138, #104, #80 ) ;
#266 = EDGE_CURVE ( 'NONE', #123, #151, #179, .T. ) ;
#267 = ORIENTED_EDGE ( 'NONE', *, *, #124, .F. ) ;
#268 = VECTOR ( 'NONE', #302, 1000.000000000000000 ) ;
#269 = LINE ( 'NONE', #284, #37 ) ;
#270 = ORIENTED_EDGE ( 'NONE', *, *, #132, .F. ) ;
#271 = AXIS2_PLACEMENT_3D ( 'NONE', #211, #304, #137 ) ;
#272 = CARTESIAN_POINT ( 'NONE',  ( 3.061616997868383100E-016, 4.000000000000000000, 2.500000000000000000 ) ) ;
#273 = CARTESIAN_POINT ( 'NONE',  ( 0.0000000000000000000, 0.4999999999999995600, 0.0000000000000000000 ) ) ;
#274 = EDGE_CURVE ( 'NONE', #52, #108, #290, .T. ) ;
#275 = CARTESIAN_POINT ( 'NONE',  ( 0.0000000000000000000, 6.800000000000000700, 0.0000000000000000000 ) ) ;
#276 = ORIENTED_EDGE ( 'NONE', *, *, #129, .T. ) ;
#277 = CARTESIAN_POINT ( 'NONE',  ( 0.0000000000000000000, 6.800000000000000700, 0.0000000000000000000 ) ) ;
#278 = FACE_OUTER_BOUND ( 'NONE', #103, .T. ) ;
#279 = CARTESIAN_POINT ( 'NONE',  ( 1.836970198721031400E-016, 4.000000000000000000, 1.500000000000001300 ) ) ;
#280 = SURFACE_STYLE_USAGE ( .BOTH. , #238 ) ;
#281 = DIRECTION ( 'NONE',  ( 0.0000000000000000000, 1.000000000000000000, 0.0000000000000000000 ) ) ;
#282 = ORIENTED_EDGE ( 'NONE', *, *, #266, .T. ) ;
#283 = DIRECTION ( 'NONE',  ( 0.0000000000000000000, 0.0000000000000000000, 1.000000000000000000 ) ) ;
#284 = CARTESIAN_POINT ( 'NONE',  ( 0.0000000000000000000, 0.4999999999999995600, 1.500000000000001300 ) ) ;
#285 = EDGE_LOOP ( 'NONE', ( #75, #282, #181, #153 ) ) ;
#286 = DIRECTION ( 'NONE',  ( 0.0000000000000000000, -0.0000000000000000000, 1.000000000000000000 ) ) ;
#287 = PRODUCT_RELATED_PRODUCT_CATEGORY ( 'part', '', ( #160 ) ) ;
#288 = EDGE_CURVE ( 'NONE', #17, #289, #157, .T. ) ;
#289 = VERTEX_POINT ( 'NONE', #114 ) ;
#290 = LINE ( 'NONE', #142, #84 ) ;
#291 = SHAPE_DEFINITION_REPRESENTATION ( #55, #248 ) ;
#292 = VERTEX_POINT ( 'NONE', #272 ) ;
#293 = ORIENTED_EDGE ( 'NONE', *, *, #234, .F. ) ;
#294 = SURFACE_STYLE_FILL_AREA ( #185 ) ;
#295 = SURFACE_STYLE_USAGE ( .BOTH. , #22 ) ;
#296 = DIRECTION ( 'NONE',  ( -0.0000000000000000000, 1.000000000000000000, -0.0000000000000000000 ) ) ;
#297 = CIRCLE ( 'NONE', #15, 1.999999999999999600 ) ;
#298 = EDGE_CURVE ( 'NONE', #247, #264, #226, .T. ) ;
#299 = ORIENTED_EDGE ( 'NONE', *, *, #132, .T. ) ;
#300 = PRESENTATION_LAYER_ASSIGNMENT (  '', '', ( #43 ) ) ;
#301 = AXIS2_PLACEMENT_3D ( 'NONE', #194, #235, #58 ) ;
#302 = DIRECTION ( 'NONE',  ( -0.0000000000000000000, -1.000000000000000000, -0.0000000000000000000 ) ) ;
#303 = CARTESIAN_POINT ( 'NONE',  ( 2.755455298081544300E-016, 6.800000000000000700, 1.999999999999999600 ) ) ;
#304 = DIRECTION ( 'NONE',  ( -0.0000000000000000000, 1.000000000000000000, -0.0000000000000000000 ) ) ;
#305 = EDGE_LOOP ( 'NONE', ( #293, #253, #38, #212 ) ) ;
#306 = ADVANCED_FACE ( 'NONE', ( #278 ), #79, .T. ) ;
#307 = APPLICATION_CONTEXT ( 'automotive_design' ) ;
#308 = DIRECTION ( 'NONE',  ( 0.0000000000000000000, 0.0000000000000000000, 1.000000000000000000 ) ) ;
#309 = DIRECTION ( 'NONE',  ( -0.0000000000000000000, -1.000000000000000000, -0.0000000000000000000 ) ) ;
#310 = CIRCLE ( 'NONE', #78, 2.500000000000000000 ) ;
#311 = EDGE_LOOP ( 'NONE', ( #54, #100 ) ) ;
#312 = DIRECTION ( 'NONE',  ( 0.0000000000000000000, -1.000000000000000000, 0.0000000000000000000 ) ) ;
#313 =( NAMED_UNIT ( * ) SI_UNIT ( $, .STERADIAN. ) SOLID_ANGLE_UNIT ( ) );
#314 = DIRECTION ( 'NONE',  ( 0.0000000000000000000, -0.0000000000000000000, 1.000000000000000000 ) ) ;
#315 = UNCERTAINTY_MEASURE_WITH_UNIT (LENGTH_MEASURE( 1.000000000000000100E-005 ), #216, 'distance_accuracy_value', 'NONE');
#316 = DIRECTION ( 'NONE',  ( 0.0000000000000000000, -0.7071067811865487900, -0.7071067811865463500 ) ) ;
#317 = ORIENTED_EDGE ( 'NONE', *, *, #266, .F. ) ;
#318 = AXIS2_PLACEMENT_3D ( 'NONE', #227, #3, #155 ) ;
#319 = EDGE_CURVE ( 'NONE', #264, #151, #269, .T. ) ;
#320 = LINE ( 'NONE', #35, #197 ) ;
ENDSEC;
END-ISO-10303-21;
